  0
SECTION
  2
HEADER
  9
$ACADVER
  1
AC1009
  9
$INSBASE
 10
0.0
 20
0.0
 30
0.0
  9
$EXTMIN
 10
185.86065972067939
 20
176.27746798130389
 30
-0.000000000000013
  9
$EXTMAX
 10
635.96502897884329
 20
587.01049970813392
 30
0.0000000000000023
  9
$LIMMIN
 10
0.0
 20
0.0
  9
$LIMMAX
 10
1188.0
 20
840.0
  9
$ORTHOMODE
 70
     1
  9
$REGENMODE
 70
     1
  9
$FILLMODE
 70
     1
  9
$QTEXTMODE
 70
     0
  9
$MIRRTEXT
 70
     1
  9
$DRAGMODE
 70
     2
  9
$LTSCALE
 40
1.0
  9
$OSMODE
 70
    39
  9
$ATTMODE
 70
     1
  9
$TEXTSIZE
 40
3.0
  9
$TRACEWID
 40
0.05
  9
$TEXTSTYLE
  7
ITALICT
  9
$CLAYER
  8
0
  9
$CELTYPE
  6
CONTINUOUS
  9
$CECOLOR
 62
   256
  9
$DIMSCALE
 40
1.0
  9
$DIMASZ
 40
3.0
  9
$DIMEXO
 40
1.0
  9
$DIMDLI
 40
1.4824161510814720E+016
  9
$DIMRND
 40
0.0
  9
$DIMDLE
 40
0.0
  9
$DIMEXE
 40
1.0
  9
$DIMTP
 40
0.15
  9
$DIMTM
 40
-0.1
  9
$DIMTXT
 40
3.0
  9
$DIMCEN
 40
2.0
  9
$DIMTSZ
 40
0.0
  9
$DIMTOL
 70
     0
  9
$DIMLIM
 70
     0
  9
$DIMTIH
 70
     0
  9
$DIMTOH
 70
     0
  9
$DIMSE1
 70
     0
  9
$DIMSE2
 70
     0
  9
$DIMTAD
 70
     1
  9
$DIMZIN
 70
     0
  9
$DIMBLK
  1

  9
$DIMASO
 70
     0
  9
$DIMSHO
 70
     0
  9
$DIMPOST
  1

  9
$DIMAPOST
  1

  9
$DIMALT
 70
     0
  9
$DIMALTD
 70
     2
  9
$DIMALTF
 40
25.399999999999999
  9
$DIMLFAC
 40
1.0
  9
$DIMTOFL
 70
     1
  9
$DIMTVP
 40
1.0
  9
$DIMTIX
 70
     0
  9
$DIMSOXD
 70
     0
  9
$DIMSAH
 70
     0
  9
$DIMBLK1
  1

  9
$DIMBLK2
  1

  9
$DIMSTYLE
  2
STANDARD
  9
$DIMCLRD
 70
     0
  9
$DIMCLRE
 70
     0
  9
$DIMCLRT
 70
     0
  9
$DIMTFAC
 40
1.0
  9
$DIMGAP
 40
1.0
  9
$LUNITS
 70
     2
  9
$LUPREC
 70
     2
  9
$SKETCHINC
 40
0.1
  9
$FILLETRAD
 40
0.0
  9
$AUNITS
 70
     0
  9
$AUPREC
 70
     2
  9
$MENU
  1
ACAD
  9
$ELEVATION
 40
0.0
  9
$PELEVATION
 40
0.0
  9
$THICKNESS
 40
0.0
  9
$LIMCHECK
 70
     0
  9
$BLIPMODE
 70
     0
  9
$CHAMFERA
 40
0.0
  9
$CHAMFERB
 40
0.0
  9
$SKPOLY
 70
     1
  9
$TDCREATE
 40
2450580.7034460641
  9
$TDUPDATE
 40
2452055.645575196
  9
$TDINDWG
 40
0.5820034606
  9
$TDUSRTIMER
 40
0.5820034606
  9
$USRTIMER
 70
     1
  9
$ANGBASE
 50
0.0
  9
$ANGDIR
 70
     0
  9
$PDMODE
 70
     0
  9
$PDSIZE
 40
0.0
  9
$PLINEWID
 40
0.0
  9
$COORDS
 70
     2
  9
$SPLFRAME
 70
     0
  9
$SPLINETYPE
 70
     6
  9
$SPLINESEGS
 70
     8
  9
$ATTDIA
 70
     0
  9
$ATTREQ
 70
     1
  9
$HANDLING
 70
 12289
  9
$HANDSEED
  5
15CF4
  9
$SURFTAB1
 70
     6
  9
$SURFTAB2
 70
     6
  9
$SURFTYPE
 70
     6
  9
$SURFU
 70
     6
  9
$SURFV
 70
     6
  9
$UCSNAME
  2

  9
$UCSORG
 10
0.0
 20
0.0
 30
0.0
  9
$UCSXDIR
 10
1.0
 20
0.0
 30
0.0
  9
$UCSYDIR
 10
0.0
 20
1.0
 30
0.0
  9
$PUCSNAME
  2

  9
$PUCSORG
 10
0.0
 20
0.0
 30
0.0
  9
$PUCSXDIR
 10
1.0
 20
0.0
 30
0.0
  9
$PUCSYDIR
 10
0.0
 20
1.0
 30
0.0
  9
$USERI1
 70
     0
  9
$USERI2
 70
-31485
  9
$USERI3
 70
     0
  9
$USERI4
 70
     0
  9
$USERI5
 70
     0
  9
$USERR1
 40
0.0
  9
$USERR2
 40
0.0
  9
$USERR3
 40
0.0
  9
$USERR4
 40
0.0
  9
$USERR5
 40
0.0
  9
$WORLDVIEW
 70
     1
  9
$SHADEDGE
 70
     3
  9
$SHADEDIF
 70
    70
  9
$TILEMODE
 70
     1
  9
$MAXACTVP
 70
    16
  9
$PLIMCHECK
 70
     0
  9
$PEXTMIN
 10
1.0000000000000000E+020
 20
1.0000000000000000E+020
 30
1.0000000000000000E+020
  9
$PEXTMAX
 10
-1.0000000000000000E+020
 20
-1.0000000000000000E+020
 30
-1.0000000000000000E+020
  9
$PLIMMIN
 10
0.0
 20
0.0
  9
$PLIMMAX
 10
12.0
 20
9.0
  9
$UNITMODE
 70
     0
  9
$VISRETAIN
 70
     0
  9
$PLINEGEN
 70
     0
  9
$PSLTSCALE
 70
     0
  0
ENDSEC
  0
SECTION
  2
TABLES
  0
TABLE
  2
VPORT
 70
     3
  0
VPORT
  2
*ACTIVE
 70
     0
 10
0.0
 20
0.0
 11
1.0
 21
1.0
 12
410.86798247620749
 22
381.57249006886008
 13
0.0
 23
0.0
 14
1.0
 24
1.0
 15
0.0
 25
0.0
 16
0.0
 26
0.0
 36
1.0
 17
0.0
 27
0.0
 37
0.0
 40
415.6937473634415
 41
1.7274401473296499
 42
1.0
 43
0.0
 44
0.0
 50
0.0
 51
0.0
 71
     0
 72
   100
 73
     1
 74
     1
 75
     0
 76
     0
 77
     0
 78
     0
  0
ENDTAB
  0
TABLE
  2
LTYPE
 70
     4
  0
LTYPE
  2
CONTINUOUS
 70
     0
  3
Solid line
 72
    65
 73
     0
 40
0.0
  0
LTYPE
  2
CENTER
 70
     0
  3
____________________ _ ____________________ _ 
 72
    65
 73
     4
 40
34.5
 49
30.0
 49
-1.5
 49
1.5
 49
-1.5
  0
LTYPE
  2
HIDDEN
 70
     0
  3
___ ___ ___ ___ ___ ___ ___ ___ ___ ___ 
 72
    65
 73
     2
 40
6.0
 49
4.5
 49
-1.5
  0
LTYPE
  2
PHANTOM
 70
     0
  3
__________ _ _ __________ _ _ __________ _ _ 
 72
    65
 73
     6
 40
15.0
 49
10.0
 49
-1.0
 49
1.0
 49
-1.0
 49
1.0
 49
-1.0
  0
ENDTAB
  0
TABLE
  2
LAYER
 70
     6
  0
LAYER
  2
0
 70
     0
 62
     7
  6
CONTINUOUS
  0
LAYER
  2
LOGO
 70
     0
 62
     7
  6
CONTINUOUS
  0
LAYER
  2
DIM
 70
     0
 62
     5
  6
CONTINUOUS
  0
LAYER
  2
CENTER
 70
     0
 62
     1
  6
CONTINUOUS
  0
LAYER
  2
HIDDEN
 70
     0
 62
     3
  6
CONTINUOUS
  0
LAYER
  2
UMCL3
 70
     0
 62
     1
  6
CONTINUOUS
  0
ENDTAB
  0
TABLE
  2
STYLE
 70
     7
  0
STYLE
  2
STANDARD
 70
     0
 40
0.0
 41
1.0
 50
0.0
 71
     0
 42
3.0
  3
txt
  4

  0
STYLE
  2
ITALICT
 70
     0
 40
0.0
 41
1.0
 50
0.0
 71
     0
 42
3.0
  3
ITALICT.SHX
  4

  0
STYLE
  2
ROMANSS
 70
     0
 40
0.0
 41
1.0
 50
0.0
 71
     0
 42
3.0
  3
ROMANSS.SHX
  4
LMP
  0
STYLE
  2
CHINESET
 70
     0
 40
0.0
 41
1.0
 50
0.0
 71
     0
 42
5.0
  3
simplex.shx
  4
chineset.shx
  0
STYLE
  2
LOGO
 70
     0
 40
0.0
 41
1.0
 50
0.0
 71
     0
 42
5.0
  3
txt
  4

  0
STYLE
  2
ROMANS
 70
     0
 40
0.0
 41
1.0
 50
0.0
 71
     0
 42
3.0
  3
ROMANS.SHX
  4
LMP
  0
STYLE
  2
ROMANS1
 70
     0
 40
0.0
 41
1.0
 50
0.0
 71
     0
 42
3.0
  3
ROMANS.SHX
  4

  0
ENDTAB
  0
TABLE
  2
VIEW
 70
     0
  0
ENDTAB
  0
TABLE
  2
UCS
 70
     0
  0
ENDTAB
  0
TABLE
  2
APPID
 70
     1
  0
APPID
  2
ACAD
 70
     0
  0
ENDTAB
  0
TABLE
  2
DIMSTYLE
 70
     1
  0
DIMSTYLE
  2
STANDARD
 70
     0
  3

  4

  5

  6

  7

 40
1.0
 41
0.18
 42
0.0625
 43
0.38
 44
0.18
 45
0.0
 46
0.0
 47
0.0
 48
0.0
140
0.18
141
0.09
142
0.0
143
25.399999999999999
144
1.0
145
0.0
146
1.0
147
0.09
 71
     0
 72
     0
 73
     1
 74
     1
 75
     0
 76
     0
 77
     0
 78
     0
170
     0
171
     2
172
     0
173
     0
174
     0
175
     0
176
     0
177
     0
178
     0
  0
ENDTAB
  0
ENDSEC
  0
SECTION
  2
BLOCKS
  0
BLOCK
  8
0
  2
$MODEL_SPACE
 70
     0
 10
0.0
 20
0.0
 30
0.0
  3
$MODEL_SPACE
  1

  0
ENDBLK
  5
3E
  8
0
  0
BLOCK
 67
     1
  8
0
  2
$PAPER_SPACE
 70
     0
 10
0.0
 20
0.0
 30
0.0
  3
$PAPER_SPACE
  1

  0
ENDBLK
  5
3C
 67
     1
  8
0
  0
ENDSEC
  0
SECTION
  2
ENTITIES
  0
LINE
  5
B2B
  8
0
 62
     4
 10
185.86272374947831
 20
232.92671314659441
 30
0.0
 11
185.86272374947831
 21
586.95774538779415
 31
0.0
  0
LINE
  5
B2D
  8
0
 62
     4
 10
635.92834892189944
 20
232.92671314659441
 30
0.0
 11
185.86272374947831
 21
232.92671314659441
 31
0.0
  0
LINE
  5
B2E
  8
0
 62
     4
 10
185.86272374947831
 20
586.95774538779415
 30
0.0
 11
635.92834892189956
 21
586.95774538779358
 31
0.0
  0
LINE
  5
B2F
  8
0
 62
     4
 10
635.92834892189956
 20
586.95774538779381
 30
0.0
 11
635.92834892189944
 21
232.92671314659441
 31
0.0
  0
LINE
  5
D2E
  8
LOGO
 62
     1
 10
635.92834892189944
 20
176.3249335016769
 30
0.0
 11
185.86272374947831
 21
176.3249335016769
 31
0.0
  0
LINE
  5
D2F
  8
LOGO
 62
     1
 10
635.92834892189944
 20
232.92671314659441
 30
0.0
 11
185.86272374947831
 21
232.92671314659441
 31
0.0
  0
TEXT
  5
D35
  8
LOGO
 62
     7
 10
315.01977131281541
 20
218.75491480467591
 30
0.0
 40
11.320355928983499
  1
訂購代號:
  7
CHINESET
  0
TEXT
  5
D36
  8
LOGO
 62
     7
 10
313.66579433335261
 20
208.130436645739
 30
0.0
 40
7.546903952655672
  1
Order example:
 41
0.8
  7
CHINESET
  0
TEXT
  5
D37
  8
LOGO
  6
CONTINUOUS
 62
     5
 10
190.14649593377129
 20
178.95233731999099
 30
0.0
 40
5.660177964491754
  1
MINDMAN INDUSTRIAL CO.,LTD
 41
0.85
  7
CHINESET
  0
TEXT
  5
D38
  8
LOGO
  6
CONTINUOUS
 62
     5
 10
187.7153955643023
 20
187.44426769338759
 30
0.0
 40
8.4902669467376342
  1
金器工業股份有限公司
 41
0.8
  7
LOGO
  0
SOLID
  5
D39
  8
LOGO
 62
     2
 10
206.8410742179997
 20
208.37488556272061
 30
0.0
 11
207.85375522301149
 21
208.37488556272061
 31
0.0
 12
219.49958678063609
 22
231.5821585942218
 32
0.0
 13
220.51226778564791
 23
231.5821585942202
 33
0.0
  0
SOLID
  5
D3A
  8
LOGO
 62
     5
 10
207.85375522301149
 20
208.37488556272061
 30
0.0
 11
210.30106765178729
 21
208.37488556272061
 31
0.0
 12
219.49958678063609
 22
229.72557675170091
 32
0.0
 13
217.05227435185981
 23
220.75209784618681
 33
0.0
  0
SOLID
  5
D3B
  8
LOGO
 62
     5
 10
207.85375522301149
 20
210.2314674052399
 30
0.0
 11
210.30106765178729
 21
219.204946310754
 31
0.0
 12
219.49958678063609
 22
231.5821585942218
 32
0.0
 13
217.05227435185981
 23
231.5821585942218
 33
0.0
  0
LINE
  5
D3C
  8
LOGO
 62
     1
 10
310.38663896829701
 20
198.9656453596439
 30
0.0
 11
185.86272374947819
 21
198.9656453596439
 31
0.0
  0
SOLID
  5
D3D
  8
LOGO
 62
     2
 10
206.8410742179997
 20
231.5821585942202
 30
0.0
 11
207.85375522301149
 21
231.5821585942202
 31
0.0
 12
206.8410742179997
 22
208.37488556272061
 32
0.0
 13
207.85375522301149
 23
208.37488556272061
 33
0.0
  0
SOLID
  5
D3E
  8
LOGO
 62
     2
 10
194.18256165536249
 20
208.37488556271981
 30
0.0
 11
195.1952426603749
 21
208.37488556272061
 31
0.0
 12
206.8410742179997
 22
231.5821585942202
 32
0.0
 13
207.85375522301149
 23
231.5821585942202
 33
0.0
  0
SOLID
  5
D3F
  8
LOGO
 62
     5
 10
207.85375522301149
 20
231.5821585942202
 30
0.0
 11
210.30106765178729
 21
231.5821585942218
 31
0.0
 12
207.85375522301149
 22
210.2314674052399
 32
0.0
 13
210.30106765178729
 23
219.204946310754
 33
0.0
  0
SOLID
  5
D40
  8
LOGO
 62
     5
 10
204.39376178922359
 20
208.37488556272061
 30
0.0
 11
206.8410742179997
 21
208.37488556272061
 31
0.0
 12
204.39376178922359
 22
220.75209784618681
 32
0.0
 13
206.8410742179997
 23
229.72557675170091
 33
0.0
  0
SOLID
  5
D41
  8
LOGO
 62
     5
 10
195.1952426603749
 20
208.37488556272061
 30
0.0
 11
197.64255508915099
 21
208.37488556272061
 31
0.0
 12
206.8410742179997
 22
229.72557675170091
 32
0.0
 13
204.39376178922359
 23
220.75209784618681
 33
0.0
  0
SOLID
  5
D42
  8
LOGO
 62
     5
 10
191.73524922658609
 20
208.37488556272061
 30
0.0
 11
194.18256165536249
 21
208.37488556271981
 31
0.0
 12
204.39376178922359
 22
231.5821585942218
 32
0.0
 13
206.8410742179997
 23
231.5821585942202
 33
0.0
  0
LINE
  5
D43
  8
LOGO
 62
     1
 10
185.86272374947831
 20
176.3249335016769
 30
0.0
 11
185.86272374947831
 21
232.92671314659441
 31
0.0
  0
SOLID
  5
D44
  8
LOGO
 62
     5
 10
196.09526290357729
 20
204.1553813751749
 30
0.0
 11
196.93916374108801
 21
204.1553813751749
 31
0.0
 12
196.09526290357729
 22
199.93587718762831
 32
0.0
 13
196.93916374108801
 23
199.93587718762981
 33
0.0
  0
SOLID
  5
D45
  8
LOGO
 62
     5
 10
196.09526290357729
 20
204.74611196143081
 30
0.0
 11
196.93916374108801
 21
204.74611196143081
 31
0.0
 12
196.09526290357729
 22
205.42123263143901
 32
0.0
 13
196.93916374108801
 23
205.42123263143901
 33
0.0
  0
SOLID
  5
D46
  8
LOGO
 62
     5
 10
194.25238980859049
 20
204.1553813751749
 30
0.0
 11
195.09629064609871
 21
204.1553813751749
 31
0.0
 12
194.25238980859049
 22
199.93587718762981
 32
0.0
 13
195.09629064609871
 23
199.93587718762981
 33
0.0
  0
SOLID
  5
D47
  8
LOGO
 62
     5
 10
191.0319985286624
 20
199.93587718762981
 30
0.0
 11
191.8758993661709
 21
199.93587718762981
 31
0.0
 12
194.25238980859049
 22
204.1553813751749
 32
0.0
 13
195.09629064609871
 23
204.1553813751749
 33
0.0
  0
SOLID
  5
D48
  8
LOGO
 62
     5
 10
191.0319985286624
 20
204.1553813751749
 30
0.0
 11
191.8758993661709
 21
204.1553813751749
 31
0.0
 12
191.0319985286624
 22
199.93587718762981
 32
0.0
 13
191.8758993661709
 23
199.93587718762981
 33
0.0
  0
SOLID
  5
D49
  8
LOGO
 62
     5
 10
187.8116072487355
 20
199.93587718762981
 30
0.0
 11
188.65550808624531
 21
199.93587718762981
 31
0.0
 12
191.0319985286624
 22
204.1553813751749
 32
0.0
 13
191.8758993661709
 23
204.1553813751749
 33
0.0
  0
SOLID
  5
D4A
  8
LOGO
 62
     5
 10
212.5514136250892
 20
202.46757970015651
 30
0.0
 11
213.39531446259741
 21
202.46757970015651
 31
0.0
 12
212.5514136250892
 22
199.93587718762831
 32
0.0
 13
213.39531446259741
 23
199.93587718762831
 33
0.0
  0
SOLID
  5
D4B
  8
LOGO
 62
     5
 10
210.01971111256231
 20
202.46757970015651
 30
0.0
 11
210.8636119500708
 21
202.46757970015651
 31
0.0
 12
210.01971111256231
 22
199.93587718762981
 32
0.0
 13
210.8636119500708
 23
199.93587718762981
 33
0.0
  0
SOLID
  5
D4C
  8
LOGO
 62
     5
 10
207.4880086000357
 20
204.1553813751749
 30
0.0
 11
208.33190943754411
 21
204.1553813751749
 31
0.0
 12
207.4880086000357
 22
199.93587718762981
 32
0.0
 13
208.33190943754411
 23
199.93587718762981
 33
0.0
  0
SOLID
  5
D4D
  8
LOGO
 62
     5
 10
205.65952865540399
 20
205.42123263143901
 30
0.0
 11
206.50342949291229
 21
205.42123263143901
 31
0.0
 12
205.65952865540399
 22
199.93587718762981
 32
0.0
 13
206.50342949291229
 23
199.93587718762981
 33
0.0
  0
POLYLINE
  5
D4E
  8
LOGO
 62
     5
 66
     1
 10
0.0
 20
0.0
 30
0.0
 70
     1
 40
0.8452532426974354
 41
0.8452532426974354
  0
VERTEX
  5
15CBF
  8
LOGO
 62
     5
 10
202.70325530382809
 20
202.045629281402
 30
0.0
 42
1.0
  0
VERTEX
  5
15CC0
  8
LOGO
 62
     5
 10
206.0842682746179
 20
202.045629281402
 30
0.0
 42
1.0
  0
SEQEND
  5
15CC1
  8
LOGO
 62
     5
  0
SOLID
  5
D4F
  8
LOGO
 62
     5
 10
200.45544536073569
 20
202.46757970015651
 30
0.0
 11
201.2993461982457
 21
202.46757970015651
 31
0.0
 12
200.45544536073569
 22
199.93587718762981
 32
0.0
 13
201.2993461982457
 23
199.93587718762981
 33
0.0
  0
SOLID
  5
D50
  8
LOGO
 62
     5
 10
197.923742848209
 20
204.1553813751749
 30
0.0
 11
198.7676436857175
 21
204.1553813751749
 31
0.0
 12
197.923742848209
 22
199.93587718762981
 32
0.0
 13
198.7676436857175
 23
199.93587718762981
 33
0.0
  0
POLYLINE
  5
D51
  8
LOGO
 62
     5
 66
     1
 10
0.0
 20
0.0
 30
0.0
 40
0.8452532426974354
 41
0.8452532426974354
  0
VERTEX
  5
15CC2
  8
LOGO
 62
     5
 10
200.87942438727299
 20
202.46757970015639
 30
0.0
 42
1.0
  0
VERTEX
  5
15CC3
  8
LOGO
 62
     5
 10
198.3436646591806
 20
202.46757970015639
 30
0.0
 42
1.0
  0
SEQEND
  5
15CC4
  8
LOGO
 62
     5
  0
POLYLINE
  5
D52
  8
LOGO
 62
     5
 66
     1
 10
0.0
 20
0.0
 30
0.0
 40
0.8452532426974354
 41
0.8452532426974354
  0
VERTEX
  5
15CC5
  8
LOGO
 62
     5
 10
212.97539265162609
 20
202.46757970015639
 30
0.0
 42
1.0
  0
VERTEX
  5
15CC6
  8
LOGO
 62
     5
 10
210.43963292353371
 20
202.46757970015639
 30
0.0
 42
1.0
  0
SEQEND
  5
15CC7
  8
LOGO
 62
     5
  0
POLYLINE
  5
D53
  8
LOGO
 62
     5
 66
     1
 10
0.0
 20
0.0
 30
0.0
 40
0.8452532426974354
 41
0.8452532426974354
  0
VERTEX
  5
15CC8
  8
LOGO
 62
     5
 10
210.44369013909929
 20
202.46757970015639
 30
0.0
 42
1.0
  0
VERTEX
  5
15CC9
  8
LOGO
 62
     5
 10
207.9079304110069
 20
202.46757970015639
 30
0.0
 42
1.0
  0
SEQEND
  5
15CCA
  8
LOGO
 62
     5
  0
CIRCLE
  5
D54
  8
LOGO
  6
CONTINUOUS
 62
     6
 10
283.13264667014357
 20
215.95828641520529
 30
0.0
 40
1.9255585439152201
  0
CIRCLE
  5
D55
  8
LOGO
  6
CONTINUOUS
 62
     6
 10
283.13264667014357
 20
215.95828641520529
 30
0.0
 40
3.2864325517551518
  0
LINE
  5
D56
  8
LOGO
 62
     1
 10
310.38663896829701
 20
210.2860012886274
 30
0.0
 11
227.37069548908451
 21
210.2860012886274
 31
0.0
  0
LINE
  5
D57
  8
LOGO
 62
     1
 10
310.38663896829701
 20
221.60635721761091
 30
0.0
 11
227.37069548908451
 21
221.60635721761091
 31
0.0
  0
TEXT
  5
D58
  8
LOGO
 62
     6
 10
281.14331944002163
 20
224.4364461998567
 30
0.0
 40
5.660177964491754
  1
1 : 1
  7
CHINESET
 72
     1
 11
291.116013948888
 21
227.26653518210259
 31
0.0
 73
     2
  0
TEXT
  5
D59
  8
LOGO
 62
     6
 10
281.14331944002163
 20
201.7957343418897
 30
0.0
 40
5.660177964491754
  1
m/m
  7
CHINESET
 72
     1
 11
291.116013948888
 21
204.62582332413561
 31
0.0
 73
     2
  0
SOLID
  5
D5A
  8
LOGO
 62
     2
 10
219.49958678063609
 20
231.5821585942218
 30
0.0
 11
220.51226778564791
 21
231.5821585942202
 31
0.0
 12
219.49958678063609
 22
208.37488556271981
 32
0.0
 13
220.51226778564791
 23
208.37488556271981
 33
0.0
  0
SOLID
  5
D5B
  8
LOGO
 62
     5
 10
220.51226778564791
 20
208.37488556271981
 30
0.0
 11
222.95958021442411
 21
208.37488556271981
 31
0.0
 12
220.51226778564791
 22
231.5821585942202
 32
0.0
 13
222.95958021442411
 23
231.5821585942218
 33
0.0
  0
SOLID
  5
D5C
  8
LOGO
 62
     5
 10
219.49958678063609
 20
229.72557675170091
 30
0.0
 11
217.05227435185981
 21
220.75209784618681
 31
0.0
 12
219.49958678063609
 22
208.37488556271981
 32
0.0
 13
217.05227435185981
 23
208.37488556271981
 33
0.0
  0
LINE
  5
D5D
  8
LOGO
 62
     1
 10
227.37069548908451
 20
198.96564535964379
 30
0.0
 11
227.37069548908451
 21
232.92671314659441
 31
0.0
  0
LINE
  5
D5E
  8
LOGO
 62
     1
 10
272.65211920501838
 20
198.96564535964379
 30
0.0
 11
272.65211920501838
 21
232.92671314659441
 31
0.0
  0
TEXT
  5
D5F
  8
LOGO
 62
     6
 10
234.5697343376726
 20
201.7957343418897
 30
0.0
 40
5.660177964491754
  1
單位 Unit:
 41
0.9
  7
CHINESET
 72
     4
 11
250.01140734705169
 21
204.62582332413561
 31
0.0
  0
SOLID
  5
D60
  8
LOGO
 62
     5
 10
222.11567937691569
 20
202.46757970015651
 30
0.0
 11
222.95958021442411
 21
202.46757970015639
 31
0.0
 12
222.11567937691569
 22
199.93587718762981
 32
0.0
 13
222.95958021442411
 23
199.93587718762981
 33
0.0
  0
SOLID
  5
D61
  8
LOGO
 62
     5
 10
219.58397686438749
 20
199.93587718762981
 30
0.0
 11
220.42787770189719
 21
199.93587718762981
 31
0.0
 12
219.58397686438749
 22
204.1553813751749
 32
0.0
 13
220.42787770189719
 23
204.1553813751749
 33
0.0
  0
SOLID
  5
D62
  8
LOGO
 62
     5
 10
217.75549691975809
 20
204.1553813751749
 30
0.0
 11
218.5993977572665
 21
204.1553813751749
 31
0.0
 12
217.75549691975809
 22
199.93587718762981
 32
0.0
 13
218.5993977572665
 23
199.93587718762981
 33
0.0
  0
LINE
  5
D63
  8
LOGO
 62
     5
 10
222.95958021442411
 20
199.93587718762981
 30
0.0
 11
222.95958021442411
 21
202.46757970015651
 31
0.0
  0
POLYLINE
  5
D64
  8
LOGO
 62
     5
 66
     1
 10
0.0
 20
0.0
 30
0.0
 70
     1
 40
0.8452532426974354
 41
0.8452532426974354
  0
VERTEX
  5
15CCB
  8
LOGO
 62
     5
 10
214.7992235681813
 20
202.045629281402
 30
0.0
 42
1.0
  0
VERTEX
  5
15CCC
  8
LOGO
 62
     5
 10
218.180236538971
 20
202.045629281402
 30
0.0
 42
1.0
  0
SEQEND
  5
15CCD
  8
LOGO
 62
     5
  0
CIRCLE
  5
D65
  8
LOGO
 62
     5
 10
216.48973005357661
 20
202.04562928140231
 30
0.0
 40
1.265851256263679
  0
POLYLINE
  5
D66
  8
LOGO
 62
     5
 66
     1
 10
0.0
 20
0.0
 30
0.0
 70
     1
  0
VERTEX
  5
15CCE
  8
LOGO
 62
     5
 10
215.22387879731281
 20
202.04562928140231
 30
0.0
 42
1.0000000573306349
  0
VERTEX
  5
15CCF
  8
LOGO
 62
     5
 10
217.75558130984049
 20
202.04562928140231
 30
0.0
 42
1.0000000573306349
  0
SEQEND
  5
15CD0
  8
LOGO
 62
     5
  0
POLYLINE
  5
D67
  8
LOGO
 62
     5
 66
     1
 10
0.0
 20
0.0
 30
0.0
 40
0.8452532426974354
 41
0.8452532426974354
  0
VERTEX
  5
15CD1
  8
LOGO
 62
     5
 10
222.53965840345259
 20
202.46757970015639
 30
0.0
 42
1.0
  0
VERTEX
  5
15CD2
  8
LOGO
 62
     5
 10
220.00389867536029
 20
202.46757970015639
 30
0.0
 42
1.0
  0
SEQEND
  5
15CD3
  8
LOGO
 62
     5
  0
TEXT
  5
D68
  8
LOGO
 62
     6
 10
234.01635086703709
 20
213.19570973617101
 30
0.0
 40
5.660177964491754
  1
投影 View:
 41
0.9
  7
CHINESET
 72
     4
 11
250.01140734705169
 21
215.94617925311911
 31
0.0
  0
TEXT
  5
D69
  8
LOGO
 62
     6
 10
232.03781544462771
 20
224.43923172050859
 30
0.0
 40
5.660177964491754
  1
比例 Scale:
 41
0.9
  7
CHINESET
 72
     4
 11
250.01140734705169
 21
227.26653518210259
 31
0.0
  0
LINE
  5
D6A
  8
LOGO
 62
     1
 10
310.38663896829701
 20
176.3249335016769
 30
0.0
 11
310.38663896829701
 21
232.92671314659441
 31
0.0
  0
LINE
  5
D6B
  8
LOGO
  6
CONTINUOUS
 62
     6
 10
293.48219276735779
 20
214.03272787129009
 30
0.0
 11
303.78497016688061
 21
212.67185386345031
 31
0.0
  0
LINE
  5
D6C
  8
LOGO
  6
CONTINUOUS
 62
     6
 10
293.48219276735779
 20
217.88384495912061
 30
0.0
 11
303.78497016688061
 21
219.24471896696051
 31
0.0
  0
LINE
  5
D6D
  8
LOGO
 62
     6
 10
293.48219276735779
 20
214.03272787129009
 30
0.0
 11
293.48219276735779
 21
217.88384495912061
 31
0.0
  0
LINE
  5
D6E
  8
LOGO
 62
     6
 10
303.78497016688061
 20
212.67185386345031
 30
0.0
 11
303.78497016688061
 21
219.24471896696051
 31
0.0
  0
LINE
  5
D6F
  8
LOGO
 62
     6
 10
427.15214864533198
 20
181.04174847208671
 30
0.0
 11
389.41762888205352
 21
181.0417484720866
 31
0.0
  0
LINE
  5
D70
  8
LOGO
 62
     6
 10
427.15214864533198
 20
201.79573434188981
 30
0.0
 11
389.41762888205352
 21
201.79573434188981
 31
0.0
  0
LINE
  5
D71
  8
LOGO
 62
     6
 10
430.92560062165978
 20
210.2860012886274
 30
0.0
 11
385.64417690572571
 21
210.2860012886274
 31
0.0
  0
LINE
  5
D72
  8
LOGO
 62
     6
 10
430.92560062165978
 20
227.26653518210259
 30
0.0
 11
385.64417690572571
 21
227.26653518210259
 31
0.0
  0
TEXT
  5
D73
  8
LOGO
  6
CONTINUOUS
 62
     7
 10
390.76529030217051
 20
214.05945326495529
 30
0.0
 40
9.4336299408195892
  1
MTHS
  7
CHINESET
 72
     1
 11
408.28488876369261
 21
218.776268235365
 31
0.0
 73
     2
  0
LINE
  5
D74
  8
LOGO
 62
     6
 10
385.64417690572571
 20
227.26653518210259
 30
0.0
 11
385.64417690572571
 21
210.2860012886274
 31
0.0
  0
LINE
  5
D75
  8
LOGO
 62
     6
 10
389.41762888205352
 20
201.79573434188981
 30
0.0
 11
389.41762888205352
 21
181.0417484720866
 31
0.0
  0
TEXT
  5
D76
  8
LOGO
  6
CONTINUOUS
 62
     6
 10
399.30047929624538
 20
183.40015595729159
 30
0.0
 40
4.7168149704097937
  1
Model
  7
CHINESET
 72
     4
 11
408.28488876369261
 21
185.7585634424965
 31
0.0
  0
TEXT
  5
D77
  8
LOGO
 62
     6
 10
400.73798481103688
 20
191.61187083884749
 30
0.0
 40
7.546903952655672
  1
型式
  7
CHINESET
 72
     4
 11
408.28488876369261
 21
195.19219338331601
 31
0.0
  0
LINE
  5
D78
  8
LOGO
 62
     6
 10
408.28488876369261
 20
210.2860012886274
 30
0.0
 11
408.28488876369261
 21
201.79573434188981
 31
0.0
  0
LINE
  5
D79
  8
LOGO
 62
     6
 10
430.9256006216599
 20
227.26653518210259
 30
0.0
 11
430.9256006216599
 21
210.2860012886274
 31
0.0
  0
LINE
  5
D7A
  8
LOGO
 62
     6
 10
427.15214864533198
 20
201.79573434188981
 30
0.0
 11
427.15214864533198
 21
181.04174847208671
 31
0.0
  0
LINE
  5
D7B
  8
LOGO
  6
CONTINUOUS
 62
     7
 10
433.85109141964767
 20
218.71612050075569
 30
0.0
 11
441.34907559485617
 21
218.71612050075569
 31
0.0
  0
LINE
  5
D82
  8
LOGO
 62
     6
 10
474.57774468566993
 20
227.26653518210281
 30
0.0
 11
474.57774468566993
 21
210.2860012886274
 31
0.0
  0
LINE
  5
D83
  8
LOGO
 62
     6
 10
444.28559667607891
 20
227.26653518210259
 30
0.0
 11
444.28559667607891
 21
210.2860012886274
 31
0.0
  0
LINE
  5
D85
  8
LOGO
 62
     6
 10
474.57774468566993
 20
181.04174847208671
 30
0.0
 11
444.28559667607891
 21
181.0417484720866
 31
0.0
  0
LINE
  5
D86
  8
LOGO
 62
     6
 10
474.57774468566993
 20
210.2860012886274
 30
0.0
 11
444.28559667607891
 21
210.2860012886274
 31
0.0
  0
LINE
  5
D87
  8
LOGO
 62
     6
 10
474.57774468566993
 20
201.79573434188981
 30
0.0
 11
444.28559667607891
 21
201.79573434188981
 31
0.0
  0
LINE
  5
D88
  8
LOGO
 62
     6
 10
444.28559667607891
 20
201.79573434188981
 30
0.0
 11
444.28559667607891
 21
181.04174847208671
 31
0.0
  0
TEXT
  5
D89
  8
LOGO
  6
CONTINUOUS
 62
     6
 10
453.59180452703379
 20
183.40015595729159
 30
0.0
 40
4.7168149704097937
  1
Bore
 41
0.8
  7
CHINESET
 72
     4
 11
459.43167068087439
 21
185.7585634424965
 31
0.0
  0
TEXT
  5
D8A
  8
LOGO
 62
     6
 10
452.21494377614738
 20
191.41874140698809
 30
0.0
 40
7.546903952655672
  1
內徑
 41
0.9
  7
CHINESET
 72
     4
 11
459.43167068087439
 21
195.19219338331601
 31
0.0
  0
LINE
  5
D8B
  8
LOGO
 62
     6
 10
459.43167024582482
 20
210.2860012886274
 30
0.0
 11
459.43167024582482
 21
201.79573434188981
 31
0.0
  0
LINE
  5
D8C
  8
LOGO
 62
     6
 10
474.57774468566993
 20
201.79573434188981
 30
0.0
 11
474.57774468566993
 21
181.04174847208671
 31
0.0
  0
LINE
  5
D8E
  8
LOGO
 62
     6
 10
474.57774468566993
 20
227.26653518210281
 30
0.0
 11
444.28559667607891
 21
227.26653518210259
 31
0.0
  0
TEXT
  5
D8F
  8
LOGO
  6
CONTINUOUS
 62
     7
 10
452.67539500434691
 20
213.95247530698711
 30
0.0
 40
9.4336299408195892
  1
63
  7
CHINESET
 72
     1
 11
460.31214305167703
 21
218.6692902773969
 31
0.0
 73
     2
  0
LINE
  5
D9E
  8
LOGO
 62
     1
 10
635.92834892189944
 20
176.3249335016769
 30
0.0
 11
635.92834892189944
 21
232.92671314659441
 31
0.0
  0
LINE
  5
DAD
  8
LOGO
 62
     6
 10
487.93774074008888
 20
227.26653518210281
 30
0.0
 11
487.93774074008888
 21
210.28600128862749
 31
0.0
  0
LINE
  5
DAE
  8
LOGO
 62
     6
 10
546.35322282718175
 20
227.2665351821029
 30
0.0
 11
546.35322282718175
 21
210.28600128862749
 31
0.0
  0
TEXT
  5
DAF
  8
LOGO
 62
     6
 10
503.84406356707939
 20
191.64684459814259
 30
0.0
 40
7.546903952655672
  1
旋轉方向
 41
0.9
  7
CHINESET
 72
     4
 11
517.14548178363509
 21
195.19219338331609
 31
0.0
  0
TEXT
  5
DB0
  8
LOGO
  6
CONTINUOUS
 62
     6
 10
491.98913527478283
 20
184.18629178569319
 30
0.0
 40
4.7168149704097937
  1
Rotating direction
 41
0.8
  7
CHINESET
 72
     4
 11
517.14548178363509
 21
185.7585634424965
 31
0.0
  0
LINE
  5
DB1
  8
LOGO
 62
     6
 10
546.35322282718175
 20
201.7957343418899
 30
0.0
 11
487.93774074008888
 21
201.7957343418899
 31
0.0
  0
LINE
  5
DB2
  8
LOGO
 62
     6
 10
546.35322282718175
 20
210.28600128862749
 30
0.0
 11
487.93774074008888
 21
210.28600128862749
 31
0.0
  0
LINE
  5
DB3
  8
LOGO
 62
     6
 10
546.35322282718175
 20
181.04174847208679
 30
0.0
 11
487.93774074008888
 21
181.04174847208671
 31
0.0
  0
LINE
  5
DB4
  8
LOGO
 62
     6
 10
487.93774074008888
 20
201.7957343418899
 30
0.0
 11
487.93774074008888
 21
181.04174847208679
 31
0.0
  0
LINE
  5
DB5
  8
LOGO
 62
     6
 10
517.14548178363543
 20
210.28600128862749
 30
0.0
 11
517.14548178363543
 21
201.7957343418899
 31
0.0
  0
LINE
  5
DB6
  8
LOGO
 62
     6
 10
546.35322282718175
 20
201.7957343418899
 30
0.0
 11
546.35322282718175
 21
181.04174847208679
 31
0.0
  0
LINE
  5
DB7
  8
LOGO
 62
     6
 10
546.35322282718175
 20
227.2665351821029
 30
0.0
 11
487.93774074008888
 21
227.26653518210281
 31
0.0
  0
LINE
  5
DB8
  8
LOGO
  6
CONTINUOUS
 62
     7
 10
477.50323548365799
 20
218.71612050075581
 30
0.0
 11
485.00121965886621
 21
218.71612050075581
 31
0.0
  0
TEXT
  5
DCEA
  8
UMCL3
  6
CONTINUOUS
 62
     2
 10
766.23679790982271
 20
285.02499111941353
 30
0.0
 40
2.5
  1

 41
0.8
  7
ROMANS1
 72
     1
 11
766.23679790982271
 21
286.27499111941353
 31
0.0
 73
     2
  0
TEXT
  5
DCED
  8
UMCL3
  6
CONTINUOUS
 62
     2
 10
741.15575056207274
 20
285.02499111941353
 30
0.0
 40
2.5
  1

 41
0.8
  7
ROMANS1
 72
     1
 11
741.15575056207274
 21
286.27499111941353
 31
0.0
 73
     2
  0
TEXT
  5
DCF2
  8
UMCL3
  6
CONTINUOUS
 62
     2
 10
719.57470321432265
 20
285.02499111941353
 30
0.0
 40
2.5
  1

 41
0.8
  7
ROMANS1
 72
     1
 11
719.57470321432265
 21
286.27499111941353
 31
0.0
 73
     2
  0
TEXT
  5
DD0D
  8
UMCL3
 62
     2
 10
716.36931152386535
 20
289.1485161689501
 30
0.0
 40
3.2999999999999998
  1

 41
0.9
  7
ROMANS
  0
TEXT
  5
DD17
  8
UMCL3
 62
     2
 10
734.45035887161544
 20
289.1485161689501
 30
0.0
 40
3.2999999999999998
  1

 41
0.9
  7
ROMANS
  0
TEXT
  5
DD1A
  8
UMCL3
 62
     2
 10
759.53140621936552
 20
289.1485161689501
 30
0.0
 40
3.2999999999999998
  1

 41
0.9
  7
ROMANS
  0
TEXT
  5
14B64
  8
UMCL3
  6
CONTINUOUS
 62
     2
 10
426.05478391879888
 20
150.3638432988582
 30
0.0
 40
2.5
  1

 41
0.8
  7
ROMANS1
 72
     1
 11
426.05478391879888
 21
151.6138432988582
 31
0.0
 73
     2
  0
TEXT
  5
14B68
  8
UMCL3
 62
     2
 10
388.4510203905802
 20
154.33843610509459
 30
0.0
 40
3.2999999999999998
  1

 41
0.9
  7
ROMANS
  0
TEXT
  5
14B6A
  8
UMCL3
  6
CONTINUOUS
 62
     2
 10
394.72373657104862
 20
150.3638432988582
 30
0.0
 40
2.5
  1

 41
0.8
  7
ROMANS1
 72
     1
 11
394.72373657104862
 21
151.6138432988582
 31
0.0
 73
     2
  0
TEXT
  5
14B77
  8
UMCL3
 62
     2
 10
419.7820677383304
 20
154.33843610509459
 30
0.0
 40
3.2999999999999998
  1

 41
0.9
  7
ROMANS
  0
LINE
  5
14B7C
  8
LOGO
 62
     6
 10
618.12870096869358
 20
227.2665351821029
 30
0.0
 11
618.12870096869358
 21
210.2860012886276
 31
0.0
  0
LINE
  5
14B7D
  8
LOGO
 62
     6
 10
559.71321888160082
 20
227.2665351821029
 30
0.0
 11
559.71321888160082
 21
210.2860012886276
 31
0.0
  0
TEXT
  5
14B7E
  8
LOGO
  6
CONTINUOUS
 62
     6
 10
568.34666224469265
 20
184.18629178569319
 30
0.0
 40
4.7168149704097937
  1
Rotating angle
 41
0.8
  7
CHINESET
 72
     4
 11
588.92095992514692
 21
185.7585634424965
 31
0.0
  0
TEXT
  5
14B7F
  8
LOGO
 62
     6
 10
575.40728503492289
 20
191.65427265321409
 30
0.0
 40
7.546903952655672
  1
旋轉角度
 41
0.9
  7
CHINESET
 72
     4
 11
588.92095992514692
 21
195.19219338331621
 31
0.0
  0
LINE
  5
14B80
  8
LOGO
 62
     6
 10
618.12870096869358
 20
210.2860012886276
 30
0.0
 11
559.71321888160082
 21
210.2860012886276
 31
0.0
  0
LINE
  5
14B81
  8
LOGO
 62
     6
 10
618.12870096869358
 20
201.7957343418899
 30
0.0
 11
559.71321888160082
 21
201.7957343418899
 31
0.0
  0
LINE
  5
14B82
  8
LOGO
 62
     6
 10
618.12870096869358
 20
181.04174847208691
 30
0.0
 11
559.71321888160082
 21
181.04174847208679
 31
0.0
  0
LINE
  5
14B83
  8
LOGO
 62
     6
 10
559.71321888160082
 20
201.7957343418899
 30
0.0
 11
559.71321888160082
 21
181.04174847208691
 31
0.0
  0
LINE
  5
14B84
  8
LOGO
 62
     6
 10
588.92095992514726
 20
210.2860012886276
 30
0.0
 11
588.92095992514726
 21
201.7957343418899
 31
0.0
  0
LINE
  5
14B85
  8
LOGO
 62
     6
 10
618.12870096869358
 20
201.7957343418899
 30
0.0
 11
618.12870096869358
 21
181.04174847208691
 31
0.0
  0
LINE
  5
14B86
  8
LOGO
 62
     6
 10
618.12870096869358
 20
227.2665351821029
 30
0.0
 11
559.71321888160082
 21
227.2665351821029
 31
0.0
  0
LINE
  5
14B87
  8
LOGO
  6
CONTINUOUS
 62
     7
 10
549.27871362516976
 20
218.71612050075581
 30
0.0
 11
556.77669780037797
 21
218.71612050075581
 31
0.0
  0
LINE
  5
15B31
  8
0
 10
387.84303927716701
 20
300.5292114050298
 30
0.0
 11
387.84303927716701
 21
268.5292114050298
 31
0.0
  0
LINE
  5
15B32
  8
0
  6
CONTINUOUS
 10
382.39495232956909
 20
300.5292114050298
 30
0.0
 11
382.39495232956909
 21
268.5292114050298
 31
0.0
  0
LINE
  5
15B33
  8
0
  6
CONTINUOUS
 10
305.2911262247643
 20
300.5292114050298
 30
0.0
 11
305.2911262247643
 21
268.5292114050298
 31
0.0
  0
LINE
  5
15B34
  8
0
 10
299.84303927716701
 20
268.5292114050298
 30
0.0
 11
299.84303927716701
 21
300.5292114050298
 31
0.0
  0
LINE
  5
15B35
  8
0
 10
568.23247554772377
 20
300.5292114050298
 30
0.0
 11
568.23247554772433
 21
268.5292114050298
 31
0.0
  0
LINE
  5
15B36
  8
0
  6
CONTINUOUS
 10
562.78438860012636
 20
300.5292114050298
 30
0.0
 11
562.78438860012636
 21
268.5292114050298
 31
0.0
  0
LINE
  5
15B37
  8
0
 10
480.23247554772428
 20
268.5292114050298
 30
0.0
 11
480.23247554772382
 21
300.5292114050298
 31
0.0
  0
LINE
  5
15B38
  8
0
  6
CONTINUOUS
 10
485.68056249532168
 20
300.5292114050298
 30
0.0
 11
485.68056249532168
 21
268.5292114050298
 31
0.0
  0
LINE
  5
15B39
  8
DIM
 10
395.64303927716719
 20
267.5292114050298
 30
0.0
 11
395.64303927716719
 21
301.5292114050298
 31
0.0
  0
LINE
  5
15B3A
  8
DIM
 10
403.64303927716719
 20
267.5292114050298
 30
0.0
 11
403.64303927716719
 21
372.5292114050298
 31
0.0
  0
LINE
  5
15B3B
  8
DIM
 10
411.64303927716719
 20
267.5292114050298
 30
0.0
 11
411.64303927716719
 21
406.5292114050298
 31
0.0
  0
LINE
  5
15B3C
  8
DIM
 10
419.64303927716719
 20
267.5292114050298
 30
0.0
 11
419.64303927716719
 21
429.5292114050298
 31
0.0
  0
LINE
  5
15B3D
  8
DIM
 10
427.64303927716708
 20
267.5292114050298
 30
0.0
 11
427.64303927716708
 21
442.5292114050298
 31
0.0
  0
LINE
  5
15B3E
  8
CENTER
  6
CENTER
 10
489.23247554772428
 20
264.72272577455209
 30
0.0
 11
489.23247554772428
 21
304.11075071822461
 31
0.0
  0
LINE
  5
15B3F
  8
CENTER
  6
CENTER
 10
559.23247554772377
 20
264.4532345948482
 30
0.0
 11
559.23247554772433
 21
304.11075071822461
 31
0.0
  0
LINE
  5
15B40
  8
CENTER
  6
CENTER
 10
524.23247554772377
 20
264.29147935732863
 30
0.0
 11
524.23247554772433
 21
446.18075221950937
 31
0.0
  0
LINE
  5
15B41
  8
CENTER
  6
CENTER
 10
308.84303927716701
 20
264.72272577455209
 30
0.0
 11
308.84303927716701
 21
304.11075071822461
 31
0.0
  0
LINE
  5
15B42
  8
CENTER
  6
CENTER
 10
378.84303927716701
 20
264.4532345948482
 30
0.0
 11
378.84303927716701
 21
304.11075071822461
 31
0.0
  0
LINE
  5
15B43
  8
CENTER
  6
CENTER
 10
343.84303927716701
 20
264.29147935732863
 30
0.0
 11
343.84303927716701
 21
446.18075221950937
 31
0.0
  0
LINE
  5
15B44
  8
HIDDEN
  6
HIDDEN
 10
564.73247554772433
 20
267.5292114050298
 30
0.0
 11
564.73247554772433
 21
301.5292114050298
 31
0.0
  0
LINE
  5
15B45
  8
HIDDEN
  6
HIDDEN
 10
553.73247554772433
 20
267.5292114050298
 30
0.0
 11
553.73247554772433
 21
301.5292114050298
 31
0.0
  0
LINE
  5
15B46
  8
HIDDEN
  6
HIDDEN
 10
494.73247554772428
 20
267.5292114050298
 30
0.0
 11
494.73247554772428
 21
301.5292114050298
 31
0.0
  0
LINE
  5
15B47
  8
HIDDEN
  6
HIDDEN
 10
483.73247554772428
 20
267.5292114050298
 30
0.0
 11
483.73247554772428
 21
301.5292114050298
 31
0.0
  0
LINE
  5
15B48
  8
HIDDEN
  6
HIDDEN
 10
384.34303927716689
 20
267.5292114050298
 30
0.0
 11
384.34303927716689
 21
301.5292114050298
 31
0.0
  0
LINE
  5
15B49
  8
HIDDEN
  6
HIDDEN
 10
373.34303927716701
 20
267.5292114050298
 30
0.0
 11
373.34303927716701
 21
301.5292114050298
 31
0.0
  0
LINE
  5
15B4A
  8
HIDDEN
  6
HIDDEN
 10
314.34303927716701
 20
267.5292114050298
 30
0.0
 11
314.34303927716701
 21
301.5292114050298
 31
0.0
  0
LINE
  5
15B4B
  8
HIDDEN
  6
HIDDEN
 10
303.34303927716701
 20
267.5292114050298
 30
0.0
 11
303.34303927716701
 21
301.5292114050298
 31
0.0
  0
LINE
  5
15B4C
  8
0
 10
305.2911262247643
 20
268.5292114050298
 30
0.0
 11
306.29112622476441
 21
267.5292114050298
 31
0.0
  0
LINE
  5
15B4D
  8
0
 10
386.84303927716701
 20
267.5292114050298
 30
0.0
 11
300.84303927716701
 21
267.5292114050298
 31
0.0
  0
LINE
  5
15B4E
  8
0
 10
387.84303927716701
 20
268.5292114050298
 30
0.0
 11
299.84303927716701
 21
268.5292114050298
 31
0.0
  0
LINE
  5
15B4F
  8
0
 10
299.84303927716701
 20
268.5292114050298
 30
0.0
 11
300.84303927716701
 21
267.5292114050298
 31
0.0
  0
LINE
  5
15B50
  8
DIM
 10
387.84303927716701
 20
267.5292114050298
 30
0.0
 11
428.64303927716719
 21
267.5292114050298
 31
0.0
  0
LINE
  5
15B51
  8
0
 10
386.84303927716701
 20
267.5292114050298
 30
0.0
 11
387.84303927716701
 21
268.5292114050298
 31
0.0
  0
LINE
  5
15B52
  8
0
 10
382.39495232956909
 20
268.5292114050298
 30
0.0
 11
381.39495232956909
 21
267.5292114050298
 31
0.0
  0
SOLID
  5
15B53
  8
DIM
 10
403.122094744067
 20
270.48363466402952
 30
0.0
 11
404.16398381026693
 21
270.48363466402952
 31
0.0
 12
403.64303927716719
 22
267.5292114050298
 32
0.0
 13
403.64303927716719
 23
267.5292114050298
 33
0.0
  0
SOLID
  5
15B54
  8
DIM
 10
395.122094744067
 20
270.48363466402952
 30
0.0
 11
396.16398381026693
 21
270.48363466402952
 31
0.0
 12
395.64303927716719
 22
267.5292114050298
 32
0.0
 13
395.64303927716719
 23
267.5292114050298
 33
0.0
  0
SOLID
  5
15B55
  8
DIM
 10
427.122094744067
 20
270.48363466402952
 30
0.0
 11
428.16398381026693
 21
270.48363466402952
 31
0.0
 12
427.64303927716708
 22
267.5292114050298
 32
0.0
 13
427.64303927716708
 23
267.5292114050298
 33
0.0
  0
SOLID
  5
15B56
  8
DIM
 10
419.122094744067
 20
270.48363466402952
 30
0.0
 11
420.16398381026733
 21
270.48363466402952
 31
0.0
 12
419.64303927716719
 22
267.5292114050298
 32
0.0
 13
419.64303927716719
 23
267.5292114050298
 33
0.0
  0
SOLID
  5
15B57
  8
DIM
 10
411.122094744067
 20
270.48363466402952
 30
0.0
 11
412.16398381026693
 21
270.48363466402952
 31
0.0
 12
411.64303927716719
 22
267.5292114050298
 32
0.0
 13
411.64303927716719
 23
267.5292114050298
 33
0.0
  0
LINE
  5
15B58
  8
0
 10
567.23247554772433
 20
267.5292114050298
 30
0.0
 11
481.23247554772428
 21
267.5292114050298
 31
0.0
  0
LINE
  5
15B59
  8
0
 10
568.23247554772433
 20
268.5292114050298
 30
0.0
 11
480.23247554772428
 21
268.5292114050298
 31
0.0
  0
LINE
  5
15B5A
  8
0
 10
480.23247554772428
 20
268.5292114050298
 30
0.0
 11
481.23247554772428
 21
267.5292114050298
 31
0.0
  0
LINE
  5
15B5B
  8
0
 10
485.68056249532168
 20
268.5292114050298
 30
0.0
 11
486.68056249532168
 21
267.5292114050298
 31
0.0
  0
LINE
  5
15B5C
  8
0
 10
567.23247554772433
 20
267.5292114050298
 30
0.0
 11
568.23247554772433
 21
268.5292114050298
 31
0.0
  0
LINE
  5
15B5D
  8
0
 10
562.78438860012636
 20
268.5292114050298
 30
0.0
 11
561.78438860012636
 21
267.5292114050298
 31
0.0
  0
LINE
  5
15B5E
  8
0
 10
298.62764896799439
 20
499.70139794283517
 30
0.0
 11
360.84303927716701
 21
499.70139794283517
 31
0.0
  0
LINE
  5
15B5F
  8
0
 10
253.84303927716701
 20
406.5292114050298
 30
0.0
 11
367.84303927716689
 21
406.5292114050298
 31
0.0
  0
LINE
  5
15B60
  8
0
 10
367.84303927716689
 20
429.5292114050298
 30
0.0
 11
253.84303927716701
 21
429.5292114050298
 31
0.0
  0
LINE
  5
15B61
  8
0
  6
PHANTOM
 62
     6
 10
367.84303927716689
 20
399.5292114050298
 30
0.0
 11
253.84303927716701
 21
399.5292114050298
 31
0.0
  0
ARC
  5
15B62
  8
0
 10
343.84303927716701
 20
523.70139794283523
 30
0.0
 40
40.0
 50
216.8698976458339
 51
143.13010235416601
  0
ARC
  5
15B63
  8
0
 10
308.84303927716701
 20
367.5292114050298
 30
0.0
 40
5.0
 50
90.0
 51
180.0
  0
LINE
  5
15B64
  8
0
 62
     4
 10
303.84303927716701
 20
367.5292114050298
 30
0.0
 11
383.84303927716701
 21
367.5292114050298
 31
0.0
  0
LINE
  5
15B65
  8
0
 10
306.29112622476441
 20
301.5292114050298
 30
0.0
 11
305.2911262247643
 21
300.5292114050298
 31
0.0
  0
LINE
  5
15B66
  8
0
 10
386.84303927716701
 20
301.5292114050298
 30
0.0
 11
300.84303927716701
 21
301.5292114050298
 31
0.0
  0
LINE
  5
15B67
  8
0
 10
387.84303927716701
 20
300.5292114050298
 30
0.0
 11
299.84303927716701
 21
300.5292114050298
 31
0.0
  0
LINE
  5
15B68
  8
0
  6
PHANTOM
 62
     6
 10
253.84303927716701
 20
376.5292114050298
 30
0.0
 11
367.84303927716689
 21
376.5292114050298
 31
0.0
  0
CIRCLE
  5
15B69
  8
0
 10
308.84303927716701
 20
558.70139794283523
 30
0.0
 40
5.5
  0
POLYLINE
  5
15B6A
  8
0
 66
     1
 10
0.0
 20
0.0
 30
0.0
  0
VERTEX
  5
15CD4
  8
0
 10
382.39495232956949
 20
567.70139794283523
 30
0.0
  0
VERTEX
  5
15CD5
  8
0
 10
305.2911262247643
 20
567.70139794283523
 30
0.0
  0
SEQEND
  5
15CD6
  8
0
  0
LINE
  5
15B6B
  8
0
 10
360.84303927716701
 20
547.70139794283523
 30
0.0
 11
298.62764896799263
 21
547.70139794283523
 31
0.0
  0
CIRCLE
  5
15B6C
  8
0
 10
308.84303927716701
 20
488.70139794283517
 30
0.0
 40
5.5
  0
POLYLINE
  5
15B6D
  8
0
 66
     1
 10
0.0
 20
0.0
 30
0.0
  0
VERTEX
  5
15CD7
  8
0
 10
305.2911262247643
 20
479.70139794283517
 30
0.0
  0
VERTEX
  5
15CD8
  8
0
 10
382.39495232956949
 20
479.70139794283517
 30
0.0
  0
SEQEND
  5
15CD9
  8
0
  0
TEXT
  5
15B6E
  8
DIM
 10
303.96247249382162
 20
453.51894095197349
 30
0.0
 40
3.0
  1
75
  7
ROMANS
  0
LINE
  5
15B6F
  8
DIM
 10
343.84303927716701
 20
452.51894095197338
 30
0.0
 11
253.84303927716701
 21
452.51894095197338
 31
0.0
  0
LINE
  5
15B70
  8
DIM
 10
253.84303927716701
 20
460.51894095197338
 30
0.0
 11
367.84303927716689
 21
460.51894095197338
 31
0.0
  0
SOLID
  5
15B71
  8
DIM
 10
306.79746253616707
 20
322.40885351879791
 30
0.0
 11
306.79746253616707
 21
321.36696445259798
 31
0.0
 12
303.84303927716741
 22
321.88790898569772
 32
0.0
 13
303.84303927716741
 23
321.88790898569772
 33
0.0
  0
LINE
  5
15B72
  8
DIM
 10
303.84303927716701
 20
321.88790898569772
 30
0.0
 11
383.84303927716701
 21
321.88790898569772
 31
0.0
  0
LINE
  5
15B73
  8
DIM
 10
294.84921390139152
 20
326.97151804400841
 30
0.0
 11
338.32784270056709
 21
354.08935577994077
 31
0.0
  0
LINE
  5
15B74
  8
CENTER
  6
CENTER
 10
298.84303927716701
 20
558.70139794283523
 30
0.0
 11
318.84303927716701
 21
558.70139794283523
 31
0.0
  0
LINE
  5
15B75
  8
CENTER
  6
CENTER
 10
248.76897730925239
 20
523.70139794283523
 30
0.0
 11
391.27777673788381
 21
523.70139794283523
 31
0.0
  0
LINE
  5
15B76
  8
CENTER
  6
CENTER
 10
298.84303927716701
 20
488.70139794283517
 30
0.0
 11
318.84303927716701
 21
488.70139794283517
 31
0.0
  0
LINE
  5
15B77
  8
0
 10
253.84303927716701
 20
511.70139794283568
 30
0.0
 11
298.62764896799439
 21
499.70139794283517
 31
0.0
  0
LINE
  5
15B78
  8
0
  6
PHANTOM
 62
     6
 10
253.84303927716701
 20
399.5292114050298
 30
0.0
 11
253.84303927716701
 21
376.5292114050298
 31
0.0
  0
LINE
  5
15B79
  8
0
 10
303.84303927716701
 20
367.5292114050298
 30
0.0
 11
303.84303927716701
 21
301.5292114050298
 31
0.0
  0
LINE
  5
15B7A
  8
DIM
 10
294.84921390139152
 20
326.97151804400841
 30
0.0
 11
267.5710558144105
 21
326.97151804400841
 31
0.0
  0
TEXT
  5
15B7B
  8
DIM
 10
267.53855493321271
 20
327.97151804400841
 30
0.0
 40
3.0
  1
2-PT 1/4
  7
ROMANS
  0
LINE
  5
15B7C
  8
0
 10
300.84303927716701
 20
301.5292114050298
 30
0.0
 11
299.84303927716701
 21
300.5292114050298
 31
0.0
  0
LINE
  5
15B7D
  8
DIM
 10
249.45373806415361
 20
448.89235720872688
 30
0.0
 11
223.53182163285231
 21
448.89235720872688
 31
0.0
  0
TEXT
  5
15B7E
  8
DIM
 10
223.49932075165449
 20
449.89235720872688
 30
0.0
 40
3.0
  1
M16x2.0P
  7
ROMANS
  0
LINE
  5
15B7F
  8
DIM
 10
268.84303927716701
 20
435.62174609510112
 30
0.0
 11
268.84303927716701
 21
453.51894095197349
 31
0.0
  0
LINE
  5
15B80
  8
DIM
 10
249.45373806415361
 20
448.89235720872688
 30
0.0
 11
268.84303927716792
 21
429.5292114050294
 31
0.0
  0
LINE
  5
15B81
  8
DIM
 10
253.84303927716701
 20
432.41797096765538
 30
0.0
 11
253.84303927716701
 21
461.51894095197349
 31
0.0
  0
LINE
  5
15B82
  8
0
 10
253.84303927716701
 20
429.5292114050298
 30
0.0
 11
253.84303927716701
 21
406.5292114050298
 31
0.0
  0
SOLID
  5
15B83
  8
DIM
 10
266.384422322641
 20
431.2482816976007
 30
0.0
 11
267.12065173568271
 21
431.98550559686049
 31
0.0
 12
268.84303927716792
 22
429.5292114050294
 32
0.0
 13
268.84303927716792
 23
429.5292114050294
 33
0.0
  0
LINE
  5
15B84
  8
CENTER
  6
CENTER
 10
268.84303927716701
 20
403.32696681700821
 30
0.0
 11
268.84303927716701
 21
432.22466093230651
 31
0.0
  0
LINE
  5
15B85
  8
HIDDEN
  6
HIDDEN
 10
261.84303927716701
 20
429.5292114050298
 30
0.0
 11
261.84303927716701
 21
406.5292114050298
 31
0.0
  0
LINE
  5
15B86
  8
HIDDEN
  6
HIDDEN
 10
260.84303927716701
 20
429.5292114050298
 30
0.0
 11
260.84303927716701
 21
406.5292114050298
 31
0.0
  0
LINE
  5
15B87
  8
0
 10
298.62764896799439
 20
429.5292114050298
 30
0.0
 11
298.62764896799388
 21
406.5292114050298
 31
0.0
  0
LINE
  5
15B88
  8
HIDDEN
  6
HIDDEN
 10
275.84303927716701
 20
429.5292114050298
 30
0.0
 11
275.84303927716701
 21
406.5292114050298
 31
0.0
  0
LINE
  5
15B89
  8
HIDDEN
  6
HIDDEN
 10
276.84303927716701
 20
429.5292114050298
 30
0.0
 11
276.84303927716701
 21
406.5292114050298
 31
0.0
  0
SOLID
  5
15B8A
  8
DIM
 10
271.79746253616707
 20
453.03988548507363
 30
0.0
 11
271.79746253616707
 21
451.9979964188737
 31
0.0
 12
268.84303927716701
 22
452.51894095197338
 32
0.0
 13
268.84303927716701
 23
452.51894095197338
 33
0.0
  0
TEXT
  5
15B8B
  8
DIM
 10
257.8437835802124
 20
453.51894095197349
 30
0.0
 40
3.0
  1
15
  7
ROMANS
  0
SOLID
  5
15B8C
  8
DIM
 10
265.88861601816689
 20
451.9979964188737
 30
0.0
 11
265.88861601816689
 21
453.03988548507363
 31
0.0
 12
268.84303927716701
 22
452.51894095197338
 32
0.0
 13
268.84303927716701
 23
452.51894095197338
 33
0.0
  0
SOLID
  5
15B8D
  8
DIM
 10
256.79746253616707
 20
453.03988548507363
 30
0.0
 11
256.79746253616707
 21
451.9979964188737
 31
0.0
 12
253.84303927716701
 22
452.51894095197338
 32
0.0
 13
253.84303927716701
 23
452.51894095197338
 33
0.0
  0
SOLID
  5
15B8E
  8
DIM
 10
256.79746253616707
 20
461.03988548507363
 30
0.0
 11
256.79746253616707
 21
459.99799641887381
 31
0.0
 12
253.84303927716701
 22
460.51894095197338
 32
0.0
 13
253.84303927716701
 23
460.51894095197338
 33
0.0
  0
ARC
  5
15B8F
  8
0
 10
343.84303927716701
 20
523.70139794283523
 30
0.0
 40
58.5
 50
221.22418949711991
 51
228.77581050288009
  0
POLYLINE
  5
15B90
  8
0
 66
     1
 10
0.0
 20
0.0
 30
0.0
  0
VERTEX
  5
15CDA
  8
0
 10
299.84303927716701
 20
499.70139794283517
 30
0.0
  0
VERTEX
  5
15CDB
  8
0
 10
299.84303927716701
 20
485.14948489043257
 30
0.0
  0
SEQEND
  5
15CDC
  8
0
  0
TEXT
  5
15B91
  8
DIM
 10
234.78702162606709
 20
504.5565800467698
 30
0.0
 40
4.0
  1
CCW
  7
ROMANS
  0
POLYLINE
  5
15B92
  8
0
 66
     1
 10
0.0
 20
0.0
 30
0.0
  0
VERTEX
  5
15CDD
  8
0
 10
299.84303927716701
 20
562.25331099523783
 30
0.0
  0
VERTEX
  5
15CDE
  8
0
 10
299.84303927716701
 20
547.70139794283557
 30
0.0
  0
SEQEND
  5
15CDF
  8
0
  0
CIRCLE
  5
15B93
  8
0
 62
     7
 10
268.84303927716701
 20
523.70139794283568
 30
0.0
 40
7.0
  0
ARC
  5
15B94
  8
0
 62
     2
 10
268.84303927716701
 20
523.70139794283568
 30
0.0
 40
8.0
 50
76.690593726370068
 51
10.84369191461786
  0
LINE
  5
15B95
  8
0
 10
253.84303927716701
 20
535.70139794283568
 30
0.0
 11
298.62764896799263
 21
547.70139794283523
 31
0.0
  0
LINE
  5
15B96
  8
0
 10
253.84303927716701
 20
535.70139794283568
 30
0.0
 11
253.84303927716701
 21
511.70139794283568
 31
0.0
  0
TEXT
  5
15B97
  8
DIM
 10
236.8619699418341
 20
539.61952903116651
 30
0.0
 40
4.0
  1
CW
  7
ROMANS
  0
POLYLINE
  5
15B98
  8
DIM
 66
     1
 10
0.0
 20
0.0
 30
0.0
 70
     7
  0
VERTEX
  5
15B99
  8
DIM
 10
248.79294040461031
 20
537.64501379093645
 30
0.0
 42
-0.0185322085214218
  0
VERTEX
  5
15B9A
  8
DIM
 10
250.8221134744899
 20
542.04611303061756
 30
0.0
  0
VERTEX
  5
15B9B
  8
DIM
 10
250.28692106989001
 20
542.31734925618275
 30
0.0
  0
VERTEX
  5
15B9C
  8
DIM
 10
252.90940585322321
 20
544.35154689503224
 30
0.0
  0
VERTEX
  5
15B9D
  8
DIM
 10
252.69528689058859
 20
541.09678624113985
 30
0.0
  0
VERTEX
  5
15B9E
  8
DIM
 10
252.16009448598871
 20
541.36802246670504
 30
0.0
 42
0.018532208521422
  0
VERTEX
  5
15B9F
  8
DIM
 10
250.17746208284959
 20
537.06786587013494
 30
0.0
  0
SEQEND
  5
15BA0
  8
DIM
  0
POLYLINE
  5
15BA1
  8
DIM
 66
     1
 10
0.0
 20
0.0
 30
0.0
 70
     7
  0
VERTEX
  5
15BA2
  8
DIM
 10
248.79294040460991
 20
509.49071794933428
 30
0.0
 42
0.0185322085214218
  0
VERTEX
  5
15BA3
  8
DIM
 10
250.82211347448941
 20
505.08961870965322
 30
0.0
  0
VERTEX
  5
15BA4
  8
DIM
 10
250.2869210698895
 20
504.81838248408798
 30
0.0
  0
VERTEX
  5
15BA5
  8
DIM
 10
252.90940585322269
 20
502.78418484523888
 30
0.0
  0
VERTEX
  5
15BA6
  8
DIM
 10
252.69528689058859
 20
506.03894549913127
 30
0.0
  0
VERTEX
  5
15BA7
  8
DIM
 10
252.16009448598831
 20
505.76770927356569
 30
0.0
 42
-0.018532208521422
  0
VERTEX
  5
15BA8
  8
DIM
 10
250.1774620828491
 20
510.06786587013488
 30
0.0
  0
SEQEND
  5
15BA9
  8
DIM
  0
LINE
  5
15BAA
  8
CENTER
  6
CENTER
 10
268.84303927716701
 20
509.50444285853342
 30
0.0
 11
268.84303927716701
 21
538.40213697383194
 31
0.0
  0
ARC
  5
15BAB
  8
0
 10
343.84303927716701
 20
523.70139794283523
 30
0.0
 40
58.5
 50
131.2241894971198
 51
138.77581050288009
  0
POLYLINE
  5
15BAC
  8
0
 66
     1
 10
0.0
 20
0.0
 30
0.0
  0
VERTEX
  5
15CE0
  8
0
 10
387.84303927716701
 20
485.14948489043257
 30
0.0
  0
VERTEX
  5
15CE1
  8
0
 10
387.84303927716701
 20
562.25331099523783
 30
0.0
  0
SEQEND
  5
15CE2
  8
0
  0
LINE
  5
15BAD
  8
0
 10
367.84303927716689
 20
506.70139794283511
 30
0.0
 11
360.84303927716701
 21
499.70139794283517
 31
0.0
  0
SOLID
  5
15BAE
  8
DIM
 10
396.3639838102672
 20
502.65582120183529
 30
0.0
 11
395.32209474406727
 21
502.65582120183529
 31
0.0
 12
395.84303927716701
 22
499.70139794283517
 32
0.0
 13
395.84303927716701
 23
499.70139794283517
 33
0.0
  0
LINE
  5
15BAF
  8
DIM
 10
395.84303927716701
 20
499.70139794283517
 30
0.0
 11
395.84303927716701
 21
547.70139794283523
 31
0.0
  0
LINE
  5
15BB0
  8
DIM
 10
403.84303927716701
 20
488.70139794283517
 30
0.0
 11
403.84303927716701
 21
558.70139794283523
 31
0.0
  0
LINE
  5
15BB1
  8
DIM
 10
411.84303927716701
 20
479.70139794283517
 30
0.0
 11
411.84303927716701
 21
567.70139794283523
 31
0.0
  0
LINE
  5
15BB2
  8
CENTER
  6
CENTER
 10
343.84303927716701
 20
475.02883622550962
 30
0.0
 11
343.84303927716701
 21
571.2571137858057
 31
0.0
  0
LINE
  5
15BB3
  8
0
 10
326.34303927716701
 20
406.5292114050298
 30
0.0
 11
326.34303927716701
 21
372.5292114050298
 31
0.0
  0
LINE
  5
15BB4
  8
0
 10
361.34303927716689
 20
406.5292114050298
 30
0.0
 11
361.34303927716689
 21
372.5292114050298
 31
0.0
  0
LINE
  5
15BB5
  8
0
  6
PHANTOM
 62
     6
 10
367.84303927716689
 20
376.5292114050298
 30
0.0
 11
367.84303927716689
 21
399.5292114050298
 31
0.0
  0
TEXT
  5
15BB6
  8
DIM
 10
410.64303927716708
 20
388.55023764230549
 30
0.0
 40
3.0
  1
30
 50
90.0
  7
ROMANS
  0
LINE
  5
15BB7
  8
0
 10
308.84303927716701
 20
372.5292114050298
 30
0.0
 11
378.84303927716701
 21
372.5292114050298
 31
0.0
  0
LINE
  5
15BB8
  8
DIM
 10
370.77408455183462
 20
376.5292114050298
 30
0.0
 11
412.64303927716719
 21
376.5292114050298
 31
0.0
  0
CIRCLE
  5
15BB9
  8
0
 10
326.84303927716701
 20
289.0292114050298
 30
0.0
 40
5.75
  0
ARC
  5
15BBA
  8
0
 62
     2
 10
326.84303927716701
 20
289.0292114050298
 30
0.0
 40
6.5
 50
79.200061840488416
 51
10.81576982730666
  0
LINE
  5
15BBB
  8
CENTER
  6
CENTER
 10
316.84303927716701
 20
289.0292114050298
 30
0.0
 11
336.84303927716701
 21
289.0292114050298
 31
0.0
  0
LINE
  5
15BBC
  8
CENTER
  6
CENTER
 10
326.84303927716701
 20
279.0292114050298
 30
0.0
 11
326.84303927716701
 21
299.0292114050298
 31
0.0
  0
TEXT
  5
15BBD
  8
DIM
 10
346.17877367981782
 20
322.88790898569772
 30
0.0
 40
3.0
  1
%%c80
  7
ROMANS
  0
CIRCLE
  5
15BBE
  8
0
 10
343.84303927716701
 20
357.5292114050298
 30
0.0
 40
5.75
  0
ARC
  5
15BBF
  8
0
 62
     2
 10
343.84303927716701
 20
357.5292114050298
 30
0.0
 40
6.5
 50
79.200061840488416
 51
10.81576982730666
  0
LINE
  5
15BC0
  8
CENTER
  6
CENTER
 10
333.84303927716701
 20
357.5292114050298
 30
0.0
 11
353.84303927716701
 21
357.5292114050298
 31
0.0
  0
SOLID
  5
15BC1
  8
DIM
 10
335.54535054265853
 20
352.96786686289261
 30
0.0
 11
336.09672715267192
 21
352.0838325534923
 31
0.0
 12
338.32784270056709
 22
354.08935577994077
 32
0.0
 13
338.32784270056709
 23
354.08935577994077
 33
0.0
  0
LINE
  5
15BC2
  8
0
 10
383.84303927716701
 20
367.5292114050298
 30
0.0
 11
383.84303927716701
 21
301.5292114050298
 31
0.0
  0
LINE
  5
15BC3
  8
0
 10
386.84303927716701
 20
301.5292114050298
 30
0.0
 11
387.84303927716701
 21
300.5292114050298
 31
0.0
  0
LINE
  5
15BC4
  8
0
 10
381.39495232956909
 20
301.5292114050298
 30
0.0
 11
382.39495232956909
 21
300.5292114050298
 31
0.0
  0
TEXT
  5
15BC5
  8
DIM
 10
410.64303927716708
 20
317.75557534858712
 30
0.0
 40
3.0
  1
109
 50
90.0
  7
ROMANS
  0
TEXT
  5
15BC6
  8
DIM
 10
402.64303927716708
 20
315.88926661749701
 30
0.0
 40
3.0
  1
105
 50
90.0
  7
ROMANS
  0
SOLID
  5
15BC7
  8
DIM
 10
396.16398381026693
 20
298.57478814602968
 30
0.0
 11
395.122094744067
 21
298.57478814602968
 31
0.0
 12
395.64303927716719
 22
301.5292114050298
 32
0.0
 13
395.64303927716719
 23
301.5292114050298
 33
0.0
  0
SOLID
  5
15BC8
  8
DIM
 10
380.88861601816689
 20
321.36696445259798
 30
0.0
 11
380.88861601816689
 21
322.40885351879791
 31
0.0
 12
383.84303927716701
 22
321.88790898569772
 32
0.0
 13
383.84303927716701
 23
321.88790898569772
 33
0.0
  0
TEXT
  5
15BC9
  8
DIM
 10
394.64303927716719
 20
281.58937674064998
 30
0.0
 40
3.0
  1
34
 50
90.0
  7
ROMANS
  0
LINE
  5
15BCA
  8
DIM
 10
387.84303927716701
 20
301.5292114050298
 30
0.0
 11
396.64303927716708
 21
301.5292114050298
 31
0.0
  0
ARC
  5
15BCB
  8
0
 10
378.84303927716701
 20
367.5292114050298
 30
0.0
 40
5.0
 50
0.0
 51
90.0
  0
SOLID
  5
15BCC
  8
DIM
 10
404.16398381026693
 20
369.57478814602968
 30
0.0
 11
403.122094744067
 21
369.57478814602968
 31
0.0
 12
403.64303927716719
 22
372.5292114050298
 32
0.0
 13
403.64303927716719
 23
372.5292114050298
 33
0.0
  0
LINE
  5
15BCD
  8
DIM
 10
381.64303927716708
 20
372.5292114050298
 30
0.0
 11
404.64303927716719
 21
372.5292114050298
 31
0.0
  0
SOLID
  5
15BCE
  8
DIM
 10
412.16398381026693
 20
373.57478814602968
 30
0.0
 11
411.122094744067
 21
373.57478814602968
 31
0.0
 12
411.64303927716719
 22
376.5292114050298
 32
0.0
 13
411.64303927716719
 23
376.5292114050298
 33
0.0
  0
SOLID
  5
15BCF
  8
DIM
 10
412.16398381026693
 20
379.48363466402992
 30
0.0
 11
411.122094744067
 21
379.48363466402992
 31
0.0
 12
411.64303927716719
 22
376.5292114050298
 32
0.0
 13
411.64303927716719
 23
376.5292114050298
 33
0.0
  0
TEXT
  5
15BD0
  8
DIM
 10
426.64303927716708
 20
350.43895743623438
 30
0.0
 40
3.0
  1
175
 50
90.0
  7
ROMANS
  0
TEXT
  5
15BD1
  8
DIM
 10
418.64303927716708
 20
336.74956675516609
 30
0.0
 40
3.0
  1
139
 50
90.0
  7
ROMANS
  0
CIRCLE
  5
15BD2
  8
0
 10
378.84303927716701
 20
488.70139794283517
 30
0.0
 40
5.5
  0
LINE
  5
15BD3
  8
DIM
 10
370.77408455183422
 20
406.5292114050298
 30
0.0
 11
420.64303927716719
 21
406.5292114050298
 31
0.0
  0
LINE
  5
15BD4
  8
DIM
 10
363.99572284602112
 20
442.5292114050298
 30
0.0
 11
428.64303927716719
 21
442.5292114050298
 31
0.0
  0
LINE
  5
15BD5
  8
DIM
 10
370.39750890151112
 20
429.5292114050298
 30
0.0
 11
420.64303927716719
 21
429.5292114050298
 31
0.0
  0
LINE
  5
15BD6
  8
DIM
 10
364.48919213819948
 20
499.70139794283568
 30
0.0
 11
396.84303927716689
 21
499.70139794283517
 31
0.0
  0
LINE
  5
15BD7
  8
CENTER
  6
CENTER
 10
368.84303927716701
 20
488.70139794283517
 30
0.0
 11
388.84303927716701
 21
488.70139794283517
 31
0.0
  0
LINE
  5
15BD8
  8
DIM
 10
367.84303927716689
 20
431.91042195898348
 30
0.0
 11
367.84303927716689
 21
461.51894095197349
 31
0.0
  0
LINE
  5
15BD9
  8
0
 62
     7
 10
326.3430432771674
 20
442.5292114050298
 30
0.0
 11
361.34303527716702
 21
442.5292114050298
 31
0.0
  0
LINE
  5
15BDA
  8
0
 62
     7
 10
326.34304327716649
 20
429.5292114050298
 30
0.0
 11
361.34303527716651
 21
429.5292114050298
 31
0.0
  0
ARC
  5
15BDB
  8
0
 62
     7
 10
343.84303927716701
 20
409.09225600361191
 30
0.0
 40
33.436955401418068
 50
72.412046226011086
 51
107.5879537739889
  0
ARC
  5
15BDC
  8
0
 62
     7
 10
343.84303927716701
 20
462.96616680645042
 30
0.0
 40
33.436955401420583
 50
252.412046226011
 51
287.58795377398889
  0
LINE
  5
15BDD
  8
HIDDEN
  6
HIDDEN
 10
328.04303927716722
 20
423.5292114050298
 30
0.0
 11
359.64303927716668
 21
423.5292114050298
 31
0.0
  0
LINE
  5
15BDE
  8
HIDDEN
  6
HIDDEN
 10
328.14303927716708
 20
424.52921140502991
 30
0.0
 11
359.54303927716683
 21
424.52921140502991
 31
0.0
  0
LINE
  5
15BDF
  8
0
 62
     7
 10
333.73941187575008
 20
440.96617480644773
 30
0.0
 11
333.73941187574923
 21
431.09224800361238
 31
0.0
  0
LINE
  5
15BE0
  8
0
 62
     7
 10
323.63578447433241
 20
440.96617480644773
 30
0.0
 11
323.63578447433201
 21
431.09224800361238
 31
0.0
  0
LINE
  5
15BE1
  8
0
 62
     7
 10
326.3430432771674
 20
442.5292114050298
 30
0.0
 11
323.63578447433241
 21
440.96617480644773
 31
0.0
  0
LINE
  5
15BE2
  8
0
 62
     7
 10
326.34304327716649
 20
429.5292114050298
 30
0.0
 11
323.63578447433201
 21
431.09224800361238
 31
0.0
  0
ARC
  5
15BE3
  8
0
 62
     7
 10
328.68759817504082
 20
438.47458897985319
 30
0.0
 40
8.9453775748232705
 50
235.6157525319482
 51
304.38424746803281
  0
ARC
  5
15BE4
  8
0
 62
     7
 10
328.68759817504127
 20
433.5838338302068
 30
0.0
 40
8.9453775748232296
 50
55.61575253194686
 51
124.3842474680517
  0
LINE
  5
15BE5
  8
HIDDEN
  6
HIDDEN
 10
326.34303927716701
 20
406.5292114050294
 30
0.0
 11
328.14303927716708
 21
424.52921140502991
 31
0.0
  0
LINE
  5
15BE6
  8
HIDDEN
  6
HIDDEN
 10
330.34303927716689
 20
429.5292114050298
 30
0.0
 11
330.34303927716689
 21
424.52921140502991
 31
0.0
  0
LINE
  5
15BE7
  8
HIDDEN
  6
HIDDEN
 10
330.84303927716701
 20
429.5292114050298
 30
0.0
 11
330.84303927716701
 21
423.5292114050298
 31
0.0
  0
LINE
  5
15BE8
  8
HIDDEN
  6
HIDDEN
 10
331.59303927716701
 20
429.5292114050298
 30
0.0
 11
331.59303927716701
 21
423.5292114050298
 31
0.0
  0
LINE
  5
15BE9
  8
0
 62
     7
 10
361.34303527716742
 20
442.5292114050298
 30
0.0
 11
364.050294080002
 21
440.96617480644721
 31
0.0
  0
LINE
  5
15BEA
  8
0
 62
     7
 10
361.34303527716651
 20
429.5292114050298
 30
0.0
 11
364.05029408000149
 21
431.09224800361193
 31
0.0
  0
LINE
  5
15BEB
  8
0
 62
     7
 10
364.050294080002
 20
440.9661748064467
 30
0.0
 11
364.05029408000149
 21
431.09224800361193
 31
0.0
  0
LINE
  5
15BEC
  8
0
 62
     7
 10
353.94666667858468
 20
440.96617480644721
 30
0.0
 11
353.94666667858422
 21
431.09224800361193
 31
0.0
  0
ARC
  5
15BED
  8
0
 62
     7
 10
358.99848037929308
 20
433.58383383020828
 30
0.0
 40
8.9453775748218156
 50
55.61575253194686
 51
124.3842474680517
  0
ARC
  5
15BEE
  8
0
 62
     7
 10
358.99848037929257
 20
438.47458897985268
 30
0.0
 40
8.9453775748231905
 50
235.6157525319482
 51
304.3842474680531
  0
LINE
  5
15BEF
  8
0
 10
367.84303927716689
 20
406.5292114050298
 30
0.0
 11
367.84303927716689
 21
429.5292114050298
 31
0.0
  0
LINE
  5
15BF0
  8
HIDDEN
  6
HIDDEN
 10
361.34303927716689
 20
406.5292114050294
 30
0.0
 11
359.54303927716683
 21
424.52921140502991
 31
0.0
  0
LINE
  5
15BF1
  8
HIDDEN
  6
HIDDEN
 10
357.34303927716689
 20
429.5292114050298
 30
0.0
 11
357.3430392771665
 21
424.52921140502991
 31
0.0
  0
LINE
  5
15BF2
  8
HIDDEN
  6
HIDDEN
 10
356.84303927716701
 20
429.5292114050298
 30
0.0
 11
356.8430392771665
 21
423.5292114050298
 31
0.0
  0
LINE
  5
15BF3
  8
HIDDEN
  6
HIDDEN
 10
356.09303927716701
 20
429.5292114050298
 30
0.0
 11
356.0930392771665
 21
423.5292114050298
 31
0.0
  0
SOLID
  5
15BF4
  8
DIM
 10
340.88861601816689
 20
451.9979964188737
 30
0.0
 11
340.88861601816689
 21
453.03988548507363
 31
0.0
 12
343.84303927716701
 22
452.51894095197338
 32
0.0
 13
343.84303927716701
 23
452.51894095197338
 33
0.0
  0
TEXT
  5
15BF5
  8
DIM
 10
306.9199081060828
 20
461.51894095197349
 30
0.0
 40
3.0
  1
114
  7
ROMANS
  0
LINE
  5
15BF6
  8
CENTER
  6
CENTER
 10
308.84303927716701
 20
478.70139794283517
 30
0.0
 11
308.84303927716701
 21
498.70139794283517
 31
0.0
  0
SOLID
  5
15BF7
  8
DIM
 10
364.88861601816677
 20
459.99799641887381
 30
0.0
 11
364.88861601816677
 21
461.03988548507363
 31
0.0
 12
367.84303927716689
 22
460.51894095197338
 32
0.0
 13
367.84303927716689
 23
460.51894095197338
 33
0.0
  0
LINE
  5
15BF8
  8
DIM
 10
343.84303927716701
 20
447.51894095197338
 30
0.0
 11
343.84303927716701
 21
453.51894095197349
 31
0.0
  0
SOLID
  5
15BF9
  8
DIM
 10
428.16398381026733
 20
439.57478814602968
 30
0.0
 11
427.122094744067
 21
439.57478814602968
 31
0.0
 12
427.64303927716708
 22
442.5292114050298
 32
0.0
 13
427.64303927716708
 23
442.5292114050298
 33
0.0
  0
SOLID
  5
15BFA
  8
DIM
 10
420.16398381026733
 20
409.48363466402992
 30
0.0
 11
419.122094744067
 21
409.48363466402992
 31
0.0
 12
419.64303927716719
 22
406.5292114050298
 32
0.0
 13
419.64303927716719
 23
406.5292114050298
 33
0.0
  0
SOLID
  5
15BFB
  8
DIM
 10
420.16398381026733
 20
403.57478814602968
 30
0.0
 11
419.122094744067
 21
403.57478814602968
 31
0.0
 12
419.64303927716719
 22
406.5292114050298
 32
0.0
 13
419.64303927716719
 23
406.5292114050298
 33
0.0
  0
SOLID
  5
15BFC
  8
DIM
 10
412.16398381026733
 20
403.57478814602968
 30
0.0
 11
411.122094744067
 21
403.57478814602968
 31
0.0
 12
411.64303927716719
 22
406.5292114050298
 32
0.0
 13
411.64303927716719
 23
406.5292114050298
 33
0.0
  0
TEXT
  5
15BFD
  8
DIM
 10
418.64303927716708
 20
415.05996496137232
 30
0.0
 40
3.0
  1
23
 50
90.0
  7
ROMANS
  0
SOLID
  5
15BFE
  8
DIM
 10
420.16398381026733
 20
426.57478814602968
 30
0.0
 11
419.122094744067
 21
426.57478814602968
 31
0.0
 12
419.64303927716719
 22
429.5292114050298
 32
0.0
 13
419.64303927716719
 23
429.5292114050298
 33
0.0
  0
LINE
  5
15BFF
  8
DIM
 10
413.66889352170801
 20
470.51730684084941
 30
0.0
 11
397.0516931413531
 21
470.51730684084941
 31
0.0
  0
TEXT
  5
15C00
  8
DIM
 10
399.32708506849121
 20
471.51730684084941
 30
0.0
 40
3.0
  1
4-%%c11
  7
ROMANS
  0
LINE
  5
15C01
  8
DIM
 10
385.41054830840579
 20
479.70139794283517
 30
0.0
 11
412.84303927716701
 21
479.70139794283517
 31
0.0
  0
ARC
  5
15C02
  8
0
 10
343.84303927716701
 20
523.70139794283523
 30
0.0
 40
58.5
 50
311.22418949711988
 51
318.77581050288001
  0
SOLID
  5
15C03
  8
DIM
 10
404.3639838102672
 20
491.65582120183529
 30
0.0
 11
403.32209474406721
 21
491.65582120183529
 31
0.0
 12
403.84303927716701
 22
488.70139794283517
 32
0.0
 13
403.84303927716701
 23
488.70139794283517
 33
0.0
  0
SOLID
  5
15C04
  8
DIM
 10
385.19336752560088
 20
483.09586612274688
 30
0.0
 11
384.45713811255968
 21
482.35864222348698
 31
0.0
 12
382.73475057107453
 22
484.81493641531819
 32
0.0
 13
382.73475057107453
 23
484.81493641531819
 33
0.0
  0
LINE
  5
15C05
  8
DIM
 10
397.0516931413531
 20
470.51730684084941
 30
0.0
 11
382.73475057107453
 21
484.81493641531779
 31
0.0
  0
LINE
  5
15C06
  8
DIM
 10
391.02457823986828
 20
488.70139794283517
 30
0.0
 11
404.84303927716701
 21
488.70139794283517
 31
0.0
  0
LINE
  5
15C07
  8
CENTER
  6
CENTER
 10
378.84303927716701
 20
478.70139794283517
 30
0.0
 11
378.84303927716701
 21
498.70139794283517
 31
0.0
  0
SOLID
  5
15C08
  8
DIM
 10
412.3639838102672
 20
482.65582120183529
 30
0.0
 11
411.32209474406721
 21
482.65582120183529
 31
0.0
 12
411.84303927716701
 22
479.70139794283517
 32
0.0
 13
411.84303927716701
 23
479.70139794283517
 33
0.0
  0
LINE
  5
15C09
  8
0
 10
506.73247554772428
 20
406.5292114050298
 30
0.0
 11
506.73247554772428
 21
372.5292114050298
 31
0.0
  0
LINE
  5
15C0A
  8
0
 10
541.73247554772433
 20
406.5292114050298
 30
0.0
 11
541.73247554772433
 21
372.5292114050298
 31
0.0
  0
LINE
  5
15C0B
  8
0
 10
489.23247554772428
 20
372.5292114050298
 30
0.0
 11
559.23247554772433
 21
372.5292114050298
 31
0.0
  0
LINE
  5
15C0C
  8
0
 10
567.23247554772377
 20
301.5292114050298
 30
0.0
 11
481.23247554772388
 21
301.5292114050298
 31
0.0
  0
LINE
  5
15C0D
  8
0
 62
     4
 10
484.23247554772428
 20
367.5292114050298
 30
0.0
 11
564.23247554772388
 21
367.5292114050298
 31
0.0
  0
LINE
  5
15C0E
  8
0
 10
568.23247554772433
 20
300.5292114050298
 30
0.0
 11
480.23247554772428
 21
300.5292114050298
 31
0.0
  0
LINE
  5
15C0F
  8
0
 10
484.23247554772428
 20
367.5292114050298
 30
0.0
 11
484.23247554772428
 21
301.5292114050298
 31
0.0
  0
LINE
  5
15C10
  8
0
 10
481.23247554772388
 20
301.5292114050298
 30
0.0
 11
480.23247554772382
 21
300.5292114050298
 31
0.0
  0
LINE
  5
15C11
  8
CENTER
  6
CENTER
 10
477.17460893690622
 20
289.0292114050298
 30
0.0
 11
497.17460893690611
 21
289.0292114050298
 31
0.0
  0
LINE
  5
15C12
  8
HIDDEN
  6
HIDDEN
 10
480.23247554772382
 20
294.7792114050298
 30
0.0
 11
490.23247554772388
 21
294.25513361219919
 31
0.0
  0
LINE
  5
15C13
  8
HIDDEN
  6
HIDDEN
 10
480.23247554772382
 20
295.57921140502958
 30
0.0
 11
490.23247554772388
 21
295.05513361219931
 31
0.0
  0
LINE
  5
15C14
  8
HIDDEN
  6
HIDDEN
 10
480.23247554772382
 20
283.2792114050298
 30
0.0
 11
490.23247554772388
 21
283.80328919786001
 31
0.0
  0
LINE
  5
15C15
  8
HIDDEN
  6
HIDDEN
 10
480.23247554772382
 20
282.47921140502962
 30
0.0
 11
490.23247554772388
 21
283.00328919785977
 31
0.0
  0
LINE
  5
15C16
  8
0
 10
486.68056249532168
 20
301.5292114050298
 30
0.0
 11
485.68056249532168
 21
300.5292114050298
 31
0.0
  0
ARC
  5
15C17
  8
0
 10
489.23247554772428
 20
367.5292114050298
 30
0.0
 40
5.0
 50
90.0
 51
180.0
  0
LINE
  5
15C18
  8
CENTER
  6
CENTER
 10
481.17460893690622
 20
357.5292114050298
 30
0.0
 11
501.17460893690611
 21
357.5292114050298
 31
0.0
  0
LINE
  5
15C19
  8
HIDDEN
  6
HIDDEN
 10
484.23247554772428
 20
363.2792114050298
 30
0.0
 11
494.23247554772428
 21
362.75513361219907
 31
0.0
  0
LINE
  5
15C1A
  8
HIDDEN
  6
HIDDEN
 10
484.23247554772428
 20
364.07921140502998
 30
0.0
 11
494.23247554772428
 21
363.55513361219931
 31
0.0
  0
LINE
  5
15C1B
  8
HIDDEN
  6
HIDDEN
 10
484.23247554772428
 20
351.7792114050298
 30
0.0
 11
494.23247554772428
 21
352.30328919786001
 31
0.0
  0
LINE
  5
15C1C
  8
HIDDEN
  6
HIDDEN
 10
484.23247554772428
 20
350.97921140502962
 30
0.0
 11
494.23247554772428
 21
351.50328919786028
 31
0.0
  0
LINE
  5
15C1D
  8
0
 10
564.23247554772388
 20
367.5292114050298
 30
0.0
 11
564.23247554772388
 21
301.5292114050298
 31
0.0
  0
LINE
  5
15C1E
  8
0
 10
567.23247554772377
 20
301.5292114050298
 30
0.0
 11
568.23247554772377
 21
300.5292114050298
 31
0.0
  0
LINE
  5
15C1F
  8
0
 10
561.78438860012636
 20
301.5292114050298
 30
0.0
 11
562.78438860012636
 21
300.5292114050298
 31
0.0
  0
ARC
  5
15C20
  8
0
 10
559.23247554772377
 20
367.5292114050298
 30
0.0
 40
5.0
 50
0.0
 51
90.0
  0
ARC
  5
15C21
  8
0
 62
     7
 10
515.48247554772479
 20
417.25610408299372
 30
0.0
 40
25.273107322036029
 50
69.743846533703405
 51
110.2561534662966
  0
ARC
  5
15C22
  8
0
 62
     7
 10
515.48247554772524
 20
454.80231872707088
 30
0.0
 40
25.27310732204143
 50
249.74384653370339
 51
290.25615346629661
  0
LINE
  5
15C23
  8
0
 62
     7
 10
506.73247954772432
 20
442.5292114050298
 30
0.0
 11
541.73247554772377
 21
442.5292114050298
 31
0.0
  0
LINE
  5
15C24
  8
0
 62
     7
 10
506.73247954772381
 20
429.5292114050298
 30
0.0
 11
541.73247154772389
 21
429.5292114050298
 31
0.0
  0
LINE
  5
15C25
  8
0
 10
548.23247554772433
 20
429.5292114050298
 30
0.0
 11
500.23247554772382
 21
429.5292114050298
 31
0.0
  0
LINE
  5
15C26
  8
0
 10
500.23247554772382
 20
406.5292114050298
 30
0.0
 11
548.23247554772433
 21
406.5292114050298
 31
0.0
  0
LINE
  5
15C27
  8
0
 62
     7
 10
506.73247554772428
 20
442.5292114050298
 30
0.0
 11
506.73247554772479
 21
429.5292114050298
 31
0.0
  0
LINE
  5
15C28
  8
0
 10
500.23247554772382
 20
406.5292114050298
 30
0.0
 11
500.23247554772382
 21
429.5292114050298
 31
0.0
  0
LINE
  5
15C29
  8
0
 10
507.23247554772388
 20
406.5292114050298
 30
0.0
 11
507.23247554772388
 21
429.5292114050298
 31
0.0
  0
LINE
  5
15C2A
  8
0
 62
     7
 10
541.73247554772377
 20
442.5292114050298
 30
0.0
 11
541.73247554772342
 21
429.5292114050298
 31
0.0
  0
LINE
  5
15C2B
  8
0
 10
548.23247554772433
 20
406.5292114050298
 30
0.0
 11
548.23247554772433
 21
429.5292114050298
 31
0.0
  0
LINE
  5
15C2C
  8
0
 10
541.23247554772377
 20
406.5292114050298
 30
0.0
 11
541.23247554772377
 21
429.5292114050298
 31
0.0
  0
LINE
  5
15C2D
  8
0
 62
     7
 10
524.23247554772433
 20
440.96617480644721
 30
0.0
 11
524.23247554772377
 21
431.09224800361193
 31
0.0
  0
ARC
  5
15C2E
  8
0
 62
     7
 10
532.98247554772331
 20
417.25610408299372
 30
0.0
 40
25.273107322036029
 50
69.743846533703405
 51
110.2561534662966
  0
ARC
  5
15C2F
  8
0
 62
     7
 10
532.98247554772286
 20
454.80231872707088
 30
0.0
 40
25.27310732204143
 50
249.74384653370339
 51
290.25615346629661
  0
CIRCLE
  5
15C30
  8
0
 10
378.84303927716701
 20
558.70139794283523
 30
0.0
 40
5.5
  0
LINE
  5
15C31
  8
DIM
 10
364.48919213819948
 20
547.70139794283466
 30
0.0
 11
396.84303927716689
 21
547.70139794283523
 31
0.0
  0
LINE
  5
15C32
  8
CENTER
  6
CENTER
 10
368.84303927716701
 20
558.70139794283523
 30
0.0
 11
388.84303927716701
 21
558.70139794283523
 31
0.0
  0
LINE
  5
15C33
  8
CENTER
  6
CENTER
 10
308.84303927716701
 20
548.70139794283523
 30
0.0
 11
308.84303927716701
 21
568.70139794283523
 31
0.0
  0
POLYLINE
  5
15C34
  8
0
 62
     7
 66
     1
 10
0.0
 20
0.0
 30
0.0
 70
     1
  0
VERTEX
  5
15CE3
  8
0
 62
     7
 10
333.73941187574923
 20
506.20140194283522
 30
0.0
  0
VERTEX
  5
15CE4
  8
0
 62
     7
 10
353.94666667858422
 20
506.20140194283522
 30
0.0
  0
VERTEX
  5
15CE5
  8
0
 62
     7
 10
364.05029408000149
 20
523.70139794283523
 30
0.0
  0
VERTEX
  5
15CE6
  8
0
 62
     7
 10
353.94666667858422
 20
541.20139394283524
 30
0.0
  0
VERTEX
  5
15CE7
  8
0
 62
     7
 10
333.73941187574923
 20
541.20139394283524
 30
0.0
  0
VERTEX
  5
15CE8
  8
0
 62
     7
 10
323.63578447433241
 20
523.70139794283466
 30
0.0
  0
SEQEND
  5
15CE9
  8
0
 62
     7
  0
CIRCLE
  5
15C35
  8
0
 62
     7
 10
343.84303927716701
 20
523.70139794283523
 30
0.0
 40
17.499995999999989
  0
CIRCLE
  5
15C36
  8
0
 62
     7
 10
343.84303927716701
 20
523.70139794283523
 30
0.0
 40
13.0
  0
CIRCLE
  5
15C37
  8
0
 62
     7
 10
343.84303927716701
 20
523.70139794283523
 30
0.0
 40
12.25
  0
LINE
  5
15C38
  8
0
 10
367.84303927716689
 20
506.70139794283511
 30
0.0
 11
367.84303927716689
 21
540.70139794283523
 31
0.0
  0
LINE
  5
15C39
  8
0
 10
367.84303927716689
 20
540.70139794283523
 30
0.0
 11
360.84303927716701
 21
547.70139794283523
 31
0.0
  0
SOLID
  5
15C3A
  8
DIM
 10
404.3639838102672
 20
555.74697468383511
 30
0.0
 11
403.32209474406721
 21
555.74697468383511
 31
0.0
 12
403.84303927716701
 22
558.70139794283523
 32
0.0
 13
403.84303927716701
 23
558.70139794283523
 33
0.0
  0
LINE
  5
15C3B
  8
CENTER
  6
CENTER
 10
378.84303927716701
 20
548.70139794283523
 30
0.0
 11
378.84303927716701
 21
568.70139794283523
 31
0.0
  0
TEXT
  5
15C3C
  8
DIM
 10
410.84303927716701
 20
522.31657619814541
 30
0.0
 40
3.0
  1
88
 50
90.0
  7
ROMANS
  0
SOLID
  5
15C3D
  8
DIM
 10
396.3639838102672
 20
544.74697468383511
 30
0.0
 11
395.32209474406727
 21
544.74697468383511
 31
0.0
 12
395.84303927716701
 22
547.70139794283523
 32
0.0
 13
395.84303927716701
 23
547.70139794283523
 33
0.0
  0
POLYLINE
  5
15C3E
  8
DIM
 66
     1
 10
0.0
 20
0.0
 30
0.0
 70
     1
  0
VERTEX
  5
15CEA
  8
DIM
 10
408.1360906683621
 20
521.94102873138115
 30
0.0
  0
VERTEX
  5
15CEB
  8
DIM
 10
410.68455334748649
 20
521.94102873138115
 30
0.0
  0
VERTEX
  5
15CEC
  8
DIM
 10
410.68455334748649
 20
519.39619013093704
 30
0.0
  0
VERTEX
  5
15CED
  8
DIM
 10
408.1360906683621
 20
519.39619013093704
 30
0.0
  0
SEQEND
  5
15CEE
  8
DIM
  0
POLYLINE
  5
15C3F
  8
DIM
 66
     1
 10
0.0
 20
0.0
 30
0.0
 70
     1
  0
VERTEX
  5
15CEF
  8
DIM
 10
400.1360906683621
 20
521.94102873138115
 30
0.0
  0
VERTEX
  5
15CF0
  8
DIM
 10
402.68455334748649
 20
521.94102873138115
 30
0.0
  0
VERTEX
  5
15CF1
  8
DIM
 10
402.68455334748649
 20
519.39619013093704
 30
0.0
  0
VERTEX
  5
15CF2
  8
DIM
 10
400.1360906683621
 20
519.39619013093704
 30
0.0
  0
SEQEND
  5
15CF3
  8
DIM
  0
TEXT
  5
15C40
  8
DIM
 10
402.84303927716701
 20
522.28182133688995
 30
0.0
 40
3.0
  1
70
 50
90.0
  7
ROMANS
  0
TEXT
  5
15C41
  8
DIM
 10
394.84303927716689
 20
520.74812105582623
 30
0.0
 40
3.0
  1
48
 50
90.0
  7
ROMANS
  0
LINE
  5
15C42
  8
DIM
 10
385.41054830840579
 20
567.70139794283523
 30
0.0
 11
412.84303927716701
 21
567.70139794283523
 31
0.0
  0
ARC
  5
15C43
  8
0
 10
343.84303927716701
 20
523.70139794283523
 30
0.0
 40
58.5
 50
41.22418949711988
 51
48.775810502880113
  0
LINE
  5
15C44
  8
DIM
 10
391.02457823986828
 20
558.70139794283523
 30
0.0
 11
404.84303927716701
 21
558.70139794283523
 31
0.0
  0
SOLID
  5
15C45
  8
DIM
 10
412.3639838102672
 20
564.74697468383511
 30
0.0
 11
411.32209474406721
 21
564.74697468383511
 31
0.0
 12
411.84303927716701
 22
567.70139794283523
 32
0.0
 13
411.84303927716701
 23
567.70139794283523
 33
0.0
  0
ENDSEC
  0
EOF
