  0
SECTION
  2
HEADER
  9
$ACADVER
  1
AC1009
  9
$INSBASE
 10
0.0
 20
0.0
 30
0.0
  9
$EXTMIN
 10
185.86065972067939
 20
176.27746798130389
 30
-0.000000000000013
  9
$EXTMAX
 10
635.96502897884329
 20
587.01049970813392
 30
0.0000000000000023
  9
$LIMMIN
 10
0.0
 20
0.0
  9
$LIMMAX
 10
1188.0
 20
840.0
  9
$ORTHOMODE
 70
     1
  9
$REGENMODE
 70
     1
  9
$FILLMODE
 70
     1
  9
$QTEXTMODE
 70
     0
  9
$MIRRTEXT
 70
     1
  9
$DRAGMODE
 70
     2
  9
$LTSCALE
 40
1.0
  9
$OSMODE
 70
    39
  9
$ATTMODE
 70
     1
  9
$TEXTSIZE
 40
3.0
  9
$TRACEWID
 40
0.05
  9
$TEXTSTYLE
  7
ITALICT
  9
$CLAYER
  8
0
  9
$CELTYPE
  6
CONTINUOUS
  9
$CECOLOR
 62
   256
  9
$DIMSCALE
 40
1.0
  9
$DIMASZ
 40
3.0
  9
$DIMEXO
 40
1.0
  9
$DIMDLI
 40
1.4824161510814720E+016
  9
$DIMRND
 40
0.0
  9
$DIMDLE
 40
0.0
  9
$DIMEXE
 40
1.0
  9
$DIMTP
 40
0.15
  9
$DIMTM
 40
-0.1
  9
$DIMTXT
 40
3.0
  9
$DIMCEN
 40
2.0
  9
$DIMTSZ
 40
0.0
  9
$DIMTOL
 70
     0
  9
$DIMLIM
 70
     0
  9
$DIMTIH
 70
     0
  9
$DIMTOH
 70
     0
  9
$DIMSE1
 70
     0
  9
$DIMSE2
 70
     0
  9
$DIMTAD
 70
     1
  9
$DIMZIN
 70
     0
  9
$DIMBLK
  1

  9
$DIMASO
 70
     0
  9
$DIMSHO
 70
     0
  9
$DIMPOST
  1

  9
$DIMAPOST
  1

  9
$DIMALT
 70
     0
  9
$DIMALTD
 70
     2
  9
$DIMALTF
 40
25.399999999999999
  9
$DIMLFAC
 40
1.0
  9
$DIMTOFL
 70
     1
  9
$DIMTVP
 40
1.0
  9
$DIMTIX
 70
     0
  9
$DIMSOXD
 70
     0
  9
$DIMSAH
 70
     0
  9
$DIMBLK1
  1

  9
$DIMBLK2
  1

  9
$DIMSTYLE
  2
STANDARD
  9
$DIMCLRD
 70
     0
  9
$DIMCLRE
 70
     0
  9
$DIMCLRT
 70
     0
  9
$DIMTFAC
 40
1.0
  9
$DIMGAP
 40
1.0
  9
$LUNITS
 70
     2
  9
$LUPREC
 70
     2
  9
$SKETCHINC
 40
0.1
  9
$FILLETRAD
 40
0.0
  9
$AUNITS
 70
     0
  9
$AUPREC
 70
     2
  9
$MENU
  1
ACAD
  9
$ELEVATION
 40
0.0
  9
$PELEVATION
 40
0.0
  9
$THICKNESS
 40
0.0
  9
$LIMCHECK
 70
     0
  9
$BLIPMODE
 70
     0
  9
$CHAMFERA
 40
0.0
  9
$CHAMFERB
 40
0.0
  9
$SKPOLY
 70
     1
  9
$TDCREATE
 40
2450580.7034460641
  9
$TDUPDATE
 40
2452055.6422762382
  9
$TDINDWG
 40
0.5778319444
  9
$TDUSRTIMER
 40
0.5778319444
  9
$USRTIMER
 70
     1
  9
$ANGBASE
 50
0.0
  9
$ANGDIR
 70
     0
  9
$PDMODE
 70
     0
  9
$PDSIZE
 40
0.0
  9
$PLINEWID
 40
0.0
  9
$COORDS
 70
     2
  9
$SPLFRAME
 70
     0
  9
$SPLINETYPE
 70
     6
  9
$SPLINESEGS
 70
     8
  9
$ATTDIA
 70
     0
  9
$ATTREQ
 70
     1
  9
$HANDLING
 70
 12289
  9
$HANDSEED
  5
15893
  9
$SURFTAB1
 70
     6
  9
$SURFTAB2
 70
     6
  9
$SURFTYPE
 70
     6
  9
$SURFU
 70
     6
  9
$SURFV
 70
     6
  9
$UCSNAME
  2

  9
$UCSORG
 10
0.0
 20
0.0
 30
0.0
  9
$UCSXDIR
 10
1.0
 20
0.0
 30
0.0
  9
$UCSYDIR
 10
0.0
 20
1.0
 30
0.0
  9
$PUCSNAME
  2

  9
$PUCSORG
 10
0.0
 20
0.0
 30
0.0
  9
$PUCSXDIR
 10
1.0
 20
0.0
 30
0.0
  9
$PUCSYDIR
 10
0.0
 20
1.0
 30
0.0
  9
$USERI1
 70
     0
  9
$USERI2
 70
-31485
  9
$USERI3
 70
     0
  9
$USERI4
 70
     0
  9
$USERI5
 70
     0
  9
$USERR1
 40
0.0
  9
$USERR2
 40
0.0
  9
$USERR3
 40
0.0
  9
$USERR4
 40
0.0
  9
$USERR5
 40
0.0
  9
$WORLDVIEW
 70
     1
  9
$SHADEDGE
 70
     3
  9
$SHADEDIF
 70
    70
  9
$TILEMODE
 70
     1
  9
$MAXACTVP
 70
    16
  9
$PLIMCHECK
 70
     0
  9
$PEXTMIN
 10
1.0000000000000000E+020
 20
1.0000000000000000E+020
 30
1.0000000000000000E+020
  9
$PEXTMAX
 10
-1.0000000000000000E+020
 20
-1.0000000000000000E+020
 30
-1.0000000000000000E+020
  9
$PLIMMIN
 10
0.0
 20
0.0
  9
$PLIMMAX
 10
12.0
 20
9.0
  9
$UNITMODE
 70
     0
  9
$VISRETAIN
 70
     0
  9
$PLINEGEN
 70
     0
  9
$PSLTSCALE
 70
     0
  0
ENDSEC
  0
SECTION
  2
TABLES
  0
TABLE
  2
VPORT
 70
     3
  0
VPORT
  2
*ACTIVE
 70
     0
 10
0.0
 20
0.0
 11
1.0
 21
1.0
 12
410.86798247620749
 22
381.57249006886008
 13
0.0
 23
0.0
 14
1.0
 24
1.0
 15
0.0
 25
0.0
 16
0.0
 26
0.0
 36
1.0
 17
0.0
 27
0.0
 37
0.0
 40
415.80520567027742
 41
1.7274401473296499
 42
1.0
 43
0.0
 44
0.0
 50
0.0
 51
0.0
 71
     0
 72
   100
 73
     1
 74
     1
 75
     0
 76
     0
 77
     0
 78
     0
  0
ENDTAB
  0
TABLE
  2
LTYPE
 70
     4
  0
LTYPE
  2
CONTINUOUS
 70
     0
  3
Solid line
 72
    65
 73
     0
 40
0.0
  0
LTYPE
  2
CENTER
 70
     0
  3
____________________ _ ____________________ _ 
 72
    65
 73
     4
 40
34.5
 49
30.0
 49
-1.5
 49
1.5
 49
-1.5
  0
LTYPE
  2
HIDDEN
 70
     0
  3
___ ___ ___ ___ ___ ___ ___ ___ ___ ___ 
 72
    65
 73
     2
 40
6.0
 49
4.5
 49
-1.5
  0
LTYPE
  2
PHANTOM
 70
     0
  3
__________ _ _ __________ _ _ __________ _ _ 
 72
    65
 73
     6
 40
15.0
 49
10.0
 49
-1.0
 49
1.0
 49
-1.0
 49
1.0
 49
-1.0
  0
ENDTAB
  0
TABLE
  2
LAYER
 70
     6
  0
LAYER
  2
0
 70
     0
 62
     7
  6
CONTINUOUS
  0
LAYER
  2
LOGO
 70
     0
 62
     7
  6
CONTINUOUS
  0
LAYER
  2
DIM
 70
     0
 62
     5
  6
CONTINUOUS
  0
LAYER
  2
CENTER
 70
     0
 62
     1
  6
CONTINUOUS
  0
LAYER
  2
HIDDEN
 70
     0
 62
     3
  6
CONTINUOUS
  0
LAYER
  2
UMCL3
 70
     0
 62
     1
  6
CONTINUOUS
  0
ENDTAB
  0
TABLE
  2
STYLE
 70
     7
  0
STYLE
  2
STANDARD
 70
     0
 40
0.0
 41
1.0
 50
0.0
 71
     0
 42
3.0
  3
txt
  4

  0
STYLE
  2
ITALICT
 70
     0
 40
0.0
 41
1.0
 50
0.0
 71
     0
 42
3.0
  3
ITALICT.SHX
  4

  0
STYLE
  2
ROMANSS
 70
     0
 40
0.0
 41
1.0
 50
0.0
 71
     0
 42
3.0
  3
ROMANSS.SHX
  4
LMP
  0
STYLE
  2
CHINESET
 70
     0
 40
0.0
 41
1.0
 50
0.0
 71
     0
 42
5.0
  3
simplex.shx
  4
chineset.shx
  0
STYLE
  2
LOGO
 70
     0
 40
0.0
 41
1.0
 50
0.0
 71
     0
 42
5.0
  3
txt
  4

  0
STYLE
  2
ROMANS
 70
     0
 40
0.0
 41
1.0
 50
0.0
 71
     0
 42
3.0
  3
ROMANS.SHX
  4
LMP
  0
STYLE
  2
ROMANS1
 70
     0
 40
0.0
 41
1.0
 50
0.0
 71
     0
 42
3.0
  3
ROMANS.SHX
  4

  0
ENDTAB
  0
TABLE
  2
VIEW
 70
     0
  0
ENDTAB
  0
TABLE
  2
UCS
 70
     0
  0
ENDTAB
  0
TABLE
  2
APPID
 70
     1
  0
APPID
  2
ACAD
 70
     0
  0
ENDTAB
  0
TABLE
  2
DIMSTYLE
 70
     1
  0
DIMSTYLE
  2
STANDARD
 70
     0
  3

  4

  5

  6

  7

 40
1.0
 41
0.18
 42
0.0625
 43
0.38
 44
0.18
 45
0.0
 46
0.0
 47
0.0
 48
0.0
140
0.18
141
0.09
142
0.0
143
25.399999999999999
144
1.0
145
0.0
146
1.0
147
0.09
 71
     0
 72
     0
 73
     1
 74
     1
 75
     0
 76
     0
 77
     0
 78
     0
170
     0
171
     2
172
     0
173
     0
174
     0
175
     0
176
     0
177
     0
178
     0
  0
ENDTAB
  0
ENDSEC
  0
SECTION
  2
BLOCKS
  0
BLOCK
  8
0
  2
$MODEL_SPACE
 70
     0
 10
0.0
 20
0.0
 30
0.0
  3
$MODEL_SPACE
  1

  0
ENDBLK
  5
3E
  8
0
  0
BLOCK
 67
     1
  8
0
  2
$PAPER_SPACE
 70
     0
 10
0.0
 20
0.0
 30
0.0
  3
$PAPER_SPACE
  1

  0
ENDBLK
  5
3C
 67
     1
  8
0
  0
ENDSEC
  0
SECTION
  2
ENTITIES
  0
LINE
  5
B2B
  8
0
 62
     4
 10
185.86272374947831
 20
232.92671314659441
 30
0.0
 11
185.86272374947831
 21
586.95774538779415
 31
0.0
  0
LINE
  5
B2D
  8
0
 62
     4
 10
635.92834892189944
 20
232.92671314659441
 30
0.0
 11
185.86272374947831
 21
232.92671314659441
 31
0.0
  0
LINE
  5
B2E
  8
0
 62
     4
 10
185.86272374947831
 20
586.95774538779415
 30
0.0
 11
635.92834892189956
 21
586.95774538779358
 31
0.0
  0
LINE
  5
B2F
  8
0
 62
     4
 10
635.92834892189956
 20
586.95774538779381
 30
0.0
 11
635.92834892189944
 21
232.92671314659441
 31
0.0
  0
LINE
  5
D2E
  8
LOGO
 62
     1
 10
635.92834892189944
 20
176.3249335016769
 30
0.0
 11
185.86272374947831
 21
176.3249335016769
 31
0.0
  0
LINE
  5
D2F
  8
LOGO
 62
     1
 10
635.92834892189944
 20
232.92671314659441
 30
0.0
 11
185.86272374947831
 21
232.92671314659441
 31
0.0
  0
TEXT
  5
D35
  8
LOGO
 62
     7
 10
315.01977131281541
 20
218.75491480467591
 30
0.0
 40
11.320355928983499
  1
訂購代號:
  7
CHINESET
  0
TEXT
  5
D36
  8
LOGO
 62
     7
 10
313.66579433335261
 20
208.130436645739
 30
0.0
 40
7.546903952655672
  1
Order example:
 41
0.8
  7
CHINESET
  0
TEXT
  5
D37
  8
LOGO
  6
CONTINUOUS
 62
     5
 10
190.14649593377129
 20
178.95233731999099
 30
0.0
 40
5.660177964491754
  1
MINDMAN INDUSTRIAL CO.,LTD
 41
0.85
  7
CHINESET
  0
TEXT
  5
D38
  8
LOGO
  6
CONTINUOUS
 62
     5
 10
187.7153955643023
 20
187.44426769338759
 30
0.0
 40
8.4902669467376342
  1
金器工業股份有限公司
 41
0.8
  7
LOGO
  0
SOLID
  5
D39
  8
LOGO
 62
     2
 10
206.8410742179997
 20
208.37488556272061
 30
0.0
 11
207.85375522301149
 21
208.37488556272061
 31
0.0
 12
219.49958678063609
 22
231.5821585942218
 32
0.0
 13
220.51226778564791
 23
231.5821585942202
 33
0.0
  0
SOLID
  5
D3A
  8
LOGO
 62
     5
 10
207.85375522301149
 20
208.37488556272061
 30
0.0
 11
210.30106765178729
 21
208.37488556272061
 31
0.0
 12
219.49958678063609
 22
229.72557675170091
 32
0.0
 13
217.05227435185981
 23
220.75209784618681
 33
0.0
  0
SOLID
  5
D3B
  8
LOGO
 62
     5
 10
207.85375522301149
 20
210.2314674052399
 30
0.0
 11
210.30106765178729
 21
219.204946310754
 31
0.0
 12
219.49958678063609
 22
231.5821585942218
 32
0.0
 13
217.05227435185981
 23
231.5821585942218
 33
0.0
  0
LINE
  5
D3C
  8
LOGO
 62
     1
 10
310.38663896829701
 20
198.9656453596439
 30
0.0
 11
185.86272374947819
 21
198.9656453596439
 31
0.0
  0
SOLID
  5
D3D
  8
LOGO
 62
     2
 10
206.8410742179997
 20
231.5821585942202
 30
0.0
 11
207.85375522301149
 21
231.5821585942202
 31
0.0
 12
206.8410742179997
 22
208.37488556272061
 32
0.0
 13
207.85375522301149
 23
208.37488556272061
 33
0.0
  0
SOLID
  5
D3E
  8
LOGO
 62
     2
 10
194.18256165536249
 20
208.37488556271981
 30
0.0
 11
195.1952426603749
 21
208.37488556272061
 31
0.0
 12
206.8410742179997
 22
231.5821585942202
 32
0.0
 13
207.85375522301149
 23
231.5821585942202
 33
0.0
  0
SOLID
  5
D3F
  8
LOGO
 62
     5
 10
207.85375522301149
 20
231.5821585942202
 30
0.0
 11
210.30106765178729
 21
231.5821585942218
 31
0.0
 12
207.85375522301149
 22
210.2314674052399
 32
0.0
 13
210.30106765178729
 23
219.204946310754
 33
0.0
  0
SOLID
  5
D40
  8
LOGO
 62
     5
 10
204.39376178922359
 20
208.37488556272061
 30
0.0
 11
206.8410742179997
 21
208.37488556272061
 31
0.0
 12
204.39376178922359
 22
220.75209784618681
 32
0.0
 13
206.8410742179997
 23
229.72557675170091
 33
0.0
  0
SOLID
  5
D41
  8
LOGO
 62
     5
 10
195.1952426603749
 20
208.37488556272061
 30
0.0
 11
197.64255508915099
 21
208.37488556272061
 31
0.0
 12
206.8410742179997
 22
229.72557675170091
 32
0.0
 13
204.39376178922359
 23
220.75209784618681
 33
0.0
  0
SOLID
  5
D42
  8
LOGO
 62
     5
 10
191.73524922658609
 20
208.37488556272061
 30
0.0
 11
194.18256165536249
 21
208.37488556271981
 31
0.0
 12
204.39376178922359
 22
231.5821585942218
 32
0.0
 13
206.8410742179997
 23
231.5821585942202
 33
0.0
  0
LINE
  5
D43
  8
LOGO
 62
     1
 10
185.86272374947831
 20
176.3249335016769
 30
0.0
 11
185.86272374947831
 21
232.92671314659441
 31
0.0
  0
SOLID
  5
D44
  8
LOGO
 62
     5
 10
196.09526290357729
 20
204.1553813751749
 30
0.0
 11
196.93916374108801
 21
204.1553813751749
 31
0.0
 12
196.09526290357729
 22
199.93587718762831
 32
0.0
 13
196.93916374108801
 23
199.93587718762981
 33
0.0
  0
SOLID
  5
D45
  8
LOGO
 62
     5
 10
196.09526290357729
 20
204.74611196143081
 30
0.0
 11
196.93916374108801
 21
204.74611196143081
 31
0.0
 12
196.09526290357729
 22
205.42123263143901
 32
0.0
 13
196.93916374108801
 23
205.42123263143901
 33
0.0
  0
SOLID
  5
D46
  8
LOGO
 62
     5
 10
194.25238980859049
 20
204.1553813751749
 30
0.0
 11
195.09629064609871
 21
204.1553813751749
 31
0.0
 12
194.25238980859049
 22
199.93587718762981
 32
0.0
 13
195.09629064609871
 23
199.93587718762981
 33
0.0
  0
SOLID
  5
D47
  8
LOGO
 62
     5
 10
191.0319985286624
 20
199.93587718762981
 30
0.0
 11
191.8758993661709
 21
199.93587718762981
 31
0.0
 12
194.25238980859049
 22
204.1553813751749
 32
0.0
 13
195.09629064609871
 23
204.1553813751749
 33
0.0
  0
SOLID
  5
D48
  8
LOGO
 62
     5
 10
191.0319985286624
 20
204.1553813751749
 30
0.0
 11
191.8758993661709
 21
204.1553813751749
 31
0.0
 12
191.0319985286624
 22
199.93587718762981
 32
0.0
 13
191.8758993661709
 23
199.93587718762981
 33
0.0
  0
SOLID
  5
D49
  8
LOGO
 62
     5
 10
187.8116072487355
 20
199.93587718762981
 30
0.0
 11
188.65550808624531
 21
199.93587718762981
 31
0.0
 12
191.0319985286624
 22
204.1553813751749
 32
0.0
 13
191.8758993661709
 23
204.1553813751749
 33
0.0
  0
SOLID
  5
D4A
  8
LOGO
 62
     5
 10
212.5514136250892
 20
202.46757970015651
 30
0.0
 11
213.39531446259741
 21
202.46757970015651
 31
0.0
 12
212.5514136250892
 22
199.93587718762831
 32
0.0
 13
213.39531446259741
 23
199.93587718762831
 33
0.0
  0
SOLID
  5
D4B
  8
LOGO
 62
     5
 10
210.01971111256231
 20
202.46757970015651
 30
0.0
 11
210.8636119500708
 21
202.46757970015651
 31
0.0
 12
210.01971111256231
 22
199.93587718762981
 32
0.0
 13
210.8636119500708
 23
199.93587718762981
 33
0.0
  0
SOLID
  5
D4C
  8
LOGO
 62
     5
 10
207.4880086000357
 20
204.1553813751749
 30
0.0
 11
208.33190943754411
 21
204.1553813751749
 31
0.0
 12
207.4880086000357
 22
199.93587718762981
 32
0.0
 13
208.33190943754411
 23
199.93587718762981
 33
0.0
  0
SOLID
  5
D4D
  8
LOGO
 62
     5
 10
205.65952865540399
 20
205.42123263143901
 30
0.0
 11
206.50342949291229
 21
205.42123263143901
 31
0.0
 12
205.65952865540399
 22
199.93587718762981
 32
0.0
 13
206.50342949291229
 23
199.93587718762981
 33
0.0
  0
POLYLINE
  5
D4E
  8
LOGO
 62
     5
 66
     1
 10
0.0
 20
0.0
 30
0.0
 70
     1
 40
0.8452532426974354
 41
0.8452532426974354
  0
VERTEX
  5
1585E
  8
LOGO
 62
     5
 10
202.70325530382809
 20
202.045629281402
 30
0.0
 42
1.0
  0
VERTEX
  5
1585F
  8
LOGO
 62
     5
 10
206.0842682746179
 20
202.045629281402
 30
0.0
 42
1.0
  0
SEQEND
  5
15860
  8
LOGO
 62
     5
  0
SOLID
  5
D4F
  8
LOGO
 62
     5
 10
200.45544536073569
 20
202.46757970015651
 30
0.0
 11
201.2993461982457
 21
202.46757970015651
 31
0.0
 12
200.45544536073569
 22
199.93587718762981
 32
0.0
 13
201.2993461982457
 23
199.93587718762981
 33
0.0
  0
SOLID
  5
D50
  8
LOGO
 62
     5
 10
197.923742848209
 20
204.1553813751749
 30
0.0
 11
198.7676436857175
 21
204.1553813751749
 31
0.0
 12
197.923742848209
 22
199.93587718762981
 32
0.0
 13
198.7676436857175
 23
199.93587718762981
 33
0.0
  0
POLYLINE
  5
D51
  8
LOGO
 62
     5
 66
     1
 10
0.0
 20
0.0
 30
0.0
 40
0.8452532426974354
 41
0.8452532426974354
  0
VERTEX
  5
15861
  8
LOGO
 62
     5
 10
200.87942438727299
 20
202.46757970015639
 30
0.0
 42
1.0
  0
VERTEX
  5
15862
  8
LOGO
 62
     5
 10
198.3436646591806
 20
202.46757970015639
 30
0.0
 42
1.0
  0
SEQEND
  5
15863
  8
LOGO
 62
     5
  0
POLYLINE
  5
D52
  8
LOGO
 62
     5
 66
     1
 10
0.0
 20
0.0
 30
0.0
 40
0.8452532426974354
 41
0.8452532426974354
  0
VERTEX
  5
15864
  8
LOGO
 62
     5
 10
212.97539265162609
 20
202.46757970015639
 30
0.0
 42
1.0
  0
VERTEX
  5
15865
  8
LOGO
 62
     5
 10
210.43963292353371
 20
202.46757970015639
 30
0.0
 42
1.0
  0
SEQEND
  5
15866
  8
LOGO
 62
     5
  0
POLYLINE
  5
D53
  8
LOGO
 62
     5
 66
     1
 10
0.0
 20
0.0
 30
0.0
 40
0.8452532426974354
 41
0.8452532426974354
  0
VERTEX
  5
15867
  8
LOGO
 62
     5
 10
210.44369013909929
 20
202.46757970015639
 30
0.0
 42
1.0
  0
VERTEX
  5
15868
  8
LOGO
 62
     5
 10
207.9079304110069
 20
202.46757970015639
 30
0.0
 42
1.0
  0
SEQEND
  5
15869
  8
LOGO
 62
     5
  0
CIRCLE
  5
D54
  8
LOGO
  6
CONTINUOUS
 62
     6
 10
283.13264667014357
 20
215.95828641520529
 30
0.0
 40
1.9255585439152201
  0
CIRCLE
  5
D55
  8
LOGO
  6
CONTINUOUS
 62
     6
 10
283.13264667014357
 20
215.95828641520529
 30
0.0
 40
3.2864325517551518
  0
LINE
  5
D56
  8
LOGO
 62
     1
 10
310.38663896829701
 20
210.2860012886274
 30
0.0
 11
227.37069548908451
 21
210.2860012886274
 31
0.0
  0
LINE
  5
D57
  8
LOGO
 62
     1
 10
310.38663896829701
 20
221.60635721761091
 30
0.0
 11
227.37069548908451
 21
221.60635721761091
 31
0.0
  0
TEXT
  5
D58
  8
LOGO
 62
     6
 10
281.14331944002163
 20
224.4364461998567
 30
0.0
 40
5.660177964491754
  1
1 : 1
  7
CHINESET
 72
     1
 11
291.116013948888
 21
227.26653518210259
 31
0.0
 73
     2
  0
TEXT
  5
D59
  8
LOGO
 62
     6
 10
281.14331944002163
 20
201.7957343418897
 30
0.0
 40
5.660177964491754
  1
m/m
  7
CHINESET
 72
     1
 11
291.116013948888
 21
204.62582332413561
 31
0.0
 73
     2
  0
SOLID
  5
D5A
  8
LOGO
 62
     2
 10
219.49958678063609
 20
231.5821585942218
 30
0.0
 11
220.51226778564791
 21
231.5821585942202
 31
0.0
 12
219.49958678063609
 22
208.37488556271981
 32
0.0
 13
220.51226778564791
 23
208.37488556271981
 33
0.0
  0
SOLID
  5
D5B
  8
LOGO
 62
     5
 10
220.51226778564791
 20
208.37488556271981
 30
0.0
 11
222.95958021442411
 21
208.37488556271981
 31
0.0
 12
220.51226778564791
 22
231.5821585942202
 32
0.0
 13
222.95958021442411
 23
231.5821585942218
 33
0.0
  0
SOLID
  5
D5C
  8
LOGO
 62
     5
 10
219.49958678063609
 20
229.72557675170091
 30
0.0
 11
217.05227435185981
 21
220.75209784618681
 31
0.0
 12
219.49958678063609
 22
208.37488556271981
 32
0.0
 13
217.05227435185981
 23
208.37488556271981
 33
0.0
  0
LINE
  5
D5D
  8
LOGO
 62
     1
 10
227.37069548908451
 20
198.96564535964379
 30
0.0
 11
227.37069548908451
 21
232.92671314659441
 31
0.0
  0
LINE
  5
D5E
  8
LOGO
 62
     1
 10
272.65211920501838
 20
198.96564535964379
 30
0.0
 11
272.65211920501838
 21
232.92671314659441
 31
0.0
  0
TEXT
  5
D5F
  8
LOGO
 62
     6
 10
234.5697343376726
 20
201.7957343418897
 30
0.0
 40
5.660177964491754
  1
單位 Unit:
 41
0.9
  7
CHINESET
 72
     4
 11
250.01140734705169
 21
204.62582332413561
 31
0.0
  0
SOLID
  5
D60
  8
LOGO
 62
     5
 10
222.11567937691569
 20
202.46757970015651
 30
0.0
 11
222.95958021442411
 21
202.46757970015639
 31
0.0
 12
222.11567937691569
 22
199.93587718762981
 32
0.0
 13
222.95958021442411
 23
199.93587718762981
 33
0.0
  0
SOLID
  5
D61
  8
LOGO
 62
     5
 10
219.58397686438749
 20
199.93587718762981
 30
0.0
 11
220.42787770189719
 21
199.93587718762981
 31
0.0
 12
219.58397686438749
 22
204.1553813751749
 32
0.0
 13
220.42787770189719
 23
204.1553813751749
 33
0.0
  0
SOLID
  5
D62
  8
LOGO
 62
     5
 10
217.75549691975809
 20
204.1553813751749
 30
0.0
 11
218.5993977572665
 21
204.1553813751749
 31
0.0
 12
217.75549691975809
 22
199.93587718762981
 32
0.0
 13
218.5993977572665
 23
199.93587718762981
 33
0.0
  0
LINE
  5
D63
  8
LOGO
 62
     5
 10
222.95958021442411
 20
199.93587718762981
 30
0.0
 11
222.95958021442411
 21
202.46757970015651
 31
0.0
  0
POLYLINE
  5
D64
  8
LOGO
 62
     5
 66
     1
 10
0.0
 20
0.0
 30
0.0
 70
     1
 40
0.8452532426974354
 41
0.8452532426974354
  0
VERTEX
  5
1586A
  8
LOGO
 62
     5
 10
214.7992235681813
 20
202.045629281402
 30
0.0
 42
1.0
  0
VERTEX
  5
1586B
  8
LOGO
 62
     5
 10
218.180236538971
 20
202.045629281402
 30
0.0
 42
1.0
  0
SEQEND
  5
1586C
  8
LOGO
 62
     5
  0
CIRCLE
  5
D65
  8
LOGO
 62
     5
 10
216.48973005357661
 20
202.04562928140231
 30
0.0
 40
1.265851256263679
  0
POLYLINE
  5
D66
  8
LOGO
 62
     5
 66
     1
 10
0.0
 20
0.0
 30
0.0
 70
     1
  0
VERTEX
  5
1586D
  8
LOGO
 62
     5
 10
215.22387879731281
 20
202.04562928140231
 30
0.0
 42
1.0000000573306349
  0
VERTEX
  5
1586E
  8
LOGO
 62
     5
 10
217.75558130984049
 20
202.04562928140231
 30
0.0
 42
1.0000000573306349
  0
SEQEND
  5
1586F
  8
LOGO
 62
     5
  0
POLYLINE
  5
D67
  8
LOGO
 62
     5
 66
     1
 10
0.0
 20
0.0
 30
0.0
 40
0.8452532426974354
 41
0.8452532426974354
  0
VERTEX
  5
15870
  8
LOGO
 62
     5
 10
222.53965840345259
 20
202.46757970015639
 30
0.0
 42
1.0
  0
VERTEX
  5
15871
  8
LOGO
 62
     5
 10
220.00389867536029
 20
202.46757970015639
 30
0.0
 42
1.0
  0
SEQEND
  5
15872
  8
LOGO
 62
     5
  0
TEXT
  5
D68
  8
LOGO
 62
     6
 10
234.01635086703709
 20
213.19570973617101
 30
0.0
 40
5.660177964491754
  1
投影 View:
 41
0.9
  7
CHINESET
 72
     4
 11
250.01140734705169
 21
215.94617925311911
 31
0.0
  0
TEXT
  5
D69
  8
LOGO
 62
     6
 10
232.03781544462771
 20
224.43923172050859
 30
0.0
 40
5.660177964491754
  1
比例 Scale:
 41
0.9
  7
CHINESET
 72
     4
 11
250.01140734705169
 21
227.26653518210259
 31
0.0
  0
LINE
  5
D6A
  8
LOGO
 62
     1
 10
310.38663896829701
 20
176.3249335016769
 30
0.0
 11
310.38663896829701
 21
232.92671314659441
 31
0.0
  0
LINE
  5
D6B
  8
LOGO
  6
CONTINUOUS
 62
     6
 10
293.48219276735779
 20
214.03272787129009
 30
0.0
 11
303.78497016688061
 21
212.67185386345031
 31
0.0
  0
LINE
  5
D6C
  8
LOGO
  6
CONTINUOUS
 62
     6
 10
293.48219276735779
 20
217.88384495912061
 30
0.0
 11
303.78497016688061
 21
219.24471896696051
 31
0.0
  0
LINE
  5
D6D
  8
LOGO
 62
     6
 10
293.48219276735779
 20
214.03272787129009
 30
0.0
 11
293.48219276735779
 21
217.88384495912061
 31
0.0
  0
LINE
  5
D6E
  8
LOGO
 62
     6
 10
303.78497016688061
 20
212.67185386345031
 30
0.0
 11
303.78497016688061
 21
219.24471896696051
 31
0.0
  0
LINE
  5
D6F
  8
LOGO
 62
     6
 10
427.15214864533198
 20
181.04174847208671
 30
0.0
 11
389.41762888205352
 21
181.0417484720866
 31
0.0
  0
LINE
  5
D70
  8
LOGO
 62
     6
 10
427.15214864533198
 20
201.79573434188981
 30
0.0
 11
389.41762888205352
 21
201.79573434188981
 31
0.0
  0
LINE
  5
D71
  8
LOGO
 62
     6
 10
430.92560062165978
 20
210.2860012886274
 30
0.0
 11
385.64417690572571
 21
210.2860012886274
 31
0.0
  0
LINE
  5
D72
  8
LOGO
 62
     6
 10
430.92560062165978
 20
227.26653518210259
 30
0.0
 11
385.64417690572571
 21
227.26653518210259
 31
0.0
  0
TEXT
  5
D73
  8
LOGO
  6
CONTINUOUS
 62
     7
 10
390.76529030217051
 20
214.05945326495529
 30
0.0
 40
9.4336299408195892
  1
MTHS
  7
CHINESET
 72
     1
 11
408.28488876369261
 21
218.776268235365
 31
0.0
 73
     2
  0
LINE
  5
D74
  8
LOGO
 62
     6
 10
385.64417690572571
 20
227.26653518210259
 30
0.0
 11
385.64417690572571
 21
210.2860012886274
 31
0.0
  0
LINE
  5
D75
  8
LOGO
 62
     6
 10
389.41762888205352
 20
201.79573434188981
 30
0.0
 11
389.41762888205352
 21
181.0417484720866
 31
0.0
  0
TEXT
  5
D76
  8
LOGO
  6
CONTINUOUS
 62
     6
 10
399.30047929624538
 20
183.40015595729159
 30
0.0
 40
4.7168149704097937
  1
Model
  7
CHINESET
 72
     4
 11
408.28488876369261
 21
185.7585634424965
 31
0.0
  0
TEXT
  5
D77
  8
LOGO
 62
     6
 10
400.73798481103688
 20
191.61187083884749
 30
0.0
 40
7.546903952655672
  1
型式
  7
CHINESET
 72
     4
 11
408.28488876369261
 21
195.19219338331601
 31
0.0
  0
LINE
  5
D78
  8
LOGO
 62
     6
 10
408.28488876369261
 20
210.2860012886274
 30
0.0
 11
408.28488876369261
 21
201.79573434188981
 31
0.0
  0
LINE
  5
D79
  8
LOGO
 62
     6
 10
430.9256006216599
 20
227.26653518210259
 30
0.0
 11
430.9256006216599
 21
210.2860012886274
 31
0.0
  0
LINE
  5
D7A
  8
LOGO
 62
     6
 10
427.15214864533198
 20
201.79573434188981
 30
0.0
 11
427.15214864533198
 21
181.04174847208671
 31
0.0
  0
LINE
  5
D7B
  8
LOGO
  6
CONTINUOUS
 62
     7
 10
433.85109141964767
 20
218.71612050075569
 30
0.0
 11
441.34907559485617
 21
218.71612050075569
 31
0.0
  0
LINE
  5
D82
  8
LOGO
 62
     6
 10
474.57774468566993
 20
227.26653518210281
 30
0.0
 11
474.57774468566993
 21
210.2860012886274
 31
0.0
  0
LINE
  5
D83
  8
LOGO
 62
     6
 10
444.28559667607891
 20
227.26653518210259
 30
0.0
 11
444.28559667607891
 21
210.2860012886274
 31
0.0
  0
LINE
  5
D85
  8
LOGO
 62
     6
 10
474.57774468566993
 20
181.04174847208671
 30
0.0
 11
444.28559667607891
 21
181.0417484720866
 31
0.0
  0
LINE
  5
D86
  8
LOGO
 62
     6
 10
474.57774468566993
 20
210.2860012886274
 30
0.0
 11
444.28559667607891
 21
210.2860012886274
 31
0.0
  0
LINE
  5
D87
  8
LOGO
 62
     6
 10
474.57774468566993
 20
201.79573434188981
 30
0.0
 11
444.28559667607891
 21
201.79573434188981
 31
0.0
  0
LINE
  5
D88
  8
LOGO
 62
     6
 10
444.28559667607891
 20
201.79573434188981
 30
0.0
 11
444.28559667607891
 21
181.04174847208671
 31
0.0
  0
TEXT
  5
D89
  8
LOGO
  6
CONTINUOUS
 62
     6
 10
453.59180452703379
 20
183.40015595729159
 30
0.0
 40
4.7168149704097937
  1
Bore
 41
0.8
  7
CHINESET
 72
     4
 11
459.43167068087439
 21
185.7585634424965
 31
0.0
  0
TEXT
  5
D8A
  8
LOGO
 62
     6
 10
452.21494377614738
 20
191.41874140698809
 30
0.0
 40
7.546903952655672
  1
內徑
 41
0.9
  7
CHINESET
 72
     4
 11
459.43167068087439
 21
195.19219338331601
 31
0.0
  0
LINE
  5
D8B
  8
LOGO
 62
     6
 10
459.43167024582482
 20
210.2860012886274
 30
0.0
 11
459.43167024582482
 21
201.79573434188981
 31
0.0
  0
LINE
  5
D8C
  8
LOGO
 62
     6
 10
474.57774468566993
 20
201.79573434188981
 30
0.0
 11
474.57774468566993
 21
181.04174847208671
 31
0.0
  0
LINE
  5
D8E
  8
LOGO
 62
     6
 10
474.57774468566993
 20
227.26653518210281
 30
0.0
 11
444.28559667607891
 21
227.26653518210259
 31
0.0
  0
TEXT
  5
D8F
  8
LOGO
  6
CONTINUOUS
 62
     7
 10
452.67539500434691
 20
213.95247530698711
 30
0.0
 40
9.4336299408195892
  1
40
  7
CHINESET
 72
     1
 11
460.31214305167703
 21
218.6692902773969
 31
0.0
 73
     2
  0
LINE
  5
D9E
  8
LOGO
 62
     1
 10
635.92834892189944
 20
176.3249335016769
 30
0.0
 11
635.92834892189944
 21
232.92671314659441
 31
0.0
  0
LINE
  5
DAD
  8
LOGO
 62
     6
 10
487.93774074008888
 20
227.26653518210281
 30
0.0
 11
487.93774074008888
 21
210.28600128862749
 31
0.0
  0
LINE
  5
DAE
  8
LOGO
 62
     6
 10
546.35322282718175
 20
227.2665351821029
 30
0.0
 11
546.35322282718175
 21
210.28600128862749
 31
0.0
  0
TEXT
  5
DAF
  8
LOGO
 62
     6
 10
503.84406356707939
 20
191.64684459814259
 30
0.0
 40
7.546903952655672
  1
旋轉方向
 41
0.9
  7
CHINESET
 72
     4
 11
517.14548178363509
 21
195.19219338331609
 31
0.0
  0
TEXT
  5
DB0
  8
LOGO
  6
CONTINUOUS
 62
     6
 10
491.98913527478283
 20
184.18629178569319
 30
0.0
 40
4.7168149704097937
  1
Rotating direction
 41
0.8
  7
CHINESET
 72
     4
 11
517.14548178363509
 21
185.7585634424965
 31
0.0
  0
LINE
  5
DB1
  8
LOGO
 62
     6
 10
546.35322282718175
 20
201.7957343418899
 30
0.0
 11
487.93774074008888
 21
201.7957343418899
 31
0.0
  0
LINE
  5
DB2
  8
LOGO
 62
     6
 10
546.35322282718175
 20
210.28600128862749
 30
0.0
 11
487.93774074008888
 21
210.28600128862749
 31
0.0
  0
LINE
  5
DB3
  8
LOGO
 62
     6
 10
546.35322282718175
 20
181.04174847208679
 30
0.0
 11
487.93774074008888
 21
181.04174847208671
 31
0.0
  0
LINE
  5
DB4
  8
LOGO
 62
     6
 10
487.93774074008888
 20
201.7957343418899
 30
0.0
 11
487.93774074008888
 21
181.04174847208679
 31
0.0
  0
LINE
  5
DB5
  8
LOGO
 62
     6
 10
517.14548178363543
 20
210.28600128862749
 30
0.0
 11
517.14548178363543
 21
201.7957343418899
 31
0.0
  0
LINE
  5
DB6
  8
LOGO
 62
     6
 10
546.35322282718175
 20
201.7957343418899
 30
0.0
 11
546.35322282718175
 21
181.04174847208679
 31
0.0
  0
LINE
  5
DB7
  8
LOGO
 62
     6
 10
546.35322282718175
 20
227.2665351821029
 30
0.0
 11
487.93774074008888
 21
227.26653518210281
 31
0.0
  0
LINE
  5
DB8
  8
LOGO
  6
CONTINUOUS
 62
     7
 10
477.50323548365799
 20
218.71612050075581
 30
0.0
 11
485.00121965886621
 21
218.71612050075581
 31
0.0
  0
TEXT
  5
DCEA
  8
UMCL3
  6
CONTINUOUS
 62
     2
 10
766.23679790982271
 20
285.02499111941353
 30
0.0
 40
2.5
  1

 41
0.8
  7
ROMANS1
 72
     1
 11
766.23679790982271
 21
286.27499111941353
 31
0.0
 73
     2
  0
TEXT
  5
DCED
  8
UMCL3
  6
CONTINUOUS
 62
     2
 10
741.15575056207274
 20
285.02499111941353
 30
0.0
 40
2.5
  1

 41
0.8
  7
ROMANS1
 72
     1
 11
741.15575056207274
 21
286.27499111941353
 31
0.0
 73
     2
  0
TEXT
  5
DCF2
  8
UMCL3
  6
CONTINUOUS
 62
     2
 10
719.57470321432265
 20
285.02499111941353
 30
0.0
 40
2.5
  1

 41
0.8
  7
ROMANS1
 72
     1
 11
719.57470321432265
 21
286.27499111941353
 31
0.0
 73
     2
  0
TEXT
  5
DD0D
  8
UMCL3
 62
     2
 10
716.36931152386535
 20
289.1485161689501
 30
0.0
 40
3.2999999999999998
  1

 41
0.9
  7
ROMANS
  0
TEXT
  5
DD17
  8
UMCL3
 62
     2
 10
734.45035887161544
 20
289.1485161689501
 30
0.0
 40
3.2999999999999998
  1

 41
0.9
  7
ROMANS
  0
TEXT
  5
DD1A
  8
UMCL3
 62
     2
 10
759.53140621936552
 20
289.1485161689501
 30
0.0
 40
3.2999999999999998
  1

 41
0.9
  7
ROMANS
  0
TEXT
  5
14B64
  8
UMCL3
  6
CONTINUOUS
 62
     2
 10
426.05478391879888
 20
150.3638432988582
 30
0.0
 40
2.5
  1

 41
0.8
  7
ROMANS1
 72
     1
 11
426.05478391879888
 21
151.6138432988582
 31
0.0
 73
     2
  0
TEXT
  5
14B68
  8
UMCL3
 62
     2
 10
388.4510203905802
 20
154.33843610509459
 30
0.0
 40
3.2999999999999998
  1

 41
0.9
  7
ROMANS
  0
TEXT
  5
14B6A
  8
UMCL3
  6
CONTINUOUS
 62
     2
 10
394.72373657104862
 20
150.3638432988582
 30
0.0
 40
2.5
  1

 41
0.8
  7
ROMANS1
 72
     1
 11
394.72373657104862
 21
151.6138432988582
 31
0.0
 73
     2
  0
TEXT
  5
14B77
  8
UMCL3
 62
     2
 10
419.7820677383304
 20
154.33843610509459
 30
0.0
 40
3.2999999999999998
  1

 41
0.9
  7
ROMANS
  0
LINE
  5
14B7C
  8
LOGO
 62
     6
 10
618.12870096869358
 20
227.2665351821029
 30
0.0
 11
618.12870096869358
 21
210.2860012886276
 31
0.0
  0
LINE
  5
14B7D
  8
LOGO
 62
     6
 10
559.71321888160082
 20
227.2665351821029
 30
0.0
 11
559.71321888160082
 21
210.2860012886276
 31
0.0
  0
TEXT
  5
14B7E
  8
LOGO
  6
CONTINUOUS
 62
     6
 10
568.34666224469265
 20
184.18629178569319
 30
0.0
 40
4.7168149704097937
  1
Rotating angle
 41
0.8
  7
CHINESET
 72
     4
 11
588.92095992514692
 21
185.7585634424965
 31
0.0
  0
TEXT
  5
14B7F
  8
LOGO
 62
     6
 10
575.40728503492289
 20
191.65427265321409
 30
0.0
 40
7.546903952655672
  1
旋轉角度
 41
0.9
  7
CHINESET
 72
     4
 11
588.92095992514692
 21
195.19219338331621
 31
0.0
  0
LINE
  5
14B80
  8
LOGO
 62
     6
 10
618.12870096869358
 20
210.2860012886276
 30
0.0
 11
559.71321888160082
 21
210.2860012886276
 31
0.0
  0
LINE
  5
14B81
  8
LOGO
 62
     6
 10
618.12870096869358
 20
201.7957343418899
 30
0.0
 11
559.71321888160082
 21
201.7957343418899
 31
0.0
  0
LINE
  5
14B82
  8
LOGO
 62
     6
 10
618.12870096869358
 20
181.04174847208691
 30
0.0
 11
559.71321888160082
 21
181.04174847208679
 31
0.0
  0
LINE
  5
14B83
  8
LOGO
 62
     6
 10
559.71321888160082
 20
201.7957343418899
 30
0.0
 11
559.71321888160082
 21
181.04174847208691
 31
0.0
  0
LINE
  5
14B84
  8
LOGO
 62
     6
 10
588.92095992514726
 20
210.2860012886276
 30
0.0
 11
588.92095992514726
 21
201.7957343418899
 31
0.0
  0
LINE
  5
14B85
  8
LOGO
 62
     6
 10
618.12870096869358
 20
201.7957343418899
 30
0.0
 11
618.12870096869358
 21
181.04174847208691
 31
0.0
  0
LINE
  5
14B86
  8
LOGO
 62
     6
 10
618.12870096869358
 20
227.2665351821029
 30
0.0
 11
559.71321888160082
 21
227.2665351821029
 31
0.0
  0
LINE
  5
14B87
  8
LOGO
  6
CONTINUOUS
 62
     7
 10
549.27871362516976
 20
218.71612050075581
 30
0.0
 11
556.77669780037797
 21
218.71612050075581
 31
0.0
  0
LINE
  5
156CF
  8
CENTER
  6
CENTER
 10
537.3943947100737
 20
314.8443567167451
 30
0.0
 11
537.3943947100737
 21
277.2803301769577
 31
0.0
  0
LINE
  5
156D0
  8
CENTER
  6
CENTER
 10
489.39439471007381
 20
277.54095139299528
 30
0.0
 11
489.39439471007381
 21
314.8443567167451
 31
0.0
  0
LINE
  5
156D1
  8
CENTER
  6
CENTER
 10
388.23243214149119
 20
314.8443567167451
 30
0.0
 11
388.23243214149119
 21
277.2803301769577
 31
0.0
  0
LINE
  5
156D2
  8
CENTER
  6
CENTER
 10
340.23243214149119
 20
277.54095139299528
 30
0.0
 11
340.23243214149119
 21
314.8443567167451
 31
0.0
  0
TEXT
  5
156D3
  8
DIM
 10
277.2513628061588
 20
524.35193439028944
 30
0.0
 40
4.0
  1
CW
  7
ROMANS
  0
TEXT
  5
156D4
  8
DIM
 10
275.17641449039132
 20
489.28898540589262
 30
0.0
 40
4.0
  1
CCW
  7
ROMANS
  0
LINE
  5
156D5
  8
DIM
 10
289.91548957121171
 20
432.93967840761019
 30
0.0
 11
267.88071564416799
 21
432.93967840761019
 31
0.0
  0
TEXT
  5
156D6
  8
DIM
 10
267.8482147629702
 20
433.93967840761019
 30
0.0
 40
3.0
  1
M10x1.5P
  7
ROMANS
  0
CIRCLE
  5
156D7
  8
0
 62
     7
 10
364.23243214149119
 20
508.43380330195851
 30
0.0
 40
8.25
  0
LINE
  5
156D8
  8
0
 10
380.23243214149119
 20
496.93380330195839
 30
0.0
 11
380.23243214149119
 21
519.93380330195851
 31
0.0
  0
LINE
  5
156D9
  8
0
 10
294.23243214149119
 20
516.93380330195885
 30
0.0
 11
294.23243214149119
 21
499.9338033019589
 31
0.0
  0
POLYLINE
  5
156DA
  8
0
 62
     7
 66
     1
 10
0.0
 20
0.0
 30
0.0
 70
     1
  0
VERTEX
  5
15873
  8
0
 62
     7
 10
356.78462059714809
 20
495.53381530195878
 30
0.0
  0
VERTEX
  5
15874
  8
0
 62
     7
 10
371.68024368583423
 20
495.53381530195878
 30
0.0
  0
VERTEX
  5
15875
  8
0
 62
     7
 10
379.12805523017681
 20
508.43380330195851
 30
0.0
  0
VERTEX
  5
15876
  8
0
 62
     7
 10
371.68024368583423
 20
521.33379130195863
 30
0.0
  0
VERTEX
  5
15877
  8
0
 62
     7
 10
356.78462059714809
 20
521.33379130195863
 30
0.0
  0
VERTEX
  5
15878
  8
0
 62
     7
 10
349.33680905280511
 20
508.43380330195851
 30
0.0
  0
SEQEND
  5
15879
  8
0
 62
     7
  0
CIRCLE
  5
156DB
  8
0
 62
     7
 10
364.23243214149119
 20
508.43380330195851
 30
0.0
 40
12.899988
  0
CIRCLE
  5
156DC
  8
0
 62
     7
 10
364.23243214149119
 20
508.43380330195851
 30
0.0
 40
9.0
  0
ARC
  5
156DD
  8
0
 10
364.23243214149119
 20
508.43380330195851
 30
0.0
 40
27.0
 50
215.0348147942608
 51
144.965185205739
  0
POLYLINE
  5
156DE
  8
0
 66
     1
 10
0.0
 20
0.0
 30
0.0
  0
VERTEX
  5
1587A
  8
0
 10
395.73243214149119
 20
481.41529112974598
 30
0.0
  0
VERTEX
  5
1587B
  8
0
 10
395.73243214149119
 20
535.45231547417143
 30
0.0
  0
SEQEND
  5
1587C
  8
0
  0
LINE
  5
156DF
  8
DIM
 10
411.73243214149119
 20
484.43380330195839
 30
0.0
 11
411.73243214149119
 21
532.43380330195885
 31
0.0
  0
LINE
  5
156E0
  8
DIM
 10
419.73243214149119
 20
476.93380330195902
 30
0.0
 11
419.73243214149119
 21
539.93380330195851
 31
0.0
  0
LINE
  5
156E1
  8
DIM
 10
403.73243214149119
 20
492.93380330195839
 30
0.0
 11
403.73243214149119
 21
523.93380330195851
 31
0.0
  0
LINE
  5
156E2
  8
CENTER
  6
CENTER
 10
364.23243214149119
 20
472.54785304374491
 30
0.0
 11
364.23243214149119
 21
543.16999241541271
 31
0.0
  0
LINE
  5
156E3
  8
CENTER
  6
CENTER
 10
304.23243214149119
 20
498.4338033019589
 30
0.0
 11
304.23243214149119
 21
518.43380330195896
 31
0.0
  0
TEXT
  5
156E4
  8
DIM
 10
426.7324321414917
 20
406.03677010447831
 30
0.0
 40
3.0
  1
18
 50
90.0
  7
ROMANS
  0
TEXT
  5
156E5
  8
DIM
 10
426.7324321414917
 20
330.64014052138828
 30
0.0
 40
3.0
  1
120
 50
90.0
  7
ROMANS
  0
LINE
  5
156E6
  8
DIM
 10
381.87095845480769
 20
400.64204883314039
 30
0.0
 11
428.73243214149159
 21
400.64204883314039
 31
0.0
  0
LINE
  5
156E7
  8
DIM
 10
395.93243214149152
 20
280.64204883314051
 30
0.0
 11
436.73243214149119
 21
280.64204883314051
 31
0.0
  0
LINE
  5
156E8
  8
DIM
 10
380.63241214149127
 20
428.64204883314051
 30
0.0
 11
436.73243214149159
 21
428.64204883314051
 31
0.0
  0
LINE
  5
156E9
  8
DIM
 10
381.87095845480769
 20
418.64204883314051
 30
0.0
 11
428.73243214149159
 21
418.64204883314051
 31
0.0
  0
LINE
  5
156EA
  8
0
 10
353.03243214149143
 20
370.64204883314051
 30
0.0
 11
353.03243214149143
 21
400.64204883314039
 31
0.0
  0
LINE
  5
156EB
  8
0
 10
375.43243214149152
 20
370.64204883314051
 30
0.0
 11
375.43243214149152
 21
400.64204883314039
 31
0.0
  0
LINE
  5
156EC
  8
0
  6
PHANTOM
 62
     6
 10
380.23243214149119
 20
374.64204883314051
 30
0.0
 11
380.23243214149119
 21
392.64204883314051
 31
0.0
  0
LINE
  5
156ED
  8
0
  6
PHANTOM
 62
     6
 10
294.23243214149119
 20
392.64204883314051
 30
0.0
 11
294.23243214149119
 21
374.64204883314051
 31
0.0
  0
LINE
  5
156EE
  8
DIM
 10
419.73243214149119
 20
280.64204883314051
 30
0.0
 11
419.73243214149119
 21
400.64204883314039
 31
0.0
  0
TEXT
  5
156EF
  8
DIM
 10
418.7324321414917
 20
384.6630750704162
 30
0.0
 40
3.0
  1
26
 50
90.0
  7
ROMANS
  0
LINE
  5
156F0
  8
CENTER
  6
CENTER
 10
364.23243214149119
 20
277.98784522160622
 30
0.0
 11
364.23243214149119
 21
430.6780160063808
 31
0.0
  0
LINE
  5
156F1
  8
0
 10
387.23243214149119
 20
370.64204883314051
 30
0.0
 11
341.23243214149119
 21
370.64204883314051
 31
0.0
  0
LINE
  5
156F2
  8
0
 62
     4
 10
391.23243214149119
 20
366.64204883314051
 30
0.0
 11
337.23243214149119
 21
366.64204883314051
 31
0.0
  0
CIRCLE
  5
156F3
  8
0
 10
352.23243214149119
 20
299.64204883314051
 30
0.0
 40
4.25
  0
ARC
  5
156F4
  8
0
 62
     2
 10
352.23243214149119
 20
299.64204883314051
 30
0.0
 40
5.0
 50
76.381240030122612
 51
12.82963446549107
  0
LINE
  5
156F5
  8
0
 10
333.53243214149143
 20
280.64204883314051
 30
0.0
 11
394.93243214149152
 21
280.64204883314051
 31
0.0
  0
LINE
  5
156F6
  8
0
 10
333.53243214149143
 20
310.64204883314051
 30
0.0
 11
394.93243214149152
 21
310.64204883314051
 31
0.0
  0
LINE
  5
156F7
  8
0
 10
332.73243214149119
 20
309.84204883314032
 30
0.0
 11
395.73243214149119
 21
309.84204883314032
 31
0.0
  0
LINE
  5
156F8
  8
0
 10
332.73243214149119
 20
281.44204883314018
 30
0.0
 11
395.73243214149119
 21
281.44204883314018
 31
0.0
  0
LINE
  5
156F9
  8
0
  6
PHANTOM
 62
     6
 10
294.23243214149119
 20
374.64204883314051
 30
0.0
 11
380.23243214149119
 21
374.64204883314051
 31
0.0
  0
LINE
  5
156FA
  8
DIM
 10
327.86326377613148
 20
333.95841704525583
 30
0.0
 11
359.98997323641419
 21
353.99600604461011
 31
0.0
  0
LINE
  5
156FB
  8
DIM
 10
337.23243214149119
 20
333.50131212491891
 30
0.0
 11
391.23243214149119
 21
333.50131212491891
 31
0.0
  0
LINE
  5
156FC
  8
CENTER
  6
CENTER
 10
354.23243214149119
 20
356.64204883314051
 30
0.0
 11
374.23243214149119
 21
356.64204883314051
 31
0.0
  0
LINE
  5
156FD
  8
CENTER
  6
CENTER
 10
342.23243214149119
 20
299.64204883314051
 30
0.0
 11
362.23243214149119
 21
299.64204883314051
 31
0.0
  0
LINE
  5
156FE
  8
0
 10
337.23243214149119
 20
310.64204883314051
 30
0.0
 11
337.23243214149119
 21
366.64204883314051
 31
0.0
  0
SOLID
  5
156FF
  8
DIM
 10
340.18685540049091
 20
334.0222566580187
 30
0.0
 11
340.18685540049091
 21
332.98036759181872
 31
0.0
 12
337.23243214149068
 22
333.50131212491891
 32
0.0
 13
337.23243214149068
 23
333.50131212491891
 33
0.0
  0
LINE
  5
15700
  8
0
 10
338.0139199692789
 20
310.64204883314051
 30
0.0
 11
337.21391996927872
 21
309.84204883314032
 31
0.0
  0
LINE
  5
15701
  8
0
 10
333.53243214149143
 20
310.64204883314051
 30
0.0
 11
332.73243214149119
 21
309.84204883314032
 31
0.0
  0
LINE
  5
15702
  8
0
 10
337.21391996927872
 20
281.44204883314018
 30
0.0
 11
338.0139199692785
 21
280.64204883314051
 31
0.0
  0
LINE
  5
15703
  8
0
 10
332.73243214149119
 20
281.44204883314018
 30
0.0
 11
333.53243214149143
 21
280.64204883314051
 31
0.0
  0
LINE
  5
15704
  8
0
 10
332.73243214149119
 20
309.84204883314032
 30
0.0
 11
332.73243214149119
 21
281.44204883314018
 31
0.0
  0
LINE
  5
15705
  8
0
  6
CONTINUOUS
 10
337.21391996927872
 20
309.84204883314032
 30
0.0
 11
337.21391996927872
 21
281.44204883314018
 31
0.0
  0
LINE
  5
15706
  8
CENTER
  6
CENTER
 10
352.23243214149119
 20
289.64204883314039
 30
0.0
 11
352.23243214149119
 21
309.64204883314051
 31
0.0
  0
LINE
  5
15707
  8
HIDDEN
  6
HIDDEN
 10
344.73243214149119
 20
280.64204883314051
 30
0.0
 11
344.73243214149119
 21
310.64204883314051
 31
0.0
  0
LINE
  5
15708
  8
HIDDEN
  6
HIDDEN
 10
335.73243214149119
 20
280.64204883314051
 30
0.0
 11
335.73243214149119
 21
310.64204883314051
 31
0.0
  0
LINE
  5
15709
  8
DIM
 10
327.88681739110228
 20
333.9731075524432
 30
0.0
 11
301.95765195086
 21
333.9731075524432
 31
0.0
  0
TEXT
  5
1570A
  8
DIM
 10
301.92515106966221
 20
334.9731075524432
 30
0.0
 40
3.0
  1
2-PT 1/8
  7
ROMANS
  0
ARC
  5
1570B
  8
0
 10
341.23243214149119
 20
366.64204883314051
 30
0.0
 40
4.0
 50
90.0
 51
180.0
  0
LINE
  5
1570C
  8
0
 10
391.23243214149119
 20
310.64204883314051
 30
0.0
 11
391.23243214149119
 21
366.64204883314051
 31
0.0
  0
LINE
  5
1570D
  8
DIM
 10
411.73243214149119
 20
280.64204883314051
 30
0.0
 11
411.73243214149119
 21
370.64204883314051
 31
0.0
  0
SOLID
  5
1570E
  8
DIM
 10
388.27800888249112
 20
332.98036759181872
 30
0.0
 11
388.27800888249112
 21
334.0222566580187
 31
0.0
 12
391.23243214149119
 22
333.50131212491891
 32
0.0
 13
391.23243214149119
 23
333.50131212491891
 33
0.0
  0
LINE
  5
1570F
  8
HIDDEN
  6
HIDDEN
 10
383.73243214149119
 20
280.64204883314051
 30
0.0
 11
383.73243214149119
 21
310.64204883314051
 31
0.0
  0
LINE
  5
15710
  8
0
 10
394.93243214149152
 20
310.64204883314051
 30
0.0
 11
395.73243214149119
 21
309.84204883314032
 31
0.0
  0
LINE
  5
15711
  8
0
 10
390.45094431370347
 20
310.64204883314051
 30
0.0
 11
391.25094431370371
 21
309.84204883314032
 31
0.0
  0
LINE
  5
15712
  8
0
 10
394.93243214149152
 20
280.64204883314051
 30
0.0
 11
395.73243214149119
 21
281.44204883314018
 31
0.0
  0
LINE
  5
15713
  8
0
 10
391.25094431370371
 20
281.44204883314018
 30
0.0
 11
390.45094431370393
 21
280.64204883314051
 31
0.0
  0
LINE
  5
15714
  8
0
 10
395.73243214149119
 20
281.44204883314018
 30
0.0
 11
395.73243214149119
 21
309.84204883314032
 31
0.0
  0
LINE
  5
15715
  8
0
  6
CONTINUOUS
 10
391.25094431370371
 20
309.84204883314032
 30
0.0
 11
391.25094431370371
 21
281.44204883314018
 31
0.0
  0
TEXT
  5
15716
  8
DIM
 10
418.73243214149119
 20
323.22222354946371
 30
0.0
 40
3.0
  1
94
 50
90.0
  7
ROMANS
  0
SOLID
  5
15717
  8
DIM
 10
419.21148760839139
 20
283.59647209214012
 30
0.0
 11
420.25337667459138
 21
283.59647209214012
 31
0.0
 12
419.73243214149119
 22
280.64204883314051
 32
0.0
 13
419.73243214149119
 23
280.64204883314051
 33
0.0
  0
SOLID
  5
15718
  8
DIM
 10
411.21148760839139
 20
283.59647209214012
 30
0.0
 11
412.25337667459138
 21
283.59647209214012
 31
0.0
 12
411.73243214149119
 22
280.64204883314051
 32
0.0
 13
411.73243214149119
 23
280.64204883314051
 33
0.0
  0
SOLID
  5
15719
  8
DIM
 10
404.25337667459138
 20
307.68762557414033
 30
0.0
 11
403.21148760839139
 21
307.68762557414033
 31
0.0
 12
403.73243214149119
 22
310.64204883314051
 32
0.0
 13
403.73243214149119
 23
310.64204883314051
 33
0.0
  0
LINE
  5
1571A
  8
DIM
 10
395.93243214149152
 20
310.64204883314051
 30
0.0
 11
404.73243214149119
 21
310.64204883314051
 31
0.0
  0
TEXT
  5
1571B
  8
DIM
 10
402.73243214149119
 20
292.54436131663118
 30
0.0
 40
3.0
  1
30
 50
90.0
  7
ROMANS
  0
SOLID
  5
1571C
  8
DIM
 10
403.21148760839139
 20
283.59647209214012
 30
0.0
 11
404.25337667459138
 21
283.59647209214012
 31
0.0
 12
403.73243214149119
 22
280.64204883314051
 32
0.0
 13
403.73243214149119
 23
280.64204883314051
 33
0.0
  0
LINE
  5
1571D
  8
DIM
 10
403.73243214149119
 20
280.64204883314051
 30
0.0
 11
403.73243214149119
 21
310.64204883314051
 31
0.0
  0
TEXT
  5
1571E
  8
DIM
 10
410.73243214149119
 20
321.65251228686969
 30
0.0
 40
3.0
  1
90
 50
90.0
  7
ROMANS
  0
LINE
  5
1571F
  8
HIDDEN
  6
HIDDEN
 10
392.73243214149119
 20
280.64204883314051
 30
0.0
 11
392.73243214149119
 21
310.64204883314051
 31
0.0
  0
ARC
  5
15720
  8
0
 10
387.23243214149119
 20
366.64204883314051
 30
0.0
 40
4.0
 50
0.0
 51
90.0
  0
LINE
  5
15721
  8
DIM
 10
381.87095845480769
 20
374.64204883314051
 30
0.0
 11
420.73243214149159
 21
374.64204883314051
 31
0.0
  0
CIRCLE
  5
15722
  8
0
 10
364.23243214149119
 20
356.64204883314051
 30
0.0
 40
4.25
  0
ARC
  5
15723
  8
0
 62
     2
 10
364.23243214149119
 20
356.64204883314051
 30
0.0
 40
5.0
 50
76.381240030122612
 51
12.82963446549107
  0
TEXT
  5
15724
  8
DIM
 10
366.56816654414149
 20
334.50131212491891
 30
0.0
 40
3.0
  1
%%c54
  7
ROMANS
  0
SOLID
  5
15725
  8
DIM
 10
357.20748107850523
 20
352.87451712756223
 30
0.0
 11
357.75885768851862
 21
351.99048281816158
 31
0.0
 12
359.98997323641419
 22
353.99600604461051
 32
0.0
 13
359.98997323641419
 23
353.99600604461051
 33
0.0
  0
SOLID
  5
15726
  8
DIM
 10
420.25337667459138
 20
371.68762557414038
 30
0.0
 11
419.21148760839139
 21
371.68762557414038
 31
0.0
 12
419.73243214149159
 22
374.64204883314051
 32
0.0
 13
419.73243214149159
 23
374.64204883314051
 33
0.0
  0
SOLID
  5
15727
  8
DIM
 10
420.25337667459138
 20
377.59647209214057
 30
0.0
 11
419.21148760839139
 21
377.59647209214057
 31
0.0
 12
419.73243214149159
 22
374.64204883314051
 32
0.0
 13
419.73243214149159
 23
374.64204883314051
 33
0.0
  0
SOLID
  5
15728
  8
DIM
 10
412.25337667459138
 20
367.68762557414038
 30
0.0
 11
411.21148760839139
 21
367.68762557414038
 31
0.0
 12
411.73243214149119
 22
370.64204883314051
 32
0.0
 13
411.73243214149119
 23
370.64204883314051
 33
0.0
  0
LINE
  5
15729
  8
DIM
 10
389.7324321414917
 20
370.64204883314051
 30
0.0
 11
412.73243214149119
 21
370.64204883314051
 31
0.0
  0
LINE
  5
1572A
  8
0
 10
320.3567877944738
 20
492.9338033019589
 30
0.0
 11
376.23243214149119
 21
492.93380330195839
 31
0.0
  0
POLYLINE
  5
1572B
  8
0
 66
     1
 10
0.0
 20
0.0
 30
0.0
  0
VERTEX
  5
1587D
  8
0
 10
337.21391996927872
 20
476.93380330195851
 30
0.0
  0
VERTEX
  5
1587E
  8
0
 10
391.25094431370371
 20
476.93380330195851
 30
0.0
  0
SEQEND
  5
1587F
  8
0
  0
ARC
  5
1572C
  8
0
 62
     7
 10
353.0607125923907
 20
425.23606539009779
 30
0.0
 40
6.5940165569574578
 50
235.61575253194681
 51
304.3842474680531
  0
ARC
  5
1572D
  8
0
 62
     7
 10
353.06071482497691
 20
422.04803227618322
 30
0.0
 40
6.5940165569574267
 50
55.61575253194686
 51
124.3842474680531
  0
LINE
  5
1572E
  8
0
 62
     7
 10
351.33244414149112
 20
428.64204883314051
 30
0.0
 11
377.13242014149091
 21
428.64204883314051
 31
0.0
  0
LINE
  5
1572F
  8
0
 62
     7
 10
351.33244190890491
 20
418.64204883314051
 30
0.0
 11
377.1324179089051
 21
418.64204883314051
 31
0.0
  0
LINE
  5
15730
  8
0
 10
294.23243214149119
 20
400.64204883314039
 30
0.0
 11
380.23243214149119
 21
400.64204883314039
 31
0.0
  0
LINE
  5
15731
  8
0
 10
380.23243214149119
 20
418.64204883314051
 30
0.0
 11
294.23243214149119
 21
418.64204883314051
 31
0.0
  0
LINE
  5
15732
  8
0
  6
PHANTOM
 62
     6
 10
380.23243214149119
 20
392.64204883314051
 30
0.0
 11
294.23243214149119
 21
392.64204883314051
 31
0.0
  0
LINE
  5
15733
  8
DIM
 10
364.23243214149119
 20
436.6420488331409
 30
0.0
 11
294.23243214149119
 21
436.6420488331409
 31
0.0
  0
LINE
  5
15734
  8
DIM
 10
294.23243214149119
 20
444.6420488331409
 30
0.0
 11
380.23243214149119
 21
444.6420488331409
 31
0.0
  0
LINE
  5
15735
  8
HIDDEN
  6
HIDDEN
 10
354.43243214149101
 20
414.64204883314051
 30
0.0
 11
374.03243214149143
 21
414.64204883314051
 31
0.0
  0
LINE
  5
15736
  8
HIDDEN
  6
HIDDEN
 10
354.53243214149092
 20
415.64204883314051
 30
0.0
 11
373.93243214149101
 21
415.64204883314051
 31
0.0
  0
LINE
  5
15737
  8
DIM
 10
294.23243214149119
 20
420.09930697283289
 30
0.0
 11
294.23243214149119
 21
445.6420488331409
 31
0.0
  0
SOLID
  5
15738
  8
DIM
 10
297.18685540049131
 20
445.1629933662407
 30
0.0
 11
297.18685540049131
 21
444.12110430004071
 31
0.0
 12
294.23243214149119
 22
444.6420488331409
 32
0.0
 13
294.23243214149119
 23
444.6420488331409
 33
0.0
  0
LINE
  5
15739
  8
0
 10
294.23243214149119
 20
418.64204883314051
 30
0.0
 11
294.23243214149119
 21
400.64204883314039
 31
0.0
  0
SOLID
  5
1573A
  8
DIM
 10
301.27800888249112
 20
436.12110430004071
 30
0.0
 11
301.27800888249112
 21
437.1629933662407
 31
0.0
 12
304.23243214149119
 22
436.6420488331409
 32
0.0
 13
304.23243214149119
 23
436.6420488331409
 33
0.0
  0
TEXT
  5
1573B
  8
DIM
 10
296.37313672148309
 20
437.6420488331409
 30
0.0
 40
3.0
  1
10
  7
ROMANS
  0
SOLID
  5
1573C
  8
DIM
 10
307.18685540049131
 20
437.1629933662407
 30
0.0
 11
307.18685540049131
 21
436.12110430004071
 31
0.0
 12
304.23243214149119
 22
436.6420488331409
 32
0.0
 13
304.23243214149119
 23
436.6420488331409
 33
0.0
  0
LINE
  5
1573D
  8
DIM
 10
309.23243214149119
 20
436.6420488331409
 30
0.0
 11
299.23243214149119
 21
436.6420488331409
 31
0.0
  0
SOLID
  5
1573E
  8
DIM
 10
301.77381518696387
 20
420.36111912571272
 30
0.0
 11
302.51004460000507
 21
421.09834302497251
 31
0.0
 12
304.23243214149068
 22
418.64204883314142
 32
0.0
 13
304.23243214149068
 23
418.64204883314142
 33
0.0
  0
LINE
  5
1573F
  8
DIM
 10
304.23243214149119
 20
422.64204883314102
 30
0.0
 11
304.23243214149119
 21
437.6420488331409
 31
0.0
  0
SOLID
  5
15740
  8
DIM
 10
297.18685540049131
 20
437.1629933662407
 30
0.0
 11
297.18685540049131
 21
436.12110430004071
 31
0.0
 12
294.23243214149119
 22
436.6420488331409
 32
0.0
 13
294.23243214149119
 23
436.6420488331409
 33
0.0
  0
LINE
  5
15741
  8
DIM
 10
289.91548957121171
 20
432.93967840761019
 30
0.0
 11
304.23243214149068
 21
418.64204883314142
 31
0.0
  0
LINE
  5
15742
  8
CENTER
  6
CENTER
 10
304.23243214149119
 20
398.33373423154171
 30
0.0
 11
304.23243214149119
 21
421.11057239114371
 31
0.0
  0
LINE
  5
15743
  8
HIDDEN
  6
HIDDEN
 10
299.98243214149119
 20
418.64204883314051
 30
0.0
 11
299.98243214149119
 21
400.64204883314039
 31
0.0
  0
LINE
  5
15744
  8
HIDDEN
  6
HIDDEN
 10
308.48243214149119
 20
418.64204883314051
 30
0.0
 11
308.48243214149119
 21
400.64204883314039
 31
0.0
  0
LINE
  5
15745
  8
HIDDEN
  6
HIDDEN
 10
299.23243214149119
 20
418.64204883314051
 30
0.0
 11
299.23243214149119
 21
400.64204883314039
 31
0.0
  0
LINE
  5
15746
  8
HIDDEN
  6
HIDDEN
 10
309.23243214149119
 20
418.64204883314051
 30
0.0
 11
309.23243214149119
 21
400.64204883314039
 31
0.0
  0
LINE
  5
15747
  8
0
 62
     7
 10
351.33244414149112
 20
428.64204883314051
 30
0.0
 11
349.33680905280562
 21
427.48986837748362
 31
0.0
  0
LINE
  5
15748
  8
0
 62
     7
 10
351.33244190890491
 20
418.64204883314051
 30
0.0
 11
349.33680682021941
 21
419.79422928879728
 31
0.0
  0
LINE
  5
15749
  8
0
 62
     7
 10
349.33680905280562
 20
427.48986837748362
 30
0.0
 11
349.33680682021941
 21
419.79422928879728
 31
0.0
  0
LINE
  5
1574A
  8
0
 10
320.3567877944738
 20
418.64204883314051
 30
0.0
 11
320.3567877944738
 21
400.64204883314039
 31
0.0
  0
TEXT
  5
1574B
  8
DIM
 10
329.15249718801391
 20
437.6420488331409
 30
0.0
 40
3.0
  1
60
  7
ROMANS
  0
LINE
  5
1574C
  8
HIDDEN
  6
HIDDEN
 10
353.03243214149092
 20
400.64204883314039
 30
0.0
 11
354.53243214149092
 21
415.64204883314051
 31
0.0
  0
LINE
  5
1574D
  8
HIDDEN
  6
HIDDEN
 10
354.73243214149119
 20
415.64204883314051
 30
0.0
 11
354.73243214149119
 21
418.64204883314051
 31
0.0
  0
LINE
  5
1574E
  8
0
 10
294.23243214149119
 20
499.9338033019589
 30
0.0
 11
320.3567877944738
 21
492.9338033019589
 31
0.0
  0
POLYLINE
  5
1574F
  8
DIM
 66
     1
 10
0.0
 20
0.0
 30
0.0
 70
     7
  0
VERTEX
  5
15750
  8
DIM
 10
289.18233326893409
 20
494.2231233084571
 30
0.0
 42
0.0185322085214218
  0
VERTEX
  5
15751
  8
DIM
 10
291.21150633881371
 20
489.82202406877599
 30
0.0
  0
VERTEX
  5
15752
  8
DIM
 10
290.67631393421368
 20
489.5507878432108
 30
0.0
  0
VERTEX
  5
15753
  8
DIM
 10
293.29879871754741
 20
487.51659020436182
 30
0.0
  0
VERTEX
  5
15754
  8
DIM
 10
293.08467975491288
 20
490.77135085825421
 30
0.0
  0
VERTEX
  5
15755
  8
DIM
 10
292.54948735031297
 20
490.50011463268902
 30
0.0
 42
-0.018532208521422
  0
VERTEX
  5
15756
  8
DIM
 10
290.56685494717379
 20
494.80027122925821
 30
0.0
  0
SEQEND
  5
15757
  8
DIM
  0
ARC
  5
15758
  8
0
 10
364.23243214149119
 20
508.43380330195851
 30
0.0
 40
41.5
 50
220.6206999513349
 51
229.3793000486649
  0
POLYLINE
  5
15759
  8
0
 66
     1
 10
0.0
 20
0.0
 30
0.0
  0
VERTEX
  5
15880
  8
0
 10
332.73243214149119
 20
492.9338033019589
 30
0.0
  0
VERTEX
  5
15881
  8
0
 10
332.73243214149119
 20
481.41529112974649
 30
0.0
  0
SEQEND
  5
15882
  8
0
  0
CIRCLE
  5
1575A
  8
0
 10
340.23243214149119
 20
484.43380330195839
 30
0.0
 40
4.5
  0
TEXT
  5
1575B
  8
DIM
 10
334.24354694688321
 20
445.6420488331409
 30
0.0
 40
3.0
  1
86
  7
ROMANS
  0
LINE
  5
1575C
  8
CENTER
  6
CENTER
 10
350.23243214149119
 20
484.4338033019589
 30
0.0
 11
330.23243214149119
 21
484.4338033019589
 31
0.0
  0
LINE
  5
1575D
  8
CENTER
  6
CENTER
 10
340.23243214149119
 20
474.4338033019589
 30
0.0
 11
340.23243214149119
 21
494.4338033019589
 31
0.0
  0
SOLID
  5
1575E
  8
DIM
 10
377.27800888249112
 20
444.12110430004071
 30
0.0
 11
377.27800888249112
 21
445.1629933662407
 31
0.0
 12
380.23243214149119
 22
444.6420488331409
 32
0.0
 13
380.23243214149119
 23
444.6420488331409
 33
0.0
  0
LINE
  5
1575F
  8
DIM
 10
380.23243214149119
 20
420.02307788230058
 30
0.0
 11
380.23243214149119
 21
445.6420488331409
 31
0.0
  0
LINE
  5
15760
  8
0
 62
     7
 10
377.13242014149131
 20
428.64204883314051
 30
0.0
 11
379.12805523017681
 21
427.48986837748362
 31
0.0
  0
LINE
  5
15761
  8
0
 62
     7
 10
377.1324179089051
 20
418.64204883314051
 30
0.0
 11
379.1280529975906
 21
419.79422928879728
 31
0.0
  0
LINE
  5
15762
  8
0
 62
     7
 10
379.12805523017681
 20
427.48986837748311
 30
0.0
 11
379.1280529975906
 21
419.79422928879728
 31
0.0
  0
LINE
  5
15763
  8
0
 62
     7
 10
371.68024368583423
 20
427.48986837748362
 30
0.0
 11
371.68024145324802
 21
419.79422928879728
 31
0.0
  0
ARC
  5
15764
  8
0
 62
     7
 10
375.40414945800552
 20
422.04803227618407
 30
0.0
 40
6.5940165569563849
 50
55.61575253194686
 51
124.3842474680531
  0
ARC
  5
15765
  8
0
 62
     7
 10
375.40414722541931
 20
425.23606539009779
 30
0.0
 40
6.5940165569573992
 50
235.61575253194681
 51
304.3842474680531
  0
LINE
  5
15766
  8
0
 10
380.23243214149119
 20
400.64204883314039
 30
0.0
 11
380.23243214149119
 21
418.64204883314051
 31
0.0
  0
LINE
  5
15767
  8
0
 10
376.23243214149119
 20
400.64204883314039
 30
0.0
 11
376.23243214149119
 21
418.64204883314051
 31
0.0
  0
LINE
  5
15768
  8
0
 62
     7
 10
356.7846205971486
 20
427.48986837748362
 30
0.0
 11
356.78461836456188
 21
419.79422928879728
 31
0.0
  0
ARC
  5
15769
  8
0
 62
     7
 10
364.23243214149119
 20
403.9942532887971
 30
0.0
 40
24.64779554434346
 50
72.412046226012649
 51
107.58795377398729
  0
ARC
  5
1576A
  8
0
 62
     7
 10
364.23242990890537
 20
443.28984437748562
 30
0.0
 40
24.6477955443453
 50
252.41204622601259
 51
287.58795377398729
  0
LINE
  5
1576B
  8
DIM
 10
364.23243214149119
 20
431.6420488331409
 30
0.0
 11
364.23243214149119
 21
437.6420488331409
 31
0.0
  0
SOLID
  5
1576C
  8
DIM
 10
361.27800888249112
 20
436.12110430004071
 30
0.0
 11
361.27800888249112
 21
437.1629933662407
 31
0.0
 12
364.23243214149119
 22
436.6420488331409
 32
0.0
 13
364.23243214149119
 23
436.6420488331409
 33
0.0
  0
LINE
  5
1576D
  8
HIDDEN
  6
HIDDEN
 10
375.43243214149152
 20
400.64204883314039
 30
0.0
 11
373.93243214149101
 21
415.64204883314051
 31
0.0
  0
LINE
  5
1576E
  8
HIDDEN
  6
HIDDEN
 10
373.73243214149119
 20
415.64204883314051
 30
0.0
 11
373.73243214149119
 21
418.64204883314051
 31
0.0
  0
LINE
  5
1576F
  8
HIDDEN
  6
HIDDEN
 10
373.23243214149119
 20
414.64204883314051
 30
0.0
 11
373.23243214149119
 21
418.64204883314051
 31
0.0
  0
LINE
  5
15770
  8
HIDDEN
  6
HIDDEN
 10
372.48243214149119
 20
414.64204883314051
 30
0.0
 11
372.48243214149119
 21
418.64204883314051
 31
0.0
  0
LINE
  5
15771
  8
HIDDEN
  6
HIDDEN
 10
355.23243214149119
 20
414.64204883314051
 30
0.0
 11
355.23243214149119
 21
418.64204883314051
 31
0.0
  0
LINE
  5
15772
  8
HIDDEN
  6
HIDDEN
 10
355.98243214149119
 20
414.64204883314051
 30
0.0
 11
355.98243214149119
 21
418.64204883314051
 31
0.0
  0
SOLID
  5
15773
  8
DIM
 10
420.25337667459138
 20
397.68762557414033
 30
0.0
 11
419.21148760839139
 21
397.68762557414033
 31
0.0
 12
419.73243214149159
 22
400.64204883314039
 32
0.0
 13
419.73243214149159
 23
400.64204883314039
 33
0.0
  0
CIRCLE
  5
15774
  8
0
 10
388.23243214149119
 20
484.43380330195839
 30
0.0
 40
4.5
  0
LINE
  5
15775
  8
DIM
 10
377.80807415187701
 20
492.93380330195839
 30
0.0
 11
404.73243214149119
 21
492.93380330195839
 31
0.0
  0
LINE
  5
15776
  8
CENTER
  6
CENTER
 10
398.23243214149119
 20
484.4338033019589
 30
0.0
 11
378.23243214149119
 21
484.4338033019589
 31
0.0
  0
LINE
  5
15777
  8
0
 10
376.23243214149119
 20
492.93380330195839
 30
0.0
 11
380.23243214149119
 21
496.93380330195839
 31
0.0
  0
LINE
  5
15778
  8
CENTER
  6
CENTER
 10
388.23243214149119
 20
494.4338033019589
 30
0.0
 11
388.23243214149119
 21
474.4338033019589
 31
0.0
  0
ARC
  5
15779
  8
0
 10
364.23243214149119
 20
508.43380330195851
 30
0.0
 40
41.5
 50
310.62069995133498
 51
319.37930004866502
  0
SOLID
  5
1577A
  8
DIM
 10
412.25337667459138
 20
487.38822656095863
 30
0.0
 11
411.21148760839139
 21
487.38822656095863
 31
0.0
 12
411.73243214149119
 22
484.43380330195839
 32
0.0
 13
411.73243214149119
 23
484.43380330195839
 33
0.0
  0
SOLID
  5
1577B
  8
DIM
 10
420.25337667459138
 20
479.88822656095863
 30
0.0
 11
419.21148760839139
 21
479.88822656095863
 31
0.0
 12
419.73243214149119
 22
476.93380330195902
 32
0.0
 13
419.73243214149119
 23
476.93380330195902
 33
0.0
  0
SOLID
  5
1577C
  8
DIM
 10
403.21148760839139
 20
495.88822656095863
 30
0.0
 11
404.25337667459138
 21
495.88822656095863
 31
0.0
 12
403.73243214149119
 22
492.93380330195839
 32
0.0
 13
403.73243214149119
 23
492.93380330195839
 33
0.0
  0
SOLID
  5
1577D
  8
DIM
 10
393.87517651830689
 20
479.53490085050902
 30
0.0
 11
393.13894710526529
 21
478.79767695124929
 31
0.0
 12
391.41655956378003
 22
481.25397114308038
 32
0.0
 13
391.41655956378003
 23
481.25397114308038
 33
0.0
  0
LINE
  5
1577E
  8
DIM
 10
405.73350213405899
 20
466.95634156861149
 30
0.0
 11
391.41655956378003
 21
481.25397114307992
 31
0.0
  0
LINE
  5
1577F
  8
DIM
 10
400.73243214149119
 20
484.43380330195839
 30
0.0
 11
412.73243214149119
 21
484.43380330195839
 31
0.0
  0
LINE
  5
15780
  8
DIM
 10
393.29994117272997
 20
476.93380330195902
 30
0.0
 11
420.73243214149119
 21
476.93380330195902
 31
0.0
  0
LINE
  5
15781
  8
DIM
 10
420.1854543052695
 20
466.95634156861149
 30
0.0
 11
405.73350213405899
 21
466.95634156861149
 31
0.0
  0
TEXT
  5
15782
  8
DIM
 10
408.00889406119671
 20
467.95634156861161
 30
0.0
 40
3.0
  1
4-%%c9
  7
ROMANS
  0
LINE
  5
15783
  8
0
 10
502.19439471007348
 20
370.64204883314051
 30
0.0
 11
502.19439471007348
 21
400.64204883314039
 31
0.0
  0
LINE
  5
15784
  8
0
 10
524.59439471007397
 20
370.64204883314051
 30
0.0
 11
524.59439471007397
 21
400.64204883314039
 31
0.0
  0
LINE
  5
15785
  8
DIM
 10
427.7324321414917
 20
280.64204883314051
 30
0.0
 11
427.7324321414917
 21
418.64204883314051
 31
0.0
  0
LINE
  5
15786
  8
DIM
 10
435.73243214149119
 20
280.64204883314051
 30
0.0
 11
435.73243214149119
 21
428.64204883314051
 31
0.0
  0
LINE
  5
15787
  8
CENTER
  6
CENTER
 10
513.39439471007381
 20
277.98784522160622
 30
0.0
 11
513.39439471007381
 21
433.12181083540332
 31
0.0
  0
LINE
  5
15788
  8
0
 10
482.69439471007399
 20
280.64204883314051
 30
0.0
 11
544.09439471007397
 21
280.64204883314051
 31
0.0
  0
LINE
  5
15789
  8
0
 10
482.69439471007399
 20
310.64204883314051
 30
0.0
 11
544.09439471007397
 21
310.64204883314051
 31
0.0
  0
LINE
  5
1578A
  8
0
 10
536.39439471007381
 20
370.64204883314051
 30
0.0
 11
490.39439471007381
 21
370.64204883314051
 31
0.0
  0
LINE
  5
1578B
  8
0
 10
540.39439471007381
 20
366.64204883314051
 30
0.0
 11
486.39439471007381
 21
366.64204883314051
 31
0.0
  0
LINE
  5
1578C
  8
0
 10
481.89439471007381
 20
309.84204883314032
 30
0.0
 11
544.89439471007381
 21
309.84204883314032
 31
0.0
  0
LINE
  5
1578D
  8
0
 10
481.89439471007381
 20
281.44204883314018
 30
0.0
 11
544.89439471007381
 21
281.44204883314018
 31
0.0
  0
LINE
  5
1578E
  8
CENTER
  6
CENTER
 10
483.61968622569469
 20
356.64204883314051
 30
0.0
 11
500.51363171705219
 21
356.64204883314051
 31
0.0
  0
LINE
  5
1578F
  8
CENTER
  6
CENTER
 10
479.11968622569469
 20
299.64204883314051
 30
0.0
 11
496.01363171705219
 21
299.64204883314051
 31
0.0
  0
LINE
  5
15790
  8
HIDDEN
  6
HIDDEN
 10
486.39439471007381
 20
360.89204883314039
 30
0.0
 11
495.39439471007381
 21
360.42037881959271
 31
0.0
  0
LINE
  5
15791
  8
HIDDEN
  6
HIDDEN
 10
486.39439471007381
 20
361.64204883314051
 30
0.0
 11
495.39439471007381
 21
361.17037881959271
 31
0.0
  0
LINE
  5
15792
  8
HIDDEN
  6
HIDDEN
 10
486.39439471007381
 20
351.64204883314051
 30
0.0
 11
495.39439471007381
 21
352.11371884668779
 31
0.0
  0
LINE
  5
15793
  8
HIDDEN
  6
HIDDEN
 10
486.39439471007381
 20
352.39204883314051
 30
0.0
 11
495.39439471007381
 21
352.86371884668768
 31
0.0
  0
LINE
  5
15794
  8
0
 10
486.39439471007381
 20
310.64204883314051
 30
0.0
 11
486.39439471007381
 21
366.64204883314051
 31
0.0
  0
SOLID
  5
15795
  8
DIM
 10
435.21148760839151
 20
283.59647209214012
 30
0.0
 11
436.25337667459138
 21
283.59647209214012
 31
0.0
 12
435.73243214149119
 22
280.64204883314051
 32
0.0
 13
435.73243214149119
 23
280.64204883314051
 33
0.0
  0
SOLID
  5
15796
  8
DIM
 10
427.21148760839139
 20
283.59647209214012
 30
0.0
 11
428.25337667459138
 21
283.59647209214012
 31
0.0
 12
427.7324321414917
 22
280.64204883314051
 32
0.0
 13
427.7324321414917
 23
280.64204883314051
 33
0.0
  0
LINE
  5
15797
  8
0
 10
487.17588253786101
 20
310.64204883314051
 30
0.0
 11
486.37588253786129
 21
309.84204883314032
 31
0.0
  0
LINE
  5
15798
  8
0
 10
482.69439471007399
 20
310.64204883314051
 30
0.0
 11
481.89439471007381
 21
309.84204883314032
 31
0.0
  0
LINE
  5
15799
  8
0
 10
486.37588253786078
 20
281.44204883314018
 30
0.0
 11
487.17588253786101
 21
280.64204883314051
 31
0.0
  0
LINE
  5
1579A
  8
0
 10
481.89439471007381
 20
281.44204883314018
 30
0.0
 11
482.69439471007399
 21
280.64204883314051
 31
0.0
  0
LINE
  5
1579B
  8
0
 10
481.89439471007381
 20
309.84204883314032
 30
0.0
 11
481.89439471007381
 21
281.44204883314018
 31
0.0
  0
LINE
  5
1579C
  8
0
  6
CONTINUOUS
 10
486.37588253786129
 20
309.84204883314032
 30
0.0
 11
486.37588253786129
 21
281.44204883314018
 31
0.0
  0
LINE
  5
1579D
  8
HIDDEN
  6
HIDDEN
 10
481.89439471007381
 20
304.64204883314039
 30
0.0
 11
490.89439471007381
 21
304.17037881959271
 31
0.0
  0
LINE
  5
1579E
  8
HIDDEN
  6
HIDDEN
 10
481.89439471007381
 20
294.64204883314039
 30
0.0
 11
490.89439471007381
 21
295.11371884668768
 31
0.0
  0
LINE
  5
1579F
  8
HIDDEN
  6
HIDDEN
 10
481.89439471007381
 20
295.39204883314051
 30
0.0
 11
490.89439471007381
 21
295.86371884668779
 31
0.0
  0
LINE
  5
157A0
  8
HIDDEN
  6
HIDDEN
 10
481.89439471007381
 20
303.89204883314051
 30
0.0
 11
490.89439471007381
 21
303.42037881959271
 31
0.0
  0
LINE
  5
157A1
  8
HIDDEN
  6
HIDDEN
 10
493.89439471007381
 20
280.64204883314051
 30
0.0
 11
493.89439471007381
 21
310.64204883314051
 31
0.0
  0
LINE
  5
157A2
  8
HIDDEN
  6
HIDDEN
 10
484.89439471007381
 20
280.64204883314051
 30
0.0
 11
484.89439471007381
 21
310.64204883314051
 31
0.0
  0
TEXT
  5
157A3
  8
DIM
 10
434.73243214149119
 20
344.87606982387467
 30
0.0
 40
3.0
  1
148
 50
90.0
  7
ROMANS
  0
ARC
  5
157A4
  8
0
 10
490.39439471007381
 20
366.64204883314051
 30
0.0
 40
4.0
 50
90.0
 51
180.0
  0
LINE
  5
157A5
  8
0
 10
540.39439471007381
 20
310.64204883314051
 30
0.0
 11
540.39439471007381
 21
366.64204883314051
 31
0.0
  0
LINE
  5
157A6
  8
0
 10
544.09439471007397
 20
310.64204883314051
 30
0.0
 11
544.89439471007381
 21
309.84204883314032
 31
0.0
  0
LINE
  5
157A7
  8
0
 10
539.6129068822861
 20
310.64204883314051
 30
0.0
 11
540.41290688228628
 21
309.84204883314032
 31
0.0
  0
LINE
  5
157A8
  8
0
 10
544.09439471007397
 20
280.64204883314051
 30
0.0
 11
544.89439471007381
 21
281.44204883314018
 31
0.0
  0
LINE
  5
157A9
  8
0
 10
540.41290688228628
 20
281.44204883314018
 30
0.0
 11
539.6129068822861
 21
280.64204883314051
 31
0.0
  0
LINE
  5
157AA
  8
0
 10
544.89439471007381
 20
281.44204883314018
 30
0.0
 11
544.89439471007381
 21
309.84204883314032
 31
0.0
  0
LINE
  5
157AB
  8
0
  6
CONTINUOUS
 10
540.41290688228628
 20
309.84204883314032
 30
0.0
 11
540.41290688228628
 21
281.44204883314018
 31
0.0
  0
LINE
  5
157AC
  8
HIDDEN
  6
HIDDEN
 10
541.8943947100737
 20
280.64204883314051
 30
0.0
 11
541.8943947100737
 21
310.64204883314051
 31
0.0
  0
LINE
  5
157AD
  8
HIDDEN
  6
HIDDEN
 10
532.89439471007381
 20
280.64204883314051
 30
0.0
 11
532.89439471007381
 21
310.64204883314051
 31
0.0
  0
ARC
  5
157AE
  8
0
 10
536.39439471007381
 20
366.64204883314051
 30
0.0
 40
4.0
 50
0.0
 51
90.0
  0
SOLID
  5
157AF
  8
DIM
 10
436.25337667459138
 20
425.68762557414038
 30
0.0
 11
435.21148760839151
 21
425.68762557414038
 31
0.0
 12
435.7324321414917
 22
428.64204883314051
 32
0.0
 13
435.7324321414917
 23
428.64204883314051
 33
0.0
  0
SOLID
  5
157B0
  8
DIM
 10
428.25337667459138
 20
397.68762557414033
 30
0.0
 11
427.21148760839139
 21
397.68762557414033
 31
0.0
 12
427.7324321414917
 22
400.64204883314039
 32
0.0
 13
427.7324321414917
 23
400.64204883314039
 33
0.0
  0
SOLID
  5
157B1
  8
DIM
 10
428.25337667459138
 20
403.59647209214057
 30
0.0
 11
427.21148760839139
 21
403.59647209214057
 31
0.0
 12
427.7324321414917
 22
400.64204883314039
 32
0.0
 13
427.7324321414917
 23
400.64204883314039
 33
0.0
  0
SOLID
  5
157B2
  8
DIM
 10
428.25337667459138
 20
415.68762557414033
 30
0.0
 11
427.21148760839139
 21
415.68762557414033
 31
0.0
 12
427.7324321414917
 22
418.64204883314051
 32
0.0
 13
427.7324321414917
 23
418.64204883314051
 33
0.0
  0
LINE
  5
157B3
  8
0
 62
     7
 10
526.39439471007381
 20
428.64204883314051
 30
0.0
 11
526.39439180896795
 21
418.64204883314051
 31
0.0
  0
LINE
  5
157B4
  8
0
 62
     7
 10
513.39439694266002
 20
427.48986837748311
 30
0.0
 11
513.39439471007381
 21
419.79422928879728
 31
0.0
  0
ARC
  5
157B5
  8
0
 62
     7
 10
519.89439565923703
 20
409.73116429941268
 30
0.0
 40
18.910884533727749
 50
69.896483598411734
 51
110.10351640158819
  0
ARC
  5
157B6
  8
0
 62
     7
 10
519.89439342665082
 20
437.55293336687089
 30
0.0
 40
18.910884533730691
 50
249.89648359841169
 51
290.10351640158819
  0
LINE
  5
157B7
  8
0
 10
528.89439471007381
 20
400.64204883314039
 30
0.0
 11
528.89439471007381
 21
418.64204883314051
 31
0.0
  0
LINE
  5
157B8
  8
0
 10
524.8943947100737
 20
400.64204883314039
 30
0.0
 11
524.8943947100737
 21
418.64204883314051
 31
0.0
  0
LINE
  5
157B9
  8
0
 62
     7
 10
500.3943947100737
 20
428.64204883314051
 30
0.0
 11
500.3943976111795
 21
418.64204883314051
 31
0.0
  0
LINE
  5
157BA
  8
0
 10
497.89439471007381
 20
400.64204883314039
 30
0.0
 11
497.89439471007381
 21
418.64204883314051
 31
0.0
  0
LINE
  5
157BB
  8
0
 10
501.89439471007381
 20
400.64204883314039
 30
0.0
 11
501.89439471007381
 21
418.64204883314051
 31
0.0
  0
LINE
  5
157BC
  8
0
 10
497.89439471007381
 20
400.64204883314039
 30
0.0
 11
528.89439471007381
 21
400.64204883314039
 31
0.0
  0
LINE
  5
157BD
  8
0
 10
524.8943947100737
 20
418.64204883314051
 30
0.0
 11
501.89439471007381
 21
418.64204883314051
 31
0.0
  0
LINE
  5
157BE
  8
0
 62
     7
 10
500.3943947100737
 20
428.64204883314051
 30
0.0
 11
526.39439471007381
 21
428.64204883314051
 31
0.0
  0
LINE
  5
157BF
  8
0
 62
     7
 10
497.89439471007381
 20
418.64204883314051
 30
0.0
 11
528.89439471007381
 21
418.64204883314051
 31
0.0
  0
ARC
  5
157C0
  8
0
 62
     7
 10
506.89439376091048
 20
409.73116429941268
 30
0.0
 40
18.910884533727749
 50
69.896483598411734
 51
110.10351640158819
  0
ARC
  5
157C1
  8
0
 62
     7
 10
506.89439599349669
 20
437.55293336687089
 30
0.0
 40
18.910884533730691
 50
249.89648359841169
 51
290.10351640158819
  0
LINE
  5
157C2
  8
0
 10
376.23243214149119
 20
523.93380330195851
 30
0.0
 11
320.35678779447329
 21
523.93380330195885
 31
0.0
  0
POLYLINE
  5
157C3
  8
0
 66
     1
 10
0.0
 20
0.0
 30
0.0
  0
VERTEX
  5
15883
  8
0
 10
391.25094431370371
 20
539.93380330195851
 30
0.0
  0
VERTEX
  5
15884
  8
0
 10
337.21391996927872
 20
539.93380330195851
 30
0.0
  0
SEQEND
  5
15885
  8
0
  0
LINE
  5
157C4
  8
CENTER
  6
CENTER
 10
290.99268541962959
 20
508.43380330195851
 30
0.0
 11
398.80769821543839
 21
508.43380330195851
 31
0.0
  0
LINE
  5
157C5
  8
0
 10
294.23243214149119
 20
516.93380330195885
 30
0.0
 11
320.35678779447329
 21
523.93380330195885
 31
0.0
  0
CIRCLE
  5
157C6
  8
0
 62
     7
 10
304.23243214149119
 20
508.4338033019593
 30
0.0
 40
4.2999999999999989
  0
ARC
  5
157C7
  8
0
 62
     2
 10
304.23243214149119
 20
508.4338033019593
 30
0.0
 40
5.0
 50
71.21786265921159
 51
11.447539026683121
  0
POLYLINE
  5
157C8
  8
DIM
 66
     1
 10
0.0
 20
0.0
 30
0.0
 70
     7
  0
VERTEX
  5
157C9
  8
DIM
 10
289.18233326893449
 20
522.37741915005972
 30
0.0
 42
-0.0185322085214218
  0
VERTEX
  5
157CA
  8
DIM
 10
291.2115063388141
 20
526.77851838974084
 30
0.0
  0
VERTEX
  5
157CB
  8
DIM
 10
290.67631393421419
 20
527.04975461530603
 30
0.0
  0
VERTEX
  5
157CC
  8
DIM
 10
293.29879871754741
 20
529.08395225415495
 30
0.0
  0
VERTEX
  5
157CD
  8
DIM
 10
293.08467975491288
 20
525.82919160026256
 30
0.0
  0
VERTEX
  5
157CE
  8
DIM
 10
292.54948735031297
 20
526.10042782582775
 30
0.0
 42
0.018532208521422
  0
VERTEX
  5
157CF
  8
DIM
 10
290.56685494717379
 20
521.80027122925821
 30
0.0
  0
SEQEND
  5
157D0
  8
DIM
  0
ARC
  5
157D1
  8
0
 10
364.23243214149119
 20
508.43380330195851
 30
0.0
 40
41.5
 50
130.6206999513349
 51
139.37930004866499
  0
POLYLINE
  5
157D2
  8
0
 66
     1
 10
0.0
 20
0.0
 30
0.0
  0
VERTEX
  5
15886
  8
0
 10
332.73243214149119
 20
535.45231547417143
 30
0.0
  0
VERTEX
  5
15887
  8
0
 10
332.73243214149119
 20
523.93380330195851
 30
0.0
  0
SEQEND
  5
15888
  8
0
  0
CIRCLE
  5
157D3
  8
0
 10
340.23243214149119
 20
532.43380330195851
 30
0.0
 40
4.5
  0
LINE
  5
157D4
  8
CENTER
  6
CENTER
 10
340.23243214149119
 20
522.43380330195839
 30
0.0
 11
340.23243214149119
 21
542.43380330195839
 31
0.0
  0
LINE
  5
157D5
  8
CENTER
  6
CENTER
 10
330.23243214149119
 20
532.43380330195851
 30
0.0
 11
350.23243214149119
 21
532.43380330195851
 31
0.0
  0
CIRCLE
  5
157D6
  8
0
 10
388.23243214149119
 20
532.43380330195851
 30
0.0
 40
4.5
  0
LINE
  5
157D7
  8
DIM
 10
377.80807415187701
 20
523.93380330195851
 30
0.0
 11
404.73243214149119
 21
523.93380330195851
 31
0.0
  0
LINE
  5
157D8
  8
CENTER
  6
CENTER
 10
378.23243214149119
 20
532.43380330195885
 30
0.0
 11
398.23243214149119
 21
532.43380330195885
 31
0.0
  0
LINE
  5
157D9
  8
0
 10
376.23243214149119
 20
523.93380330195851
 30
0.0
 11
380.23243214149119
 21
519.93380330195851
 31
0.0
  0
LINE
  5
157DA
  8
CENTER
  6
CENTER
 10
388.23243214149119
 20
542.43380330195885
 30
0.0
 11
388.23243214149119
 21
522.43380330195896
 31
0.0
  0
ARC
  5
157DB
  8
0
 10
364.23243214149119
 20
508.43380330195851
 30
0.0
 40
41.5
 50
40.620699951334977
 51
49.379300048665009
  0
SOLID
  5
157DC
  8
DIM
 10
420.25337667459138
 20
536.97938004295884
 30
0.0
 11
419.21148760839139
 21
536.97938004295884
 31
0.0
 12
419.73243214149119
 22
539.93380330195851
 32
0.0
 13
419.73243214149119
 23
539.93380330195851
 33
0.0
  0
SOLID
  5
157DD
  8
DIM
 10
412.25337667459138
 20
529.47938004295884
 30
0.0
 11
411.21148760839139
 21
529.47938004295884
 31
0.0
 12
411.73243214149119
 22
532.43380330195885
 32
0.0
 13
411.73243214149119
 23
532.43380330195885
 33
0.0
  0
POLYLINE
  5
157DE
  8
DIM
 66
     1
 10
0.0
 20
0.0
 30
0.0
 70
     1
  0
VERTEX
  5
15889
  8
DIM
 10
416.02548353268628
 20
506.67343409050449
 30
0.0
  0
VERTEX
  5
1588A
  8
DIM
 10
418.57394621181078
 20
506.67343409050449
 30
0.0
  0
VERTEX
  5
1588B
  8
DIM
 10
418.57394621181078
 20
504.12859549006038
 30
0.0
  0
VERTEX
  5
1588C
  8
DIM
 10
416.02548353268628
 20
504.12859549006038
 30
0.0
  0
SEQEND
  5
1588D
  8
DIM
  0
TEXT
  5
157DF
  8
DIM
 10
418.73243214149119
 20
507.04898155726858
 30
0.0
 40
3.0
  1
63
 50
90.0
  7
ROMANS
  0
SOLID
  5
157E0
  8
DIM
 10
404.25337667459138
 20
520.97938004295838
 30
0.0
 11
403.21148760839139
 21
520.97938004295838
 31
0.0
 12
403.73243214149119
 22
523.93380330195851
 32
0.0
 13
403.73243214149119
 23
523.93380330195851
 33
0.0
  0
TEXT
  5
157E1
  8
DIM
 10
402.73243214149119
 20
505.48052641494951
 30
0.0
 40
3.0
  1
31
 50
90.0
  7
ROMANS
  0
TEXT
  5
157E2
  8
DIM
 10
410.73243214149119
 20
507.01422669601328
 30
0.0
 40
3.0
  1
48
 50
90.0
  7
ROMANS
  0
LINE
  5
157E3
  8
DIM
 10
400.73243214149119
 20
532.43380330195885
 30
0.0
 11
412.73243214149119
 21
532.43380330195885
 31
0.0
  0
LINE
  5
157E4
  8
DIM
 10
393.29994117272997
 20
539.93380330195851
 30
0.0
 11
420.73243214149119
 21
539.93380330195851
 31
0.0
  0
POLYLINE
  5
157E5
  8
DIM
 66
     1
 10
0.0
 20
0.0
 30
0.0
 70
     1
  0
VERTEX
  5
1588E
  8
DIM
 10
408.02548353268628
 20
506.67343409050449
 30
0.0
  0
VERTEX
  5
1588F
  8
DIM
 10
410.57394621181078
 20
506.67343409050449
 30
0.0
  0
VERTEX
  5
15890
  8
DIM
 10
410.57394621181078
 20
504.12859549006038
 30
0.0
  0
VERTEX
  5
15891
  8
DIM
 10
408.02548353268628
 20
504.12859549006038
 30
0.0
  0
SEQEND
  5
15892
  8
DIM
  0
ENDSEC
  0
EOF
