  0
SECTION
  2
HEADER
  9
$ACADVER
  1
AC1009
  9
$INSBASE
 10
0.0
 20
0.0
 30
0.0
  9
$EXTMIN
 10
185.86065972067939
 20
176.27746798130389
 30
-0.000000000000013
  9
$EXTMAX
 10
635.96502897884329
 20
587.01049970813392
 30
0.0000000000000023
  9
$LIMMIN
 10
0.0
 20
0.0
  9
$LIMMAX
 10
1188.0
 20
840.0
  9
$ORTHOMODE
 70
     1
  9
$REGENMODE
 70
     1
  9
$FILLMODE
 70
     1
  9
$QTEXTMODE
 70
     0
  9
$MIRRTEXT
 70
     1
  9
$DRAGMODE
 70
     2
  9
$LTSCALE
 40
1.0
  9
$OSMODE
 70
    39
  9
$ATTMODE
 70
     1
  9
$TEXTSIZE
 40
3.0
  9
$TRACEWID
 40
0.05
  9
$TEXTSTYLE
  7
ITALICT
  9
$CLAYER
  8
0
  9
$CELTYPE
  6
CONTINUOUS
  9
$CECOLOR
 62
   256
  9
$DIMSCALE
 40
1.0
  9
$DIMASZ
 40
3.0
  9
$DIMEXO
 40
1.0
  9
$DIMDLI
 40
1.4824161510814720E+016
  9
$DIMRND
 40
0.0
  9
$DIMDLE
 40
0.0
  9
$DIMEXE
 40
1.0
  9
$DIMTP
 40
0.15
  9
$DIMTM
 40
-0.1
  9
$DIMTXT
 40
3.0
  9
$DIMCEN
 40
2.0
  9
$DIMTSZ
 40
0.0
  9
$DIMTOL
 70
     0
  9
$DIMLIM
 70
     0
  9
$DIMTIH
 70
     0
  9
$DIMTOH
 70
     0
  9
$DIMSE1
 70
     0
  9
$DIMSE2
 70
     0
  9
$DIMTAD
 70
     1
  9
$DIMZIN
 70
     0
  9
$DIMBLK
  1

  9
$DIMASO
 70
     0
  9
$DIMSHO
 70
     0
  9
$DIMPOST
  1

  9
$DIMAPOST
  1

  9
$DIMALT
 70
     0
  9
$DIMALTD
 70
     2
  9
$DIMALTF
 40
25.399999999999999
  9
$DIMLFAC
 40
1.0
  9
$DIMTOFL
 70
     1
  9
$DIMTVP
 40
1.0
  9
$DIMTIX
 70
     0
  9
$DIMSOXD
 70
     0
  9
$DIMSAH
 70
     0
  9
$DIMBLK1
  1

  9
$DIMBLK2
  1

  9
$DIMSTYLE
  2
STANDARD
  9
$DIMCLRD
 70
     0
  9
$DIMCLRE
 70
     0
  9
$DIMCLRT
 70
     0
  9
$DIMTFAC
 40
1.0
  9
$DIMGAP
 40
1.0
  9
$LUNITS
 70
     2
  9
$LUPREC
 70
     2
  9
$SKETCHINC
 40
0.1
  9
$FILLETRAD
 40
0.0
  9
$AUNITS
 70
     0
  9
$AUPREC
 70
     2
  9
$MENU
  1
ACAD
  9
$ELEVATION
 40
0.0
  9
$PELEVATION
 40
0.0
  9
$THICKNESS
 40
0.0
  9
$LIMCHECK
 70
     0
  9
$BLIPMODE
 70
     0
  9
$CHAMFERA
 40
0.0
  9
$CHAMFERB
 40
0.0
  9
$SKPOLY
 70
     1
  9
$TDCREATE
 40
2450580.7034460641
  9
$TDUPDATE
 40
2452055.642713333
  9
$TDINDWG
 40
0.5779175
  9
$TDUSRTIMER
 40
0.5779175
  9
$USRTIMER
 70
     1
  9
$ANGBASE
 50
0.0
  9
$ANGDIR
 70
     0
  9
$PDMODE
 70
     0
  9
$PDSIZE
 40
0.0
  9
$PLINEWID
 40
0.0
  9
$COORDS
 70
     2
  9
$SPLFRAME
 70
     0
  9
$SPLINETYPE
 70
     6
  9
$SPLINESEGS
 70
     8
  9
$ATTDIA
 70
     0
  9
$ATTREQ
 70
     1
  9
$HANDLING
 70
 12289
  9
$HANDSEED
  5
15660
  9
$SURFTAB1
 70
     6
  9
$SURFTAB2
 70
     6
  9
$SURFTYPE
 70
     6
  9
$SURFU
 70
     6
  9
$SURFV
 70
     6
  9
$UCSNAME
  2

  9
$UCSORG
 10
0.0
 20
0.0
 30
0.0
  9
$UCSXDIR
 10
1.0
 20
0.0
 30
0.0
  9
$UCSYDIR
 10
0.0
 20
1.0
 30
0.0
  9
$PUCSNAME
  2

  9
$PUCSORG
 10
0.0
 20
0.0
 30
0.0
  9
$PUCSXDIR
 10
1.0
 20
0.0
 30
0.0
  9
$PUCSYDIR
 10
0.0
 20
1.0
 30
0.0
  9
$USERI1
 70
     0
  9
$USERI2
 70
-31485
  9
$USERI3
 70
     0
  9
$USERI4
 70
     0
  9
$USERI5
 70
     0
  9
$USERR1
 40
0.0
  9
$USERR2
 40
0.0
  9
$USERR3
 40
0.0
  9
$USERR4
 40
0.0
  9
$USERR5
 40
0.0
  9
$WORLDVIEW
 70
     1
  9
$SHADEDGE
 70
     3
  9
$SHADEDIF
 70
    70
  9
$TILEMODE
 70
     1
  9
$MAXACTVP
 70
    16
  9
$PLIMCHECK
 70
     0
  9
$PEXTMIN
 10
1.0000000000000000E+020
 20
1.0000000000000000E+020
 30
1.0000000000000000E+020
  9
$PEXTMAX
 10
-1.0000000000000000E+020
 20
-1.0000000000000000E+020
 30
-1.0000000000000000E+020
  9
$PLIMMIN
 10
0.0
 20
0.0
  9
$PLIMMAX
 10
12.0
 20
9.0
  9
$UNITMODE
 70
     0
  9
$VISRETAIN
 70
     0
  9
$PLINEGEN
 70
     0
  9
$PSLTSCALE
 70
     0
  0
ENDSEC
  0
SECTION
  2
TABLES
  0
TABLE
  2
VPORT
 70
     3
  0
VPORT
  2
*ACTIVE
 70
     0
 10
0.0
 20
0.0
 11
1.0
 21
1.0
 12
410.86798247620749
 22
381.57249006886008
 13
0.0
 23
0.0
 14
1.0
 24
1.0
 15
0.0
 25
0.0
 16
0.0
 26
0.0
 36
1.0
 17
0.0
 27
0.0
 37
0.0
 40
415.76192178112552
 41
1.7274401473296499
 42
1.0
 43
0.0
 44
0.0
 50
0.0
 51
0.0
 71
     0
 72
   100
 73
     1
 74
     1
 75
     0
 76
     0
 77
     0
 78
     0
  0
ENDTAB
  0
TABLE
  2
LTYPE
 70
     4
  0
LTYPE
  2
CONTINUOUS
 70
     0
  3
Solid line
 72
    65
 73
     0
 40
0.0
  0
LTYPE
  2
CENTER
 70
     0
  3
____________________ _ ____________________ _ 
 72
    65
 73
     4
 40
34.5
 49
30.0
 49
-1.5
 49
1.5
 49
-1.5
  0
LTYPE
  2
HIDDEN
 70
     0
  3
___ ___ ___ ___ ___ ___ ___ ___ ___ ___ 
 72
    65
 73
     2
 40
6.0
 49
4.5
 49
-1.5
  0
LTYPE
  2
PHANTOM
 70
     0
  3
__________ _ _ __________ _ _ __________ _ _ 
 72
    65
 73
     6
 40
15.0
 49
10.0
 49
-1.0
 49
1.0
 49
-1.0
 49
1.0
 49
-1.0
  0
ENDTAB
  0
TABLE
  2
LAYER
 70
     6
  0
LAYER
  2
0
 70
     0
 62
     7
  6
CONTINUOUS
  0
LAYER
  2
LOGO
 70
     0
 62
     7
  6
CONTINUOUS
  0
LAYER
  2
DIM
 70
     0
 62
     5
  6
CONTINUOUS
  0
LAYER
  2
CENTER
 70
     0
 62
     1
  6
CONTINUOUS
  0
LAYER
  2
HIDDEN
 70
     0
 62
     3
  6
CONTINUOUS
  0
LAYER
  2
UMCL3
 70
     0
 62
     1
  6
CONTINUOUS
  0
ENDTAB
  0
TABLE
  2
STYLE
 70
     7
  0
STYLE
  2
STANDARD
 70
     0
 40
0.0
 41
1.0
 50
0.0
 71
     0
 42
3.0
  3
txt
  4

  0
STYLE
  2
ITALICT
 70
     0
 40
0.0
 41
1.0
 50
0.0
 71
     0
 42
3.0
  3
ITALICT.SHX
  4

  0
STYLE
  2
ROMANSS
 70
     0
 40
0.0
 41
1.0
 50
0.0
 71
     0
 42
3.0
  3
ROMANSS.SHX
  4
LMP
  0
STYLE
  2
CHINESET
 70
     0
 40
0.0
 41
1.0
 50
0.0
 71
     0
 42
5.0
  3
simplex.shx
  4
chineset.shx
  0
STYLE
  2
LOGO
 70
     0
 40
0.0
 41
1.0
 50
0.0
 71
     0
 42
5.0
  3
txt
  4

  0
STYLE
  2
ROMANS
 70
     0
 40
0.0
 41
1.0
 50
0.0
 71
     0
 42
3.0
  3
ROMANS.SHX
  4
LMP
  0
STYLE
  2
ROMANS1
 70
     0
 40
0.0
 41
1.0
 50
0.0
 71
     0
 42
3.0
  3
ROMANS.SHX
  4

  0
ENDTAB
  0
TABLE
  2
VIEW
 70
     0
  0
ENDTAB
  0
TABLE
  2
UCS
 70
     0
  0
ENDTAB
  0
TABLE
  2
APPID
 70
     1
  0
APPID
  2
ACAD
 70
     0
  0
ENDTAB
  0
TABLE
  2
DIMSTYLE
 70
     1
  0
DIMSTYLE
  2
STANDARD
 70
     0
  3

  4

  5

  6

  7

 40
1.0
 41
0.18
 42
0.0625
 43
0.38
 44
0.18
 45
0.0
 46
0.0
 47
0.0
 48
0.0
140
0.18
141
0.09
142
0.0
143
25.399999999999999
144
1.0
145
0.0
146
1.0
147
0.09
 71
     0
 72
     0
 73
     1
 74
     1
 75
     0
 76
     0
 77
     0
 78
     0
170
     0
171
     2
172
     0
173
     0
174
     0
175
     0
176
     0
177
     0
178
     0
  0
ENDTAB
  0
ENDSEC
  0
SECTION
  2
BLOCKS
  0
BLOCK
  8
0
  2
$MODEL_SPACE
 70
     0
 10
0.0
 20
0.0
 30
0.0
  3
$MODEL_SPACE
  1

  0
ENDBLK
  5
3E
  8
0
  0
BLOCK
 67
     1
  8
0
  2
$PAPER_SPACE
 70
     0
 10
0.0
 20
0.0
 30
0.0
  3
$PAPER_SPACE
  1

  0
ENDBLK
  5
3C
 67
     1
  8
0
  0
ENDSEC
  0
SECTION
  2
ENTITIES
  0
LINE
  5
B2B
  8
0
 62
     4
 10
185.86272374947831
 20
232.92671314659441
 30
0.0
 11
185.86272374947831
 21
586.95774538779415
 31
0.0
  0
LINE
  5
B2D
  8
0
 62
     4
 10
635.92834892189944
 20
232.92671314659441
 30
0.0
 11
185.86272374947831
 21
232.92671314659441
 31
0.0
  0
LINE
  5
B2E
  8
0
 62
     4
 10
185.86272374947831
 20
586.95774538779415
 30
0.0
 11
635.92834892189956
 21
586.95774538779358
 31
0.0
  0
LINE
  5
B2F
  8
0
 62
     4
 10
635.92834892189956
 20
586.95774538779381
 30
0.0
 11
635.92834892189944
 21
232.92671314659441
 31
0.0
  0
LINE
  5
D2E
  8
LOGO
 62
     1
 10
635.92834892189944
 20
176.3249335016769
 30
0.0
 11
185.86272374947831
 21
176.3249335016769
 31
0.0
  0
LINE
  5
D2F
  8
LOGO
 62
     1
 10
635.92834892189944
 20
232.92671314659441
 30
0.0
 11
185.86272374947831
 21
232.92671314659441
 31
0.0
  0
TEXT
  5
D35
  8
LOGO
 62
     7
 10
315.01977131281541
 20
218.75491480467591
 30
0.0
 40
11.320355928983499
  1
訂購代號:
  7
CHINESET
  0
TEXT
  5
D36
  8
LOGO
 62
     7
 10
313.66579433335261
 20
208.130436645739
 30
0.0
 40
7.546903952655672
  1
Order example:
 41
0.8
  7
CHINESET
  0
TEXT
  5
D37
  8
LOGO
  6
CONTINUOUS
 62
     5
 10
190.14649593377129
 20
178.95233731999099
 30
0.0
 40
5.660177964491754
  1
MINDMAN INDUSTRIAL CO.,LTD
 41
0.85
  7
CHINESET
  0
TEXT
  5
D38
  8
LOGO
  6
CONTINUOUS
 62
     5
 10
187.7153955643023
 20
187.44426769338759
 30
0.0
 40
8.4902669467376342
  1
金器工業股份有限公司
 41
0.8
  7
LOGO
  0
SOLID
  5
D39
  8
LOGO
 62
     2
 10
206.8410742179997
 20
208.37488556272061
 30
0.0
 11
207.85375522301149
 21
208.37488556272061
 31
0.0
 12
219.49958678063609
 22
231.5821585942218
 32
0.0
 13
220.51226778564791
 23
231.5821585942202
 33
0.0
  0
SOLID
  5
D3A
  8
LOGO
 62
     5
 10
207.85375522301149
 20
208.37488556272061
 30
0.0
 11
210.30106765178729
 21
208.37488556272061
 31
0.0
 12
219.49958678063609
 22
229.72557675170091
 32
0.0
 13
217.05227435185981
 23
220.75209784618681
 33
0.0
  0
SOLID
  5
D3B
  8
LOGO
 62
     5
 10
207.85375522301149
 20
210.2314674052399
 30
0.0
 11
210.30106765178729
 21
219.204946310754
 31
0.0
 12
219.49958678063609
 22
231.5821585942218
 32
0.0
 13
217.05227435185981
 23
231.5821585942218
 33
0.0
  0
LINE
  5
D3C
  8
LOGO
 62
     1
 10
310.38663896829701
 20
198.9656453596439
 30
0.0
 11
185.86272374947819
 21
198.9656453596439
 31
0.0
  0
SOLID
  5
D3D
  8
LOGO
 62
     2
 10
206.8410742179997
 20
231.5821585942202
 30
0.0
 11
207.85375522301149
 21
231.5821585942202
 31
0.0
 12
206.8410742179997
 22
208.37488556272061
 32
0.0
 13
207.85375522301149
 23
208.37488556272061
 33
0.0
  0
SOLID
  5
D3E
  8
LOGO
 62
     2
 10
194.18256165536249
 20
208.37488556271981
 30
0.0
 11
195.1952426603749
 21
208.37488556272061
 31
0.0
 12
206.8410742179997
 22
231.5821585942202
 32
0.0
 13
207.85375522301149
 23
231.5821585942202
 33
0.0
  0
SOLID
  5
D3F
  8
LOGO
 62
     5
 10
207.85375522301149
 20
231.5821585942202
 30
0.0
 11
210.30106765178729
 21
231.5821585942218
 31
0.0
 12
207.85375522301149
 22
210.2314674052399
 32
0.0
 13
210.30106765178729
 23
219.204946310754
 33
0.0
  0
SOLID
  5
D40
  8
LOGO
 62
     5
 10
204.39376178922359
 20
208.37488556272061
 30
0.0
 11
206.8410742179997
 21
208.37488556272061
 31
0.0
 12
204.39376178922359
 22
220.75209784618681
 32
0.0
 13
206.8410742179997
 23
229.72557675170091
 33
0.0
  0
SOLID
  5
D41
  8
LOGO
 62
     5
 10
195.1952426603749
 20
208.37488556272061
 30
0.0
 11
197.64255508915099
 21
208.37488556272061
 31
0.0
 12
206.8410742179997
 22
229.72557675170091
 32
0.0
 13
204.39376178922359
 23
220.75209784618681
 33
0.0
  0
SOLID
  5
D42
  8
LOGO
 62
     5
 10
191.73524922658609
 20
208.37488556272061
 30
0.0
 11
194.18256165536249
 21
208.37488556271981
 31
0.0
 12
204.39376178922359
 22
231.5821585942218
 32
0.0
 13
206.8410742179997
 23
231.5821585942202
 33
0.0
  0
LINE
  5
D43
  8
LOGO
 62
     1
 10
185.86272374947831
 20
176.3249335016769
 30
0.0
 11
185.86272374947831
 21
232.92671314659441
 31
0.0
  0
SOLID
  5
D44
  8
LOGO
 62
     5
 10
196.09526290357729
 20
204.1553813751749
 30
0.0
 11
196.93916374108801
 21
204.1553813751749
 31
0.0
 12
196.09526290357729
 22
199.93587718762831
 32
0.0
 13
196.93916374108801
 23
199.93587718762981
 33
0.0
  0
SOLID
  5
D45
  8
LOGO
 62
     5
 10
196.09526290357729
 20
204.74611196143081
 30
0.0
 11
196.93916374108801
 21
204.74611196143081
 31
0.0
 12
196.09526290357729
 22
205.42123263143901
 32
0.0
 13
196.93916374108801
 23
205.42123263143901
 33
0.0
  0
SOLID
  5
D46
  8
LOGO
 62
     5
 10
194.25238980859049
 20
204.1553813751749
 30
0.0
 11
195.09629064609871
 21
204.1553813751749
 31
0.0
 12
194.25238980859049
 22
199.93587718762981
 32
0.0
 13
195.09629064609871
 23
199.93587718762981
 33
0.0
  0
SOLID
  5
D47
  8
LOGO
 62
     5
 10
191.0319985286624
 20
199.93587718762981
 30
0.0
 11
191.8758993661709
 21
199.93587718762981
 31
0.0
 12
194.25238980859049
 22
204.1553813751749
 32
0.0
 13
195.09629064609871
 23
204.1553813751749
 33
0.0
  0
SOLID
  5
D48
  8
LOGO
 62
     5
 10
191.0319985286624
 20
204.1553813751749
 30
0.0
 11
191.8758993661709
 21
204.1553813751749
 31
0.0
 12
191.0319985286624
 22
199.93587718762981
 32
0.0
 13
191.8758993661709
 23
199.93587718762981
 33
0.0
  0
SOLID
  5
D49
  8
LOGO
 62
     5
 10
187.8116072487355
 20
199.93587718762981
 30
0.0
 11
188.65550808624531
 21
199.93587718762981
 31
0.0
 12
191.0319985286624
 22
204.1553813751749
 32
0.0
 13
191.8758993661709
 23
204.1553813751749
 33
0.0
  0
SOLID
  5
D4A
  8
LOGO
 62
     5
 10
212.5514136250892
 20
202.46757970015651
 30
0.0
 11
213.39531446259741
 21
202.46757970015651
 31
0.0
 12
212.5514136250892
 22
199.93587718762831
 32
0.0
 13
213.39531446259741
 23
199.93587718762831
 33
0.0
  0
SOLID
  5
D4B
  8
LOGO
 62
     5
 10
210.01971111256231
 20
202.46757970015651
 30
0.0
 11
210.8636119500708
 21
202.46757970015651
 31
0.0
 12
210.01971111256231
 22
199.93587718762981
 32
0.0
 13
210.8636119500708
 23
199.93587718762981
 33
0.0
  0
SOLID
  5
D4C
  8
LOGO
 62
     5
 10
207.4880086000357
 20
204.1553813751749
 30
0.0
 11
208.33190943754411
 21
204.1553813751749
 31
0.0
 12
207.4880086000357
 22
199.93587718762981
 32
0.0
 13
208.33190943754411
 23
199.93587718762981
 33
0.0
  0
SOLID
  5
D4D
  8
LOGO
 62
     5
 10
205.65952865540399
 20
205.42123263143901
 30
0.0
 11
206.50342949291229
 21
205.42123263143901
 31
0.0
 12
205.65952865540399
 22
199.93587718762981
 32
0.0
 13
206.50342949291229
 23
199.93587718762981
 33
0.0
  0
POLYLINE
  5
D4E
  8
LOGO
 62
     5
 66
     1
 10
0.0
 20
0.0
 30
0.0
 70
     1
 40
0.8452532426974354
 41
0.8452532426974354
  0
VERTEX
  5
1562B
  8
LOGO
 62
     5
 10
202.70325530382809
 20
202.045629281402
 30
0.0
 42
1.0
  0
VERTEX
  5
1562C
  8
LOGO
 62
     5
 10
206.0842682746179
 20
202.045629281402
 30
0.0
 42
1.0
  0
SEQEND
  5
1562D
  8
LOGO
 62
     5
  0
SOLID
  5
D4F
  8
LOGO
 62
     5
 10
200.45544536073569
 20
202.46757970015651
 30
0.0
 11
201.2993461982457
 21
202.46757970015651
 31
0.0
 12
200.45544536073569
 22
199.93587718762981
 32
0.0
 13
201.2993461982457
 23
199.93587718762981
 33
0.0
  0
SOLID
  5
D50
  8
LOGO
 62
     5
 10
197.923742848209
 20
204.1553813751749
 30
0.0
 11
198.7676436857175
 21
204.1553813751749
 31
0.0
 12
197.923742848209
 22
199.93587718762981
 32
0.0
 13
198.7676436857175
 23
199.93587718762981
 33
0.0
  0
POLYLINE
  5
D51
  8
LOGO
 62
     5
 66
     1
 10
0.0
 20
0.0
 30
0.0
 40
0.8452532426974354
 41
0.8452532426974354
  0
VERTEX
  5
1562E
  8
LOGO
 62
     5
 10
200.87942438727299
 20
202.46757970015639
 30
0.0
 42
1.0
  0
VERTEX
  5
1562F
  8
LOGO
 62
     5
 10
198.3436646591806
 20
202.46757970015639
 30
0.0
 42
1.0
  0
SEQEND
  5
15630
  8
LOGO
 62
     5
  0
POLYLINE
  5
D52
  8
LOGO
 62
     5
 66
     1
 10
0.0
 20
0.0
 30
0.0
 40
0.8452532426974354
 41
0.8452532426974354
  0
VERTEX
  5
15631
  8
LOGO
 62
     5
 10
212.97539265162609
 20
202.46757970015639
 30
0.0
 42
1.0
  0
VERTEX
  5
15632
  8
LOGO
 62
     5
 10
210.43963292353371
 20
202.46757970015639
 30
0.0
 42
1.0
  0
SEQEND
  5
15633
  8
LOGO
 62
     5
  0
POLYLINE
  5
D53
  8
LOGO
 62
     5
 66
     1
 10
0.0
 20
0.0
 30
0.0
 40
0.8452532426974354
 41
0.8452532426974354
  0
VERTEX
  5
15634
  8
LOGO
 62
     5
 10
210.44369013909929
 20
202.46757970015639
 30
0.0
 42
1.0
  0
VERTEX
  5
15635
  8
LOGO
 62
     5
 10
207.9079304110069
 20
202.46757970015639
 30
0.0
 42
1.0
  0
SEQEND
  5
15636
  8
LOGO
 62
     5
  0
CIRCLE
  5
D54
  8
LOGO
  6
CONTINUOUS
 62
     6
 10
283.13264667014357
 20
215.95828641520529
 30
0.0
 40
1.9255585439152201
  0
CIRCLE
  5
D55
  8
LOGO
  6
CONTINUOUS
 62
     6
 10
283.13264667014357
 20
215.95828641520529
 30
0.0
 40
3.2864325517551518
  0
LINE
  5
D56
  8
LOGO
 62
     1
 10
310.38663896829701
 20
210.2860012886274
 30
0.0
 11
227.37069548908451
 21
210.2860012886274
 31
0.0
  0
LINE
  5
D57
  8
LOGO
 62
     1
 10
310.38663896829701
 20
221.60635721761091
 30
0.0
 11
227.37069548908451
 21
221.60635721761091
 31
0.0
  0
TEXT
  5
D58
  8
LOGO
 62
     6
 10
281.14331944002163
 20
224.4364461998567
 30
0.0
 40
5.660177964491754
  1
1 : 1
  7
CHINESET
 72
     1
 11
291.116013948888
 21
227.26653518210259
 31
0.0
 73
     2
  0
TEXT
  5
D59
  8
LOGO
 62
     6
 10
281.14331944002163
 20
201.7957343418897
 30
0.0
 40
5.660177964491754
  1
m/m
  7
CHINESET
 72
     1
 11
291.116013948888
 21
204.62582332413561
 31
0.0
 73
     2
  0
SOLID
  5
D5A
  8
LOGO
 62
     2
 10
219.49958678063609
 20
231.5821585942218
 30
0.0
 11
220.51226778564791
 21
231.5821585942202
 31
0.0
 12
219.49958678063609
 22
208.37488556271981
 32
0.0
 13
220.51226778564791
 23
208.37488556271981
 33
0.0
  0
SOLID
  5
D5B
  8
LOGO
 62
     5
 10
220.51226778564791
 20
208.37488556271981
 30
0.0
 11
222.95958021442411
 21
208.37488556271981
 31
0.0
 12
220.51226778564791
 22
231.5821585942202
 32
0.0
 13
222.95958021442411
 23
231.5821585942218
 33
0.0
  0
SOLID
  5
D5C
  8
LOGO
 62
     5
 10
219.49958678063609
 20
229.72557675170091
 30
0.0
 11
217.05227435185981
 21
220.75209784618681
 31
0.0
 12
219.49958678063609
 22
208.37488556271981
 32
0.0
 13
217.05227435185981
 23
208.37488556271981
 33
0.0
  0
LINE
  5
D5D
  8
LOGO
 62
     1
 10
227.37069548908451
 20
198.96564535964379
 30
0.0
 11
227.37069548908451
 21
232.92671314659441
 31
0.0
  0
LINE
  5
D5E
  8
LOGO
 62
     1
 10
272.65211920501838
 20
198.96564535964379
 30
0.0
 11
272.65211920501838
 21
232.92671314659441
 31
0.0
  0
TEXT
  5
D5F
  8
LOGO
 62
     6
 10
234.5697343376726
 20
201.7957343418897
 30
0.0
 40
5.660177964491754
  1
單位 Unit:
 41
0.9
  7
CHINESET
 72
     4
 11
250.01140734705169
 21
204.62582332413561
 31
0.0
  0
SOLID
  5
D60
  8
LOGO
 62
     5
 10
222.11567937691569
 20
202.46757970015651
 30
0.0
 11
222.95958021442411
 21
202.46757970015639
 31
0.0
 12
222.11567937691569
 22
199.93587718762981
 32
0.0
 13
222.95958021442411
 23
199.93587718762981
 33
0.0
  0
SOLID
  5
D61
  8
LOGO
 62
     5
 10
219.58397686438749
 20
199.93587718762981
 30
0.0
 11
220.42787770189719
 21
199.93587718762981
 31
0.0
 12
219.58397686438749
 22
204.1553813751749
 32
0.0
 13
220.42787770189719
 23
204.1553813751749
 33
0.0
  0
SOLID
  5
D62
  8
LOGO
 62
     5
 10
217.75549691975809
 20
204.1553813751749
 30
0.0
 11
218.5993977572665
 21
204.1553813751749
 31
0.0
 12
217.75549691975809
 22
199.93587718762981
 32
0.0
 13
218.5993977572665
 23
199.93587718762981
 33
0.0
  0
LINE
  5
D63
  8
LOGO
 62
     5
 10
222.95958021442411
 20
199.93587718762981
 30
0.0
 11
222.95958021442411
 21
202.46757970015651
 31
0.0
  0
POLYLINE
  5
D64
  8
LOGO
 62
     5
 66
     1
 10
0.0
 20
0.0
 30
0.0
 70
     1
 40
0.8452532426974354
 41
0.8452532426974354
  0
VERTEX
  5
15637
  8
LOGO
 62
     5
 10
214.7992235681813
 20
202.045629281402
 30
0.0
 42
1.0
  0
VERTEX
  5
15638
  8
LOGO
 62
     5
 10
218.180236538971
 20
202.045629281402
 30
0.0
 42
1.0
  0
SEQEND
  5
15639
  8
LOGO
 62
     5
  0
CIRCLE
  5
D65
  8
LOGO
 62
     5
 10
216.48973005357661
 20
202.04562928140231
 30
0.0
 40
1.265851256263679
  0
POLYLINE
  5
D66
  8
LOGO
 62
     5
 66
     1
 10
0.0
 20
0.0
 30
0.0
 70
     1
  0
VERTEX
  5
1563A
  8
LOGO
 62
     5
 10
215.22387879731281
 20
202.04562928140231
 30
0.0
 42
1.0000000573306349
  0
VERTEX
  5
1563B
  8
LOGO
 62
     5
 10
217.75558130984049
 20
202.04562928140231
 30
0.0
 42
1.0000000573306349
  0
SEQEND
  5
1563C
  8
LOGO
 62
     5
  0
POLYLINE
  5
D67
  8
LOGO
 62
     5
 66
     1
 10
0.0
 20
0.0
 30
0.0
 40
0.8452532426974354
 41
0.8452532426974354
  0
VERTEX
  5
1563D
  8
LOGO
 62
     5
 10
222.53965840345259
 20
202.46757970015639
 30
0.0
 42
1.0
  0
VERTEX
  5
1563E
  8
LOGO
 62
     5
 10
220.00389867536029
 20
202.46757970015639
 30
0.0
 42
1.0
  0
SEQEND
  5
1563F
  8
LOGO
 62
     5
  0
TEXT
  5
D68
  8
LOGO
 62
     6
 10
234.01635086703709
 20
213.19570973617101
 30
0.0
 40
5.660177964491754
  1
投影 View:
 41
0.9
  7
CHINESET
 72
     4
 11
250.01140734705169
 21
215.94617925311911
 31
0.0
  0
TEXT
  5
D69
  8
LOGO
 62
     6
 10
232.03781544462771
 20
224.43923172050859
 30
0.0
 40
5.660177964491754
  1
比例 Scale:
 41
0.9
  7
CHINESET
 72
     4
 11
250.01140734705169
 21
227.26653518210259
 31
0.0
  0
LINE
  5
D6A
  8
LOGO
 62
     1
 10
310.38663896829701
 20
176.3249335016769
 30
0.0
 11
310.38663896829701
 21
232.92671314659441
 31
0.0
  0
LINE
  5
D6B
  8
LOGO
  6
CONTINUOUS
 62
     6
 10
293.48219276735779
 20
214.03272787129009
 30
0.0
 11
303.78497016688061
 21
212.67185386345031
 31
0.0
  0
LINE
  5
D6C
  8
LOGO
  6
CONTINUOUS
 62
     6
 10
293.48219276735779
 20
217.88384495912061
 30
0.0
 11
303.78497016688061
 21
219.24471896696051
 31
0.0
  0
LINE
  5
D6D
  8
LOGO
 62
     6
 10
293.48219276735779
 20
214.03272787129009
 30
0.0
 11
293.48219276735779
 21
217.88384495912061
 31
0.0
  0
LINE
  5
D6E
  8
LOGO
 62
     6
 10
303.78497016688061
 20
212.67185386345031
 30
0.0
 11
303.78497016688061
 21
219.24471896696051
 31
0.0
  0
LINE
  5
D6F
  8
LOGO
 62
     6
 10
427.15214864533198
 20
181.04174847208671
 30
0.0
 11
389.41762888205352
 21
181.0417484720866
 31
0.0
  0
LINE
  5
D70
  8
LOGO
 62
     6
 10
427.15214864533198
 20
201.79573434188981
 30
0.0
 11
389.41762888205352
 21
201.79573434188981
 31
0.0
  0
LINE
  5
D71
  8
LOGO
 62
     6
 10
430.92560062165978
 20
210.2860012886274
 30
0.0
 11
385.64417690572571
 21
210.2860012886274
 31
0.0
  0
LINE
  5
D72
  8
LOGO
 62
     6
 10
430.92560062165978
 20
227.26653518210259
 30
0.0
 11
385.64417690572571
 21
227.26653518210259
 31
0.0
  0
TEXT
  5
D73
  8
LOGO
  6
CONTINUOUS
 62
     7
 10
390.76529030217051
 20
214.05945326495529
 30
0.0
 40
9.4336299408195892
  1
MTHS
  7
CHINESET
 72
     1
 11
408.28488876369261
 21
218.776268235365
 31
0.0
 73
     2
  0
LINE
  5
D74
  8
LOGO
 62
     6
 10
385.64417690572571
 20
227.26653518210259
 30
0.0
 11
385.64417690572571
 21
210.2860012886274
 31
0.0
  0
LINE
  5
D75
  8
LOGO
 62
     6
 10
389.41762888205352
 20
201.79573434188981
 30
0.0
 11
389.41762888205352
 21
181.0417484720866
 31
0.0
  0
TEXT
  5
D76
  8
LOGO
  6
CONTINUOUS
 62
     6
 10
399.30047929624538
 20
183.40015595729159
 30
0.0
 40
4.7168149704097937
  1
Model
  7
CHINESET
 72
     4
 11
408.28488876369261
 21
185.7585634424965
 31
0.0
  0
TEXT
  5
D77
  8
LOGO
 62
     6
 10
400.73798481103688
 20
191.61187083884749
 30
0.0
 40
7.546903952655672
  1
型式
  7
CHINESET
 72
     4
 11
408.28488876369261
 21
195.19219338331601
 31
0.0
  0
LINE
  5
D78
  8
LOGO
 62
     6
 10
408.28488876369261
 20
210.2860012886274
 30
0.0
 11
408.28488876369261
 21
201.79573434188981
 31
0.0
  0
LINE
  5
D79
  8
LOGO
 62
     6
 10
430.9256006216599
 20
227.26653518210259
 30
0.0
 11
430.9256006216599
 21
210.2860012886274
 31
0.0
  0
LINE
  5
D7A
  8
LOGO
 62
     6
 10
427.15214864533198
 20
201.79573434188981
 30
0.0
 11
427.15214864533198
 21
181.04174847208671
 31
0.0
  0
LINE
  5
D7B
  8
LOGO
  6
CONTINUOUS
 62
     7
 10
433.85109141964767
 20
218.71612050075569
 30
0.0
 11
441.34907559485617
 21
218.71612050075569
 31
0.0
  0
LINE
  5
D82
  8
LOGO
 62
     6
 10
474.57774468566993
 20
227.26653518210281
 30
0.0
 11
474.57774468566993
 21
210.2860012886274
 31
0.0
  0
LINE
  5
D83
  8
LOGO
 62
     6
 10
444.28559667607891
 20
227.26653518210259
 30
0.0
 11
444.28559667607891
 21
210.2860012886274
 31
0.0
  0
LINE
  5
D85
  8
LOGO
 62
     6
 10
474.57774468566993
 20
181.04174847208671
 30
0.0
 11
444.28559667607891
 21
181.0417484720866
 31
0.0
  0
LINE
  5
D86
  8
LOGO
 62
     6
 10
474.57774468566993
 20
210.2860012886274
 30
0.0
 11
444.28559667607891
 21
210.2860012886274
 31
0.0
  0
LINE
  5
D87
  8
LOGO
 62
     6
 10
474.57774468566993
 20
201.79573434188981
 30
0.0
 11
444.28559667607891
 21
201.79573434188981
 31
0.0
  0
LINE
  5
D88
  8
LOGO
 62
     6
 10
444.28559667607891
 20
201.79573434188981
 30
0.0
 11
444.28559667607891
 21
181.04174847208671
 31
0.0
  0
TEXT
  5
D89
  8
LOGO
  6
CONTINUOUS
 62
     6
 10
453.59180452703379
 20
183.40015595729159
 30
0.0
 40
4.7168149704097937
  1
Bore
 41
0.8
  7
CHINESET
 72
     4
 11
459.43167068087439
 21
185.7585634424965
 31
0.0
  0
TEXT
  5
D8A
  8
LOGO
 62
     6
 10
452.21494377614738
 20
191.41874140698809
 30
0.0
 40
7.546903952655672
  1
內徑
 41
0.9
  7
CHINESET
 72
     4
 11
459.43167068087439
 21
195.19219338331601
 31
0.0
  0
LINE
  5
D8B
  8
LOGO
 62
     6
 10
459.43167024582482
 20
210.2860012886274
 30
0.0
 11
459.43167024582482
 21
201.79573434188981
 31
0.0
  0
LINE
  5
D8C
  8
LOGO
 62
     6
 10
474.57774468566993
 20
201.79573434188981
 30
0.0
 11
474.57774468566993
 21
181.04174847208671
 31
0.0
  0
LINE
  5
D8E
  8
LOGO
 62
     6
 10
474.57774468566993
 20
227.26653518210281
 30
0.0
 11
444.28559667607891
 21
227.26653518210259
 31
0.0
  0
TEXT
  5
D8F
  8
LOGO
  6
CONTINUOUS
 62
     7
 10
452.67539500434691
 20
213.95247530698711
 30
0.0
 40
9.4336299408195892
  1
32
  7
CHINESET
 72
     1
 11
460.31214305167703
 21
218.6692902773969
 31
0.0
 73
     2
  0
LINE
  5
D9E
  8
LOGO
 62
     1
 10
635.92834892189944
 20
176.3249335016769
 30
0.0
 11
635.92834892189944
 21
232.92671314659441
 31
0.0
  0
LINE
  5
DAD
  8
LOGO
 62
     6
 10
487.93774074008888
 20
227.26653518210281
 30
0.0
 11
487.93774074008888
 21
210.28600128862749
 31
0.0
  0
LINE
  5
DAE
  8
LOGO
 62
     6
 10
546.35322282718175
 20
227.2665351821029
 30
0.0
 11
546.35322282718175
 21
210.28600128862749
 31
0.0
  0
TEXT
  5
DAF
  8
LOGO
 62
     6
 10
503.84406356707939
 20
191.64684459814259
 30
0.0
 40
7.546903952655672
  1
旋轉方向
 41
0.9
  7
CHINESET
 72
     4
 11
517.14548178363509
 21
195.19219338331609
 31
0.0
  0
TEXT
  5
DB0
  8
LOGO
  6
CONTINUOUS
 62
     6
 10
491.98913527478283
 20
184.18629178569319
 30
0.0
 40
4.7168149704097937
  1
Rotating direction
 41
0.8
  7
CHINESET
 72
     4
 11
517.14548178363509
 21
185.7585634424965
 31
0.0
  0
LINE
  5
DB1
  8
LOGO
 62
     6
 10
546.35322282718175
 20
201.7957343418899
 30
0.0
 11
487.93774074008888
 21
201.7957343418899
 31
0.0
  0
LINE
  5
DB2
  8
LOGO
 62
     6
 10
546.35322282718175
 20
210.28600128862749
 30
0.0
 11
487.93774074008888
 21
210.28600128862749
 31
0.0
  0
LINE
  5
DB3
  8
LOGO
 62
     6
 10
546.35322282718175
 20
181.04174847208679
 30
0.0
 11
487.93774074008888
 21
181.04174847208671
 31
0.0
  0
LINE
  5
DB4
  8
LOGO
 62
     6
 10
487.93774074008888
 20
201.7957343418899
 30
0.0
 11
487.93774074008888
 21
181.04174847208679
 31
0.0
  0
LINE
  5
DB5
  8
LOGO
 62
     6
 10
517.14548178363543
 20
210.28600128862749
 30
0.0
 11
517.14548178363543
 21
201.7957343418899
 31
0.0
  0
LINE
  5
DB6
  8
LOGO
 62
     6
 10
546.35322282718175
 20
201.7957343418899
 30
0.0
 11
546.35322282718175
 21
181.04174847208679
 31
0.0
  0
LINE
  5
DB7
  8
LOGO
 62
     6
 10
546.35322282718175
 20
227.2665351821029
 30
0.0
 11
487.93774074008888
 21
227.26653518210281
 31
0.0
  0
LINE
  5
DB8
  8
LOGO
  6
CONTINUOUS
 62
     7
 10
477.50323548365799
 20
218.71612050075581
 30
0.0
 11
485.00121965886621
 21
218.71612050075581
 31
0.0
  0
TEXT
  5
DCEA
  8
UMCL3
  6
CONTINUOUS
 62
     2
 10
766.23679790982271
 20
285.02499111941353
 30
0.0
 40
2.5
  1

 41
0.8
  7
ROMANS1
 72
     1
 11
766.23679790982271
 21
286.27499111941353
 31
0.0
 73
     2
  0
TEXT
  5
DCED
  8
UMCL3
  6
CONTINUOUS
 62
     2
 10
741.15575056207274
 20
285.02499111941353
 30
0.0
 40
2.5
  1

 41
0.8
  7
ROMANS1
 72
     1
 11
741.15575056207274
 21
286.27499111941353
 31
0.0
 73
     2
  0
TEXT
  5
DCF2
  8
UMCL3
  6
CONTINUOUS
 62
     2
 10
719.57470321432265
 20
285.02499111941353
 30
0.0
 40
2.5
  1

 41
0.8
  7
ROMANS1
 72
     1
 11
719.57470321432265
 21
286.27499111941353
 31
0.0
 73
     2
  0
TEXT
  5
DD0D
  8
UMCL3
 62
     2
 10
716.36931152386535
 20
289.1485161689501
 30
0.0
 40
3.2999999999999998
  1

 41
0.9
  7
ROMANS
  0
TEXT
  5
DD17
  8
UMCL3
 62
     2
 10
734.45035887161544
 20
289.1485161689501
 30
0.0
 40
3.2999999999999998
  1

 41
0.9
  7
ROMANS
  0
TEXT
  5
DD1A
  8
UMCL3
 62
     2
 10
759.53140621936552
 20
289.1485161689501
 30
0.0
 40
3.2999999999999998
  1

 41
0.9
  7
ROMANS
  0
TEXT
  5
14B64
  8
UMCL3
  6
CONTINUOUS
 62
     2
 10
426.05478391879888
 20
150.3638432988582
 30
0.0
 40
2.5
  1

 41
0.8
  7
ROMANS1
 72
     1
 11
426.05478391879888
 21
151.6138432988582
 31
0.0
 73
     2
  0
TEXT
  5
14B68
  8
UMCL3
 62
     2
 10
388.4510203905802
 20
154.33843610509459
 30
0.0
 40
3.2999999999999998
  1

 41
0.9
  7
ROMANS
  0
TEXT
  5
14B6A
  8
UMCL3
  6
CONTINUOUS
 62
     2
 10
394.72373657104862
 20
150.3638432988582
 30
0.0
 40
2.5
  1

 41
0.8
  7
ROMANS1
 72
     1
 11
394.72373657104862
 21
151.6138432988582
 31
0.0
 73
     2
  0
TEXT
  5
14B77
  8
UMCL3
 62
     2
 10
419.7820677383304
 20
154.33843610509459
 30
0.0
 40
3.2999999999999998
  1

 41
0.9
  7
ROMANS
  0
LINE
  5
14B7C
  8
LOGO
 62
     6
 10
618.12870096869358
 20
227.2665351821029
 30
0.0
 11
618.12870096869358
 21
210.2860012886276
 31
0.0
  0
LINE
  5
14B7D
  8
LOGO
 62
     6
 10
559.71321888160082
 20
227.2665351821029
 30
0.0
 11
559.71321888160082
 21
210.2860012886276
 31
0.0
  0
TEXT
  5
14B7E
  8
LOGO
  6
CONTINUOUS
 62
     6
 10
568.34666224469265
 20
184.18629178569319
 30
0.0
 40
4.7168149704097937
  1
Rotating angle
 41
0.8
  7
CHINESET
 72
     4
 11
588.92095992514692
 21
185.7585634424965
 31
0.0
  0
TEXT
  5
14B7F
  8
LOGO
 62
     6
 10
575.40728503492289
 20
191.65427265321409
 30
0.0
 40
7.546903952655672
  1
旋轉角度
 41
0.9
  7
CHINESET
 72
     4
 11
588.92095992514692
 21
195.19219338331621
 31
0.0
  0
LINE
  5
14B80
  8
LOGO
 62
     6
 10
618.12870096869358
 20
210.2860012886276
 30
0.0
 11
559.71321888160082
 21
210.2860012886276
 31
0.0
  0
LINE
  5
14B81
  8
LOGO
 62
     6
 10
618.12870096869358
 20
201.7957343418899
 30
0.0
 11
559.71321888160082
 21
201.7957343418899
 31
0.0
  0
LINE
  5
14B82
  8
LOGO
 62
     6
 10
618.12870096869358
 20
181.04174847208691
 30
0.0
 11
559.71321888160082
 21
181.04174847208679
 31
0.0
  0
LINE
  5
14B83
  8
LOGO
 62
     6
 10
559.71321888160082
 20
201.7957343418899
 30
0.0
 11
559.71321888160082
 21
181.04174847208691
 31
0.0
  0
LINE
  5
14B84
  8
LOGO
 62
     6
 10
588.92095992514726
 20
210.2860012886276
 30
0.0
 11
588.92095992514726
 21
201.7957343418899
 31
0.0
  0
LINE
  5
14B85
  8
LOGO
 62
     6
 10
618.12870096869358
 20
201.7957343418899
 30
0.0
 11
618.12870096869358
 21
181.04174847208691
 31
0.0
  0
LINE
  5
14B86
  8
LOGO
 62
     6
 10
618.12870096869358
 20
227.2665351821029
 30
0.0
 11
559.71321888160082
 21
227.2665351821029
 31
0.0
  0
LINE
  5
14B87
  8
LOGO
  6
CONTINUOUS
 62
     7
 10
549.27871362516976
 20
218.71612050075581
 30
0.0
 11
556.77669780037797
 21
218.71612050075581
 31
0.0
  0
LINE
  5
1549C
  8
DIM
 10
278.44602323339763
 20
437.93920249395381
 30
0.0
 11
256.41124930635419
 21
437.93920249395381
 31
0.0
  0
TEXT
  5
1549D
  8
DIM
 10
256.37874842515629
 20
438.93920249395381
 30
0.0
 40
3.0
  1
M10x1.5P
  7
ROMANS
  0
LINE
  5
1549E
  8
0
 10
363.7629658036771
 20
492.41323330882318
 30
0.0
 11
363.76296580367728
 21
515.41323330882324
 31
0.0
  0
CIRCLE
  5
1549F
  8
0
 62
     7
 10
347.76296580367728
 20
503.91323330882318
 30
0.0
 40
8.0
  0
CIRCLE
  5
154A0
  8
0
 62
     7
 10
347.76296580367728
 20
503.91323330882318
 30
0.0
 40
7.25
  0
POLYLINE
  5
154A1
  8
0
 62
     7
 66
     1
 10
0.0
 20
0.0
 30
0.0
 70
     1
  0
VERTEX
  5
15640
  8
0
 62
     7
 10
340.892509147326
 20
492.01325330882349
 30
0.0
  0
VERTEX
  5
15641
  8
0
 62
     7
 10
354.63342246002838
 20
492.01325330882349
 30
0.0
  0
VERTEX
  5
15642
  8
0
 62
     7
 10
361.50387911637972
 20
503.91323330882318
 30
0.0
  0
VERTEX
  5
15643
  8
0
 62
     7
 10
354.63342246002838
 20
515.81321330882326
 30
0.0
  0
VERTEX
  5
15644
  8
0
 62
     7
 10
340.892509147326
 20
515.81321330882326
 30
0.0
  0
VERTEX
  5
15645
  8
0
 62
     7
 10
334.022052490975
 20
503.91323330882318
 30
0.0
  0
SEQEND
  5
15646
  8
0
 62
     7
  0
CIRCLE
  5
154A2
  8
0
 62
     7
 10
347.76296580367728
 20
503.91323330882318
 30
0.0
 40
11.899979999999999
  0
LINE
  5
154A3
  8
0
 10
282.76296580367728
 20
512.41323330882369
 30
0.0
 11
282.7629658036771
 21
495.41323330882369
 31
0.0
  0
CIRCLE
  5
154A4
  8
0
 62
     7
 10
292.7629658036771
 20
503.91323330882369
 30
0.0
 40
4.2999999999999989
  0
ARC
  5
154A5
  8
0
 62
     2
 10
292.7629658036771
 20
503.91323330882369
 30
0.0
 40
5.0
 50
71.217862659221893
 51
11.447539026683121
  0
ARC
  5
154A6
  8
0
 10
347.76296580367728
 20
503.91323330882318
 30
0.0
 40
25.0
 50
218.31613447366169
 51
141.68386552633831
  0
POLYLINE
  5
154A7
  8
0
 66
     1
 10
0.0
 20
0.0
 30
0.0
  0
VERTEX
  5
15647
  8
0
 10
375.76296580367739
 20
479.34572427758428
 30
0.0
  0
VERTEX
  5
15648
  8
0
 10
375.76296580367739
 20
528.48074234006208
 30
0.0
  0
SEQEND
  5
15649
  8
0
  0
TEXT
  5
154A8
  8
DIM
 10
398.76296580367728
 20
502.52841156413331
 30
0.0
 40
3.0
  1
56
 50
90.0
  7
ROMANS
  0
TEXT
  5
154A9
  8
DIM
 10
390.76296580367728
 20
502.49365670287801
 30
0.0
 40
3.0
  1
44
 50
90.0
  7
ROMANS
  0
LINE
  5
154AA
  8
DIM
 10
383.76296580367739
 20
488.41323330882318
 30
0.0
 11
383.76296580367739
 21
519.41323330882324
 31
0.0
  0
LINE
  5
154AB
  8
DIM
 10
391.76296580367728
 20
481.91323330882318
 30
0.0
 11
391.76296580367728
 21
525.91323330882324
 31
0.0
  0
LINE
  5
154AC
  8
DIM
 10
399.76296580367728
 20
475.91323330882318
 30
0.0
 11
399.76296580367728
 21
531.91323330882324
 31
0.0
  0
LINE
  5
154AD
  8
CENTER
  6
CENTER
 10
292.7629658036771
 20
493.91323330882358
 30
0.0
 11
292.7629658036771
 21
513.91323330882369
 31
0.0
  0
LINE
  5
154AE
  8
CENTER
  6
CENTER
 10
347.76296580367728
 20
471.9516516978901
 30
0.0
 11
347.76296580367728
 21
535.20543570910274
 31
0.0
  0
LINE
  5
154AF
  8
DIM
 10
373.33047483491589
 20
475.91323330882318
 30
0.0
 11
400.76296580367739
 21
475.91323330882318
 31
0.0
  0
LINE
  5
154B0
  8
DIM
 10
364.76296580367728
 20
380.64157291948459
 30
0.0
 11
400.76296580367739
 21
380.64157291948459
 31
0.0
  0
LINE
  5
154B1
  8
DIM
 10
364.76296580367728
 20
406.64157291948447
 30
0.0
 11
408.76296580367739
 21
406.64157291948447
 31
0.0
  0
LINE
  5
154B2
  8
DIM
 10
375.96296580367738
 20
291.64157291948447
 30
0.0
 11
416.76296580367739
 21
291.64157291948447
 31
0.0
  0
LINE
  5
154B3
  8
DIM
 10
360.6629458036773
 20
431.64157291948447
 30
0.0
 11
416.76296580367739
 21
431.64157291948447
 31
0.0
  0
LINE
  5
154B4
  8
DIM
 10
364.76296580367728
 20
423.64157291948447
 30
0.0
 11
408.76296580367739
 21
423.64157291948447
 31
0.0
  0
LINE
  5
154B5
  8
DIM
 10
405.49690133848219
 20
465.21306388098031
 30
0.0
 11
386.48569353746279
 21
465.21306388098031
 31
0.0
  0
TEXT
  5
154B6
  8
DIM
 10
388.7610854646004
 20
466.21306388098031
 30
0.0
 40
3.0
  1
4-%%c6.8
  7
ROMANS
  0
LINE
  5
154B7
  8
0
 10
337.76296580367739
 20
406.64157291948447
 30
0.0
 11
337.76296580367739
 21
376.64157291948459
 31
0.0
  0
LINE
  5
154B8
  8
0
 10
357.7629658036771
 20
406.64157291948447
 30
0.0
 11
357.76296580367728
 21
376.64157291948459
 31
0.0
  0
LINE
  5
154B9
  8
0
  6
PHANTOM
 62
     6
 10
363.76296580367728
 20
380.64157291948459
 30
0.0
 11
363.76296580367728
 21
397.64157291948459
 31
0.0
  0
LINE
  5
154BA
  8
0
  6
PHANTOM
 62
     6
 10
282.76296580367728
 20
397.64157291948459
 30
0.0
 11
282.76296580367728
 21
380.64157291948459
 31
0.0
  0
TEXT
  5
154BB
  8
DIM
 10
398.76296580367728
 20
390.66259915676022
 30
0.0
 40
3.0
  1
26
 50
90.0
  7
ROMANS
  0
LINE
  5
154BC
  8
DIM
 10
399.76296580367728
 20
291.64157291948447
 30
0.0
 11
399.76296580367728
 21
406.64157291948447
 31
0.0
  0
LINE
  5
154BD
  8
CENTER
  6
CENTER
 10
347.76296580367728
 20
433.64157291948459
 30
0.0
 11
347.76296580367728
 21
289.64157291948459
 31
0.0
  0
LINE
  5
154BE
  8
0
 10
320.56296580367729
 20
321.64157291948447
 30
0.0
 11
374.96296580367721
 21
321.64157291948447
 31
0.0
  0
LINE
  5
154BF
  8
0
 10
368.76296580367728
 20
376.64157291948459
 30
0.0
 11
326.7629658036771
 21
376.64157291948459
 31
0.0
  0
LINE
  5
154C0
  8
0
 62
     4
 10
372.76296580367728
 20
372.64157291948459
 30
0.0
 11
322.76296580367728
 21
372.64157291948459
 31
0.0
  0
LINE
  5
154C1
  8
0
 10
319.76296580367739
 20
320.84157291948441
 30
0.0
 11
375.76296580367739
 21
320.84157291948441
 31
0.0
  0
LINE
  5
154C2
  8
0
 10
320.56296580367729
 20
291.64157291948447
 30
0.0
 11
374.96296580367738
 21
291.64157291948447
 31
0.0
  0
LINE
  5
154C3
  8
0
 10
319.76296580367739
 20
292.44157291948432
 30
0.0
 11
375.76296580367739
 21
292.44157291948432
 31
0.0
  0
LINE
  5
154C4
  8
0
  6
PHANTOM
 62
     6
 10
282.76296580367728
 20
380.64157291948459
 30
0.0
 11
363.76296580367728
 21
380.64157291948459
 31
0.0
  0
LINE
  5
154C5
  8
DIM
 10
322.7629658036771
 20
339.50083621126299
 30
0.0
 11
372.76296580367728
 21
339.50083621126299
 31
0.0
  0
LINE
  5
154C6
  8
DIM
 10
311.3937974383179
 20
339.95794113160031
 30
0.0
 11
343.52050689860027
 21
359.99553013095459
 31
0.0
  0
LINE
  5
154C7
  8
CENTER
  6
CENTER
 10
327.76296580367739
 20
310.64157291948447
 30
0.0
 11
347.76296580367728
 21
310.64157291948447
 31
0.0
  0
LINE
  5
154C8
  8
0
 10
322.76296580367728
 20
372.64157291948459
 30
0.0
 11
322.76296580367728
 21
321.64157291948447
 31
0.0
  0
LINE
  5
154C9
  8
0
 10
320.56296580367729
 20
321.64157291948447
 30
0.0
 11
319.76296580367739
 21
320.84157291948441
 31
0.0
  0
LINE
  5
154CA
  8
0
 10
323.9954567724385
 20
321.64157291948447
 30
0.0
 11
323.19545677243849
 21
320.84157291948441
 31
0.0
  0
LINE
  5
154CB
  8
0
 10
319.76296580367739
 20
292.44157291948432
 30
0.0
 11
320.56296580367729
 21
291.64157291948447
 31
0.0
  0
LINE
  5
154CC
  8
0
 10
323.19545677243849
 20
292.44157291948432
 30
0.0
 11
323.9954567724385
 21
291.64157291948447
 31
0.0
  0
LINE
  5
154CD
  8
0
 10
319.76296580367739
 20
320.84157291948441
 30
0.0
 11
319.76296580367739
 21
292.44157291948432
 31
0.0
  0
LINE
  5
154CE
  8
0
  6
CONTINUOUS
 10
323.19545677243849
 20
320.84157291948441
 30
0.0
 11
323.19545677243849
 21
292.44157291948432
 31
0.0
  0
LINE
  5
154CF
  8
CENTER
  6
CENTER
 10
325.76296580367739
 20
289.50504220020542
 30
0.0
 11
325.76296580367739
 21
323.8800804198508
 31
0.0
  0
LINE
  5
154D0
  8
HIDDEN
  6
HIDDEN
 10
329.1629658036772
 20
291.64157291948447
 30
0.0
 11
329.1629658036772
 21
321.64157291948447
 31
0.0
  0
LINE
  5
154D1
  8
HIDDEN
  6
HIDDEN
 10
322.36296580367718
 20
291.64157291948447
 30
0.0
 11
322.36296580367718
 21
321.64157291948447
 31
0.0
  0
LINE
  5
154D2
  8
DIM
 10
311.4173510532882
 20
339.97263163878728
 30
0.0
 11
285.48818561304591
 21
339.97263163878728
 31
0.0
  0
TEXT
  5
154D3
  8
DIM
 10
285.45568473184812
 20
340.97263163878728
 30
0.0
 40
3.0
  1
2-PT 1/8
  7
ROMANS
  0
ARC
  5
154D4
  8
0
 10
326.7629658036771
 20
372.64157291948459
 30
0.0
 40
4.0
 50
90.0
 51
180.0
  0
SOLID
  5
154D5
  8
DIM
 10
325.71738906267728
 20
340.02178074436318
 30
0.0
 11
325.71738906267728
 21
338.9798916781628
 31
0.0
 12
322.7629658036771
 22
339.50083621126299
 32
0.0
 13
322.7629658036771
 23
339.50083621126299
 33
0.0
  0
LINE
  5
154D6
  8
0
 10
372.76296580367728
 20
372.64157291948459
 30
0.0
 11
372.76296580367728
 21
321.64157291948447
 31
0.0
  0
TEXT
  5
154D7
  8
DIM
 10
398.76296580367728
 20
334.22174763580779
 30
0.0
 40
3.0
  1
89
 50
90.0
  7
ROMANS
  0
LINE
  5
154D8
  8
DIM
 10
391.76296580367728
 20
291.64157291948447
 30
0.0
 11
391.76296580367728
 21
376.64157291948459
 31
0.0
  0
CIRCLE
  5
154D9
  8
0
 10
337.76296580367739
 20
310.64157291948447
 30
0.0
 40
4.25
  0
ARC
  5
154DA
  8
0
 62
     2
 10
337.76296580367739
 20
310.64157291948447
 30
0.0
 40
5.0
 50
76.381240030109183
 51
12.82963446549107
  0
LINE
  5
154DB
  8
CENTER
  6
CENTER
 10
337.76296580367739
 20
300.64157291948447
 30
0.0
 11
337.76296580367739
 21
320.64157291948459
 31
0.0
  0
LINE
  5
154DC
  8
0
 10
371.53047483491599
 20
321.64157291948447
 30
0.0
 11
372.330474834916
 21
320.84157291948441
 31
0.0
  0
LINE
  5
154DD
  8
0
 10
375.76296580367739
 20
320.84157291948441
 30
0.0
 11
374.96296580367721
 21
321.64157291948447
 31
0.0
  0
LINE
  5
154DE
  8
0
 10
372.330474834916
 20
292.44157291948432
 30
0.0
 11
371.53047483491599
 21
291.64157291948447
 31
0.0
  0
LINE
  5
154DF
  8
0
 10
374.96296580367738
 20
291.64157291948447
 30
0.0
 11
375.76296580367739
 21
292.44157291948471
 31
0.0
  0
LINE
  5
154E0
  8
0
 10
375.76296580367739
 20
292.44157291948471
 30
0.0
 11
375.76296580367739
 21
320.84157291948441
 31
0.0
  0
LINE
  5
154E1
  8
0
  6
CONTINUOUS
 10
372.330474834916
 20
320.84157291948441
 30
0.0
 11
372.330474834916
 21
292.44157291948432
 31
0.0
  0
TEXT
  5
154E2
  8
DIM
 10
390.76296580367728
 20
332.65203637321417
 30
0.0
 40
3.0
  1
85
 50
90.0
  7
ROMANS
  0
LINE
  5
154E3
  8
DIM
 10
375.96296580367721
 20
321.64157291948447
 30
0.0
 11
384.7629658036771
 21
321.64157291948447
 31
0.0
  0
SOLID
  5
154E4
  8
DIM
 10
399.24202127057742
 20
294.59599617848471
 30
0.0
 11
400.2839103367773
 21
294.59599617848471
 31
0.0
 12
399.76296580367728
 22
291.64157291948447
 32
0.0
 13
399.76296580367728
 23
291.64157291948447
 33
0.0
  0
SOLID
  5
154E5
  8
DIM
 10
391.24202127057742
 20
294.59599617848471
 30
0.0
 11
392.2839103367773
 21
294.59599617848471
 31
0.0
 12
391.76296580367728
 22
291.64157291948447
 32
0.0
 13
391.76296580367728
 23
291.64157291948447
 33
0.0
  0
SOLID
  5
154E6
  8
DIM
 10
383.2420212705772
 20
294.59599617848471
 30
0.0
 11
384.2839103367773
 21
294.59599617848471
 31
0.0
 12
383.7629658036771
 22
291.64157291948447
 32
0.0
 13
383.7629658036771
 23
291.64157291948447
 33
0.0
  0
TEXT
  5
154E7
  8
DIM
 10
382.7629658036771
 20
303.54388540297572
 30
0.0
 40
3.0
  1
30
 50
90.0
  7
ROMANS
  0
SOLID
  5
154E8
  8
DIM
 10
384.2839103367773
 20
318.68714966048441
 30
0.0
 11
383.2420212705772
 21
318.68714966048441
 31
0.0
 12
383.7629658036771
 22
321.64157291948447
 32
0.0
 13
383.7629658036771
 23
321.64157291948447
 33
0.0
  0
LINE
  5
154E9
  8
DIM
 10
383.7629658036771
 20
291.64157291948447
 30
0.0
 11
383.7629658036771
 21
321.64157291948447
 31
0.0
  0
LINE
  5
154EA
  8
CENTER
  6
CENTER
 10
369.76296580367739
 20
289.50504220020542
 30
0.0
 11
369.76296580367739
 21
323.8800804198508
 31
0.0
  0
LINE
  5
154EB
  8
HIDDEN
  6
HIDDEN
 10
366.36296580367718
 20
291.64157291948447
 30
0.0
 11
366.36296580367718
 21
321.64157291948447
 31
0.0
  0
LINE
  5
154EC
  8
HIDDEN
  6
HIDDEN
 10
373.1629658036772
 20
291.64157291948447
 30
0.0
 11
373.1629658036772
 21
321.64157291948447
 31
0.0
  0
CIRCLE
  5
154ED
  8
0
 10
347.76296580367728
 20
362.64157291948459
 30
0.0
 40
4.25
  0
ARC
  5
154EE
  8
0
 62
     2
 10
347.76296580367728
 20
362.64157291948459
 30
0.0
 40
5.0
 50
76.381240030109183
 51
12.82963446549107
  0
SOLID
  5
154EF
  8
DIM
 10
340.73801474069148
 20
358.87404121390631
 30
0.0
 11
341.28939135070499
 21
357.99000690450612
 31
0.0
 12
343.52050689860027
 22
359.99553013095459
 32
0.0
 13
343.52050689860027
 23
359.99553013095459
 33
0.0
  0
TEXT
  5
154F0
  8
DIM
 10
350.09870020632792
 20
340.50083621126299
 30
0.0
 40
3.0
  1
%%c50
  7
ROMANS
  0
LINE
  5
154F1
  8
CENTER
  6
CENTER
 10
337.76296580367739
 20
362.64157291948459
 30
0.0
 11
357.76296580367728
 21
362.64157291948459
 31
0.0
  0
ARC
  5
154F2
  8
0
 10
368.76296580367728
 20
372.64157291948459
 30
0.0
 40
4.0
 50
0.0
 51
90.0
  0
SOLID
  5
154F3
  8
DIM
 10
400.2839103367773
 20
383.59599617848471
 30
0.0
 11
399.24202127057742
 21
383.59599617848471
 31
0.0
 12
399.76296580367728
 22
380.64157291948459
 32
0.0
 13
399.76296580367728
 23
380.64157291948459
 33
0.0
  0
SOLID
  5
154F4
  8
DIM
 10
400.2839103367773
 20
377.68714966048441
 30
0.0
 11
399.24202127057742
 21
377.68714966048441
 31
0.0
 12
399.76296580367728
 22
380.64157291948459
 32
0.0
 13
399.76296580367728
 23
380.64157291948459
 33
0.0
  0
SOLID
  5
154F5
  8
DIM
 10
392.2839103367773
 20
373.68714966048441
 30
0.0
 11
391.24202127057742
 21
373.68714966048441
 31
0.0
 12
391.76296580367728
 22
376.64157291948459
 32
0.0
 13
391.76296580367728
 23
376.64157291948459
 33
0.0
  0
LINE
  5
154F6
  8
DIM
 10
369.76296580367739
 20
376.64157291948459
 30
0.0
 11
392.76296580367728
 21
376.64157291948459
 31
0.0
  0
SOLID
  5
154F7
  8
DIM
 10
369.80854254467721
 20
338.9798916781628
 30
0.0
 11
369.80854254467721
 21
340.02178074436318
 31
0.0
 12
372.76296580367728
 22
339.50083621126299
 32
0.0
 13
372.76296580367728
 23
339.50083621126299
 33
0.0
  0
POLYLINE
  5
154F8
  8
0
 66
     1
 10
0.0
 20
0.0
 30
0.0
  0
VERTEX
  5
1564A
  8
0
 10
323.19545677243849
 20
475.91323330882318
 30
0.0
  0
VERTEX
  5
1564B
  8
0
 10
372.330474834916
 20
475.91323330882318
 30
0.0
  0
SEQEND
  5
1564C
  8
0
  0
LINE
  5
154F9
  8
0
 10
308.88732145665921
 20
488.41323330882318
 30
0.0
 11
359.7629658036771
 21
488.41323330882318
 31
0.0
  0
LINE
  5
154FA
  8
0
 10
282.76296580367728
 20
406.64157291948447
 30
0.0
 11
363.76296580367728
 21
406.64157291948447
 31
0.0
  0
LINE
  5
154FB
  8
0
 10
363.76296580367728
 20
423.64157291948447
 30
0.0
 11
282.76296580367728
 21
423.64157291948447
 31
0.0
  0
LINE
  5
154FC
  8
0
  6
PHANTOM
 62
     6
 10
363.76296580367728
 20
397.64157291948459
 30
0.0
 11
282.76296580367728
 21
397.64157291948459
 31
0.0
  0
LINE
  5
154FD
  8
DIM
 10
347.76296580367728
 20
439.64157291948459
 30
0.0
 11
292.76296580367728
 21
439.64157291948459
 31
0.0
  0
LINE
  5
154FE
  8
DIM
 10
282.76296580367728
 20
447.64157291948459
 30
0.0
 11
363.76296580367728
 21
447.64157291948459
 31
0.0
  0
LINE
  5
154FF
  8
CENTER
  6
CENTER
 10
335.76296580367739
 20
481.91323330882318
 30
0.0
 11
315.76296580367728
 21
481.91323330882318
 31
0.0
  0
LINE
  5
15500
  8
CENTER
  6
CENTER
 10
280.25109140219951
 20
503.91323330882318
 30
0.0
 11
379.05516820395701
 21
503.91323330882318
 31
0.0
  0
TEXT
  5
15501
  8
DIM
 10
322.80370747747293
 20
448.64157291948447
 30
0.0
 40
3.0
  1
81
  7
ROMANS
  0
LINE
  5
15502
  8
0
 10
282.76296580367728
 20
423.64157291948447
 30
0.0
 11
282.76296580367728
 21
406.64157291948447
 31
0.0
  0
SOLID
  5
15503
  8
DIM
 10
289.80854254467721
 20
439.12062838638428
 30
0.0
 11
289.80854254467721
 21
440.16251745258478
 31
0.0
 12
292.76296580367728
 22
439.64157291948459
 32
0.0
 13
292.76296580367728
 23
439.64157291948459
 33
0.0
  0
SOLID
  5
15504
  8
DIM
 10
295.71738906267723
 20
440.16251745258478
 30
0.0
 11
295.71738906267723
 21
439.12062838638428
 31
0.0
 12
292.76296580367728
 22
439.64157291948459
 32
0.0
 13
292.76296580367728
 23
439.64157291948459
 33
0.0
  0
SOLID
  5
15505
  8
DIM
 10
290.30434884914979
 20
425.36064321205629
 30
0.0
 11
291.04057826219122
 21
426.09786711131619
 31
0.0
 12
292.76296580367671
 22
423.64157291948499
 32
0.0
 13
292.76296580367671
 23
423.64157291948499
 33
0.0
  0
LINE
  5
15506
  8
DIM
 10
292.76296580367728
 20
425.64157291948459
 30
0.0
 11
292.76296580367728
 21
440.64157291948447
 31
0.0
  0
SOLID
  5
15507
  8
DIM
 10
285.71738906267723
 20
448.16251745258478
 30
0.0
 11
285.71738906267723
 21
447.12062838638428
 31
0.0
 12
282.76296580367728
 22
447.64157291948459
 32
0.0
 13
282.76296580367728
 23
447.64157291948459
 33
0.0
  0
SOLID
  5
15508
  8
DIM
 10
285.71738906267723
 20
440.16251745258478
 30
0.0
 11
285.71738906267723
 21
439.12062838638428
 31
0.0
 12
282.76296580367728
 22
439.64157291948459
 32
0.0
 13
282.76296580367728
 23
439.64157291948459
 33
0.0
  0
LINE
  5
15509
  8
DIM
 10
282.76296580367728
 20
424.64157291948447
 30
0.0
 11
282.76296580367728
 21
448.64157291948447
 31
0.0
  0
TEXT
  5
1550A
  8
DIM
 10
284.90367038366912
 20
440.64157291948447
 30
0.0
 40
3.0
  1
10
  7
ROMANS
  0
LINE
  5
1550B
  8
DIM
 10
292.76296580367728
 20
439.64157291948459
 30
0.0
 11
282.76296580367728
 21
439.64157291948459
 31
0.0
  0
LINE
  5
1550C
  8
DIM
 10
278.44602323339763
 20
437.93920249395381
 30
0.0
 11
292.76296580367671
 21
423.64157291948499
 31
0.0
  0
LINE
  5
1550D
  8
CENTER
  6
CENTER
 10
292.76296580367728
 20
424.64157291948447
 30
0.0
 11
292.76296580367728
 21
405.64157291948459
 31
0.0
  0
LINE
  5
1550E
  8
HIDDEN
  6
HIDDEN
 10
288.51296580367739
 20
423.64157291948447
 30
0.0
 11
288.51296580367739
 21
406.64157291948447
 31
0.0
  0
LINE
  5
1550F
  8
HIDDEN
  6
HIDDEN
 10
287.76296580367728
 20
423.64157291948447
 30
0.0
 11
287.76296580367728
 21
406.64157291948447
 31
0.0
  0
LINE
  5
15510
  8
0
 10
308.88732145665949
 20
406.64157291948447
 30
0.0
 11
308.88732145665949
 21
423.64157291948447
 31
0.0
  0
TEXT
  5
15511
  8
DIM
 10
317.71265771860379
 20
440.64157291948447
 30
0.0
 40
3.0
  1
55
  7
ROMANS
  0
LINE
  5
15512
  8
HIDDEN
  6
HIDDEN
 10
297.01296580367728
 20
423.64157291948447
 30
0.0
 11
297.01296580367728
 21
406.64157291948447
 31
0.0
  0
LINE
  5
15513
  8
HIDDEN
  6
HIDDEN
 10
297.76296580367728
 20
423.64157291948447
 30
0.0
 11
297.76296580367728
 21
406.64157291948447
 31
0.0
  0
LINE
  5
15514
  8
0
 10
282.7629658036771
 20
495.41323330882369
 30
0.0
 11
308.88732145665949
 21
488.41323330882369
 31
0.0
  0
TEXT
  5
15515
  8
DIM
 10
267.37252534689492
 20
485.6574926958146
 30
0.0
 40
4.0
  1
CCW
  7
ROMANS
  0
POLYLINE
  5
15516
  8
DIM
 66
     1
 10
0.0
 20
0.0
 30
0.0
 70
     7
  0
VERTEX
  5
15517
  8
DIM
 10
281.37844412543762
 20
490.5916305983792
 30
0.0
 42
0.0185322085214218
  0
VERTEX
  5
15518
  8
DIM
 10
283.40761719531719
 20
486.19053135869802
 30
0.0
  0
VERTEX
  5
15519
  8
DIM
 10
282.8724247907175
 20
485.91929513313289
 30
0.0
  0
VERTEX
  5
1551A
  8
DIM
 10
285.49490957405078
 20
483.8850974942838
 30
0.0
  0
VERTEX
  5
1551B
  8
DIM
 10
285.28079061141619
 20
487.13985814817619
 30
0.0
  0
VERTEX
  5
1551C
  8
DIM
 10
284.74559820681628
 20
486.868621922611
 30
0.0
 42
-0.018532208521422
  0
VERTEX
  5
1551D
  8
DIM
 10
282.7629658036771
 20
491.16877851918019
 30
0.0
  0
SEQEND
  5
1551E
  8
DIM
  0
ARC
  5
1551F
  8
0
 10
347.76296580367728
 20
503.91323330882318
 30
0.0
 40
37.25
 50
221.26407159360639
 51
228.7359284063854
  0
POLYLINE
  5
15520
  8
0
 66
     1
 10
0.0
 20
0.0
 30
0.0
  0
VERTEX
  5
1564D
  8
0
 10
319.76296580367739
 20
488.41323330882318
 30
0.0
  0
VERTEX
  5
1564E
  8
0
 10
319.76296580367739
 20
479.34572427758428
 30
0.0
  0
SEQEND
  5
1564F
  8
0
  0
CIRCLE
  5
15521
  8
0
 10
325.76296580367739
 20
481.91323330882318
 30
0.0
 40
3.3999999999999999
  0
LINE
  5
15522
  8
CENTER
  6
CENTER
 10
325.76296580367739
 20
471.91323330882318
 30
0.0
 11
325.76296580367739
 21
491.91323330882318
 31
0.0
  0
LINE
  5
15523
  8
0
 62
     7
 10
359.6629458036773
 20
431.64157291948447
 30
0.0
 11
361.50387911637972
 21
430.57870957583549
 31
0.0
  0
LINE
  5
15524
  8
0
 62
     7
 10
359.6629458036773
 20
423.64157291948447
 30
0.0
 11
361.50387911637972
 21
424.70443626313312
 31
0.0
  0
LINE
  5
15525
  8
0
 62
     7
 10
361.50387911637972
 20
430.57870957583549
 30
0.0
 11
361.50387911637972
 21
424.70443626313357
 31
0.0
  0
LINE
  5
15526
  8
0
 10
363.76296580367728
 20
406.64157291948447
 30
0.0
 11
363.76296580367728
 21
423.64157291948447
 31
0.0
  0
LINE
  5
15527
  8
0
 10
359.7629658036771
 20
406.64157291948447
 30
0.0
 11
359.7629658036771
 21
423.64157291948447
 31
0.0
  0
LINE
  5
15528
  8
0
 62
     7
 10
354.63342246002838
 20
430.57870957583549
 30
0.0
 11
354.63342246002861
 21
424.70443626313312
 31
0.0
  0
LINE
  5
15529
  8
0
 62
     7
 10
340.89250914732628
 20
430.57870957583589
 30
0.0
 11
340.89250914732628
 21
424.70443626313357
 31
0.0
  0
ARC
  5
1552A
  8
0
 62
     7
 10
347.7629658036771
 20
408.90447626313289
 30
0.0
 40
22.737096656351639
 50
72.412046226012649
 51
107.58795377398729
  0
ARC
  5
1552B
  8
0
 62
     7
 10
347.76296580367762
 20
446.3786695758381
 30
0.0
 40
22.737096656353351
 50
252.41204622601259
 51
287.58795377398729
  0
LINE
  5
1552C
  8
0
 62
     7
 10
334.02205249097523
 20
430.57870957583589
 30
0.0
 11
334.02205249097523
 21
424.70443626313357
 31
0.0
  0
LINE
  5
1552D
  8
0
 62
     7
 10
335.86298580367742
 20
431.64157291948447
 30
0.0
 11
334.02205249097523
 21
430.57870957583589
 31
0.0
  0
LINE
  5
1552E
  8
0
 62
     7
 10
335.86298580367719
 20
423.64157291948447
 30
0.0
 11
334.02205249097523
 21
424.70443626313357
 31
0.0
  0
ARC
  5
1552F
  8
0
 62
     7
 10
337.45728081915081
 20
429.7244208374413
 30
0.0
 40
6.082847917956407
 50
235.6157525319567
 51
304.38424746804128
  0
ARC
  5
15530
  8
0
 62
     7
 10
337.45728081915053
 20
425.55872500152822
 30
0.0
 40
6.0828479179563786
 50
55.615752531958599
 51
124.38424746804129
  0
LINE
  5
15531
  8
0
 62
     7
 10
335.86298580367742
 20
431.64157291948447
 30
0.0
 11
359.6629458036773
 21
431.64157291948447
 31
0.0
  0
LINE
  5
15532
  8
0
 62
     7
 10
335.86298580367719
 20
423.64157291948447
 30
0.0
 11
359.6629458036773
 21
423.64157291948447
 31
0.0
  0
ARC
  5
15533
  8
0
 62
     7
 10
358.06865078820391
 20
425.55872500152918
 30
0.0
 40
6.0828479179554167
 50
55.61575253194686
 51
124.38424746804129
  0
ARC
  5
15534
  8
0
 62
     7
 10
358.06865078820391
 20
429.7244208374409
 30
0.0
 40
6.082847917956351
 50
235.6157525319567
 51
304.38424746804128
  0
SOLID
  5
15535
  8
DIM
 10
360.80854254467721
 20
447.12062838638428
 30
0.0
 11
360.80854254467721
 21
448.16251745258478
 31
0.0
 12
363.76296580367728
 22
447.64157291948459
 32
0.0
 13
363.76296580367728
 23
447.64157291948459
 33
0.0
  0
LINE
  5
15536
  8
DIM
 10
363.76296580367728
 20
424.64157291948447
 30
0.0
 11
363.76296580367728
 21
448.64157291948447
 31
0.0
  0
SOLID
  5
15537
  8
DIM
 10
344.80854254467721
 20
439.12062838638428
 30
0.0
 11
344.80854254467721
 21
440.16251745258478
 31
0.0
 12
347.76296580367728
 22
439.64157291948459
 32
0.0
 13
347.76296580367728
 23
439.64157291948459
 33
0.0
  0
LINE
  5
15538
  8
DIM
 10
347.76296580367728
 20
434.64157291948459
 30
0.0
 11
347.76296580367728
 21
440.64157291948447
 31
0.0
  0
LINE
  5
15539
  8
HIDDEN
  6
HIDDEN
 10
356.26296580367728
 20
423.64157291948447
 30
0.0
 11
356.26296580367728
 21
420.64157291948447
 31
0.0
  0
LINE
  5
1553A
  8
HIDDEN
  6
HIDDEN
 10
355.26296580367728
 20
423.64157291948447
 30
0.0
 11
355.26296580367728
 21
419.64157291948447
 31
0.0
  0
LINE
  5
1553B
  8
HIDDEN
  6
HIDDEN
 10
354.51296580367739
 20
423.64157291948447
 30
0.0
 11
354.51296580367739
 21
419.64157291948447
 31
0.0
  0
LINE
  5
1553C
  8
HIDDEN
  6
HIDDEN
 10
341.01296580367728
 20
423.64157291948447
 30
0.0
 11
341.01296580367728
 21
419.64157291948447
 31
0.0
  0
LINE
  5
1553D
  8
HIDDEN
  6
HIDDEN
 10
339.26296580367728
 20
423.64157291948447
 30
0.0
 11
339.26296580367728
 21
420.64157291948447
 31
0.0
  0
LINE
  5
1553E
  8
HIDDEN
  6
HIDDEN
 10
340.26296580367739
 20
423.64157291948447
 30
0.0
 11
340.26296580367739
 21
419.64157291948447
 31
0.0
  0
LINE
  5
1553F
  8
HIDDEN
  6
HIDDEN
 10
339.26296580367728
 20
420.64157291948447
 30
0.0
 11
356.26296580367728
 21
420.64157291948447
 31
0.0
  0
LINE
  5
15540
  8
HIDDEN
  6
HIDDEN
 10
339.26296580367728
 20
419.64157291948447
 30
0.0
 11
356.26296580367728
 21
419.64157291948447
 31
0.0
  0
LINE
  5
15541
  8
HIDDEN
  6
HIDDEN
 10
337.8629658036773
 20
406.64157291948447
 30
0.0
 11
339.26296580367728
 21
420.64157291948447
 31
0.0
  0
LINE
  5
15542
  8
HIDDEN
  6
HIDDEN
 10
357.6629658036772
 20
406.64157291948447
 30
0.0
 11
356.26296580367728
 21
420.64157291948447
 31
0.0
  0
SOLID
  5
15543
  8
DIM
 10
400.2839103367773
 20
403.68714966048441
 30
0.0
 11
399.24202127057742
 21
403.68714966048441
 31
0.0
 12
399.76296580367728
 22
406.64157291948447
 32
0.0
 13
399.76296580367728
 23
406.64157291948447
 33
0.0
  0
LINE
  5
15544
  8
DIM
 10
360.7629658036771
 20
488.41323330882318
 30
0.0
 11
384.76296580367728
 21
488.41323330882318
 31
0.0
  0
LINE
  5
15545
  8
CENTER
  6
CENTER
 10
379.76296580367739
 20
481.91323330882318
 30
0.0
 11
359.76296580367728
 21
481.91323330882318
 31
0.0
  0
LINE
  5
15546
  8
0
 10
363.7629658036771
 20
492.41323330882318
 30
0.0
 11
359.7629658036771
 21
488.41323330882318
 31
0.0
  0
ARC
  5
15547
  8
0
 10
347.76296580367728
 20
503.91323330882318
 30
0.0
 40
37.25
 50
311.26407159361452
 51
318.73592840639458
  0
CIRCLE
  5
15548
  8
0
 10
369.76296580367739
 20
481.91323330882318
 30
0.0
 40
3.3999999999999999
  0
SOLID
  5
15549
  8
DIM
 10
383.24202127057742
 20
491.3676565678233
 30
0.0
 11
384.2839103367773
 21
491.3676565678233
 31
0.0
 12
383.76296580367739
 22
488.41323330882318
 32
0.0
 13
383.76296580367739
 23
488.41323330882318
 33
0.0
  0
POLYLINE
  5
1554A
  8
DIM
 66
     1
 10
0.0
 20
0.0
 30
0.0
 70
     1
  0
VERTEX
  5
15650
  8
DIM
 10
388.05601719487248
 20
502.15286409736922
 30
0.0
  0
VERTEX
  5
15651
  8
DIM
 10
390.6044798739967
 20
502.15286409736922
 30
0.0
  0
VERTEX
  5
15652
  8
DIM
 10
390.6044798739967
 20
499.60802549692522
 30
0.0
  0
VERTEX
  5
15653
  8
DIM
 10
388.05601719487248
 20
499.60802549692522
 30
0.0
  0
SEQEND
  5
15654
  8
DIM
  0
POLYLINE
  5
1554B
  8
DIM
 66
     1
 10
0.0
 20
0.0
 30
0.0
 70
     1
  0
VERTEX
  5
15655
  8
DIM
 10
396.05601719487248
 20
502.15286409736922
 30
0.0
  0
VERTEX
  5
15656
  8
DIM
 10
398.6044798739967
 20
502.15286409736922
 30
0.0
  0
VERTEX
  5
15657
  8
DIM
 10
398.6044798739967
 20
499.60802549692522
 30
0.0
  0
VERTEX
  5
15658
  8
DIM
 10
396.05601719487248
 20
499.60802549692522
 30
0.0
  0
SEQEND
  5
15659
  8
DIM
  0
TEXT
  5
1554C
  8
DIM
 10
382.76296580367728
 20
500.95995642181418
 30
0.0
 40
3.0
  1
31
 50
90.0
  7
ROMANS
  0
SOLID
  5
1554D
  8
DIM
 10
399.24202127057742
 20
478.8676565678233
 30
0.0
 11
400.2839103367773
 21
478.8676565678233
 31
0.0
 12
399.76296580367728
 22
475.91323330882318
 32
0.0
 13
399.76296580367728
 23
475.91323330882318
 33
0.0
  0
SOLID
  5
1554E
  8
DIM
 10
374.6273679217104
 20
477.79162316287778
 30
0.0
 11
373.8911385086692
 21
477.054399263618
 31
0.0
 12
372.16875096718371
 22
479.5106934554492
 32
0.0
 13
372.16875096718371
 23
479.5106934554492
 33
0.0
  0
LINE
  5
1554F
  8
DIM
 10
380.76296580367728
 20
481.91323330882318
 30
0.0
 11
392.76296580367728
 21
481.91323330882318
 31
0.0
  0
LINE
  5
15550
  8
DIM
 10
386.48569353746279
 20
465.21306388098031
 30
0.0
 11
372.16875096718371
 21
479.51069345544869
 31
0.0
  0
SOLID
  5
15551
  8
DIM
 10
391.24202127057742
 20
484.8676565678233
 30
0.0
 11
392.2839103367773
 21
484.8676565678233
 31
0.0
 12
391.76296580367728
 22
481.91323330882318
 32
0.0
 13
391.76296580367728
 23
481.91323330882318
 33
0.0
  0
LINE
  5
15552
  8
CENTER
  6
CENTER
 10
369.76296580367739
 20
491.91323330882318
 30
0.0
 11
369.76296580367739
 21
471.91323330882318
 31
0.0
  0
LINE
  5
15553
  8
0
 10
489.08776051762561
 20
406.64157291948447
 30
0.0
 11
489.08776051762561
 21
376.64157291948459
 31
0.0
  0
LINE
  5
15554
  8
0
 10
509.08776051762533
 20
406.64157291948447
 30
0.0
 11
509.08776051762561
 21
376.64157291948459
 31
0.0
  0
LINE
  5
15555
  8
DIM
 10
407.76296580367739
 20
291.64157291948447
 30
0.0
 11
407.76296580367739
 21
423.64157291948447
 31
0.0
  0
LINE
  5
15556
  8
DIM
 10
415.76296580367728
 20
291.64157291948447
 30
0.0
 11
415.76296580367728
 21
431.64157291948447
 31
0.0
  0
LINE
  5
15557
  8
CENTER
  6
CENTER
 10
499.08776051762561
 20
433.64157291948459
 30
0.0
 11
499.08776051762561
 21
289.64157291948459
 31
0.0
  0
LINE
  5
15558
  8
CENTER
  6
CENTER
 10
468.31305203324632
 20
310.64157291948447
 30
0.0
 11
485.20699752460399
 21
310.64157291948447
 31
0.0
  0
SOLID
  5
15559
  8
DIM
 10
415.24202127057742
 20
294.59599617848471
 30
0.0
 11
416.2839103367773
 21
294.59599617848471
 31
0.0
 12
415.76296580367728
 22
291.64157291948447
 32
0.0
 13
415.76296580367728
 23
291.64157291948447
 33
0.0
  0
SOLID
  5
1555A
  8
DIM
 10
407.24202127057742
 20
294.59599617848471
 30
0.0
 11
408.2839103367773
 21
294.59599617848471
 31
0.0
 12
407.76296580367739
 22
291.64157291948447
 32
0.0
 13
407.76296580367739
 23
291.64157291948447
 33
0.0
  0
TEXT
  5
1555B
  8
DIM
 10
414.76296580367728
 20
355.87559391021881
 30
0.0
 40
3.0
  1
140
 50
90.0
  7
ROMANS
  0
TEXT
  5
1555C
  8
DIM
 10
406.76296580367728
 20
341.6396646077323
 30
0.0
 40
3.0
  1
115
 50
90.0
  7
ROMANS
  0
LINE
  5
1555D
  8
0
 10
524.08776051762561
 20
372.64157291948459
 30
0.0
 11
524.08776051762561
 21
321.64157291948447
 31
0.0
  0
LINE
  5
1555E
  8
0
 10
474.08776051762561
 20
372.64157291948459
 30
0.0
 11
474.08776051762561
 21
321.64157291948447
 31
0.0
  0
LINE
  5
1555F
  8
0
 10
471.88776051762551
 20
291.64157291948447
 30
0.0
 11
526.28776051762566
 21
291.64157291948447
 31
0.0
  0
LINE
  5
15560
  8
0
 10
471.88776051762551
 20
321.64157291948447
 30
0.0
 11
526.28776051762543
 21
321.64157291948447
 31
0.0
  0
LINE
  5
15561
  8
0
 10
471.08776051762561
 20
320.84157291948441
 30
0.0
 11
527.08776051762561
 21
320.84157291948441
 31
0.0
  0
LINE
  5
15562
  8
0
 10
471.08776051762561
 20
292.44157291948432
 30
0.0
 11
527.08776051762561
 21
292.44157291948432
 31
0.0
  0
LINE
  5
15563
  8
0
 10
475.32025148638689
 20
321.64157291948447
 30
0.0
 11
474.52025148638671
 21
320.84157291948441
 31
0.0
  0
LINE
  5
15564
  8
0
 10
471.88776051762551
 20
321.64157291948447
 30
0.0
 11
471.08776051762561
 21
320.84157291948441
 31
0.0
  0
LINE
  5
15565
  8
0
 10
474.52025148638671
 20
292.44157291948432
 30
0.0
 11
475.32025148638689
 21
291.64157291948447
 31
0.0
  0
LINE
  5
15566
  8
0
 10
471.08776051762561
 20
292.44157291948432
 30
0.0
 11
471.88776051762551
 21
291.64157291948447
 31
0.0
  0
LINE
  5
15567
  8
0
 10
471.08776051762561
 20
320.84157291948441
 30
0.0
 11
471.08776051762561
 21
292.44157291948432
 31
0.0
  0
LINE
  5
15568
  8
0
  6
CONTINUOUS
 10
474.52025148638671
 20
320.84157291948441
 30
0.0
 11
474.52025148638671
 21
292.44157291948432
 31
0.0
  0
LINE
  5
15569
  8
CENTER
  6
CENTER
 10
477.08776051762561
 20
289.50504220020542
 30
0.0
 11
477.08776051762561
 21
323.8800804198508
 31
0.0
  0
LINE
  5
1556A
  8
HIDDEN
  6
HIDDEN
 10
471.08776051762561
 20
314.89157291948447
 30
0.0
 11
480.08776051762561
 21
314.41990290593731
 31
0.0
  0
LINE
  5
1556B
  8
HIDDEN
  6
HIDDEN
 10
471.08776051762561
 20
315.64157291948447
 30
0.0
 11
480.08776051762561
 21
315.16990290593719
 31
0.0
  0
LINE
  5
1556C
  8
HIDDEN
  6
HIDDEN
 10
471.08776051762561
 20
306.39157291948459
 30
0.0
 11
480.08776051762561
 21
306.86324293303181
 31
0.0
  0
LINE
  5
1556D
  8
HIDDEN
  6
HIDDEN
 10
471.08776051762561
 20
305.64157291948459
 30
0.0
 11
480.08776051762561
 21
306.11324293303181
 31
0.0
  0
LINE
  5
1556E
  8
HIDDEN
  6
HIDDEN
 10
480.48776051762559
 20
291.64157291948447
 30
0.0
 11
480.48776051762559
 21
321.64157291948447
 31
0.0
  0
LINE
  5
1556F
  8
HIDDEN
  6
HIDDEN
 10
473.68776051762552
 20
291.64157291948447
 30
0.0
 11
473.68776051762552
 21
321.64157291948447
 31
0.0
  0
LINE
  5
15570
  8
0
 10
522.85526954886427
 20
321.64157291948447
 30
0.0
 11
523.65526954886423
 21
320.84157291948441
 31
0.0
  0
LINE
  5
15571
  8
0
 10
527.08776051762561
 20
320.84157291948441
 30
0.0
 11
526.28776051762543
 21
321.64157291948447
 31
0.0
  0
LINE
  5
15572
  8
0
 10
523.65526954886423
 20
292.44157291948432
 30
0.0
 11
522.85526954886427
 21
291.64157291948447
 31
0.0
  0
LINE
  5
15573
  8
0
 10
526.28776051762566
 20
291.64157291948447
 30
0.0
 11
527.08776051762561
 21
292.44157291948471
 31
0.0
  0
LINE
  5
15574
  8
0
 10
527.08776051762561
 20
292.44157291948471
 30
0.0
 11
527.08776051762561
 21
320.84157291948441
 31
0.0
  0
LINE
  5
15575
  8
0
  6
CONTINUOUS
 10
523.65526954886445
 20
320.84157291948441
 30
0.0
 11
523.65526954886423
 21
292.44157291948432
 31
0.0
  0
LINE
  5
15576
  8
CENTER
  6
CENTER
 10
521.08776051762561
 20
289.50504220020542
 30
0.0
 11
521.08776051762561
 21
323.8800804198508
 31
0.0
  0
LINE
  5
15577
  8
HIDDEN
  6
HIDDEN
 10
517.68776051762552
 20
291.64157291948447
 30
0.0
 11
517.68776051762552
 21
321.64157291948447
 31
0.0
  0
LINE
  5
15578
  8
HIDDEN
  6
HIDDEN
 10
524.4877605176257
 20
291.64157291948447
 30
0.0
 11
524.4877605176257
 21
321.64157291948447
 31
0.0
  0
LINE
  5
15579
  8
0
 10
520.0877605176255
 20
376.64157291948459
 30
0.0
 11
478.08776051762538
 21
376.64157291948459
 31
0.0
  0
LINE
  5
1557A
  8
0
 62
     4
 10
524.08776051762561
 20
372.64157291948459
 30
0.0
 11
474.08776051762561
 21
372.64157291948459
 31
0.0
  0
ARC
  5
1557B
  8
0
 10
478.08776051762538
 20
372.64157291948459
 30
0.0
 40
4.0
 50
90.0
 51
180.0
  0
LINE
  5
1557C
  8
CENTER
  6
CENTER
 10
471.31305203324621
 20
362.64157291948459
 30
0.0
 11
488.20699752460399
 21
362.64157291948459
 31
0.0
  0
LINE
  5
1557D
  8
HIDDEN
  6
HIDDEN
 10
474.08776051762538
 20
366.89157291948447
 30
0.0
 11
483.0877605176255
 21
366.41990290593731
 31
0.0
  0
LINE
  5
1557E
  8
HIDDEN
  6
HIDDEN
 10
474.08776051762538
 20
367.64157291948447
 30
0.0
 11
483.0877605176255
 21
367.16990290593719
 31
0.0
  0
LINE
  5
1557F
  8
HIDDEN
  6
HIDDEN
 10
474.08776051762538
 20
358.39157291948459
 30
0.0
 11
483.0877605176255
 21
358.86324293303181
 31
0.0
  0
LINE
  5
15580
  8
HIDDEN
  6
HIDDEN
 10
474.08776051762538
 20
357.64157291948447
 30
0.0
 11
483.0877605176255
 21
358.11324293303181
 31
0.0
  0
ARC
  5
15581
  8
0
 10
520.0877605176255
 20
372.64157291948459
 30
0.0
 40
4.0
 50
0.0
 51
90.0
  0
SOLID
  5
15582
  8
DIM
 10
416.2839103367773
 20
428.68714966048441
 30
0.0
 11
415.24202127057742
 21
428.68714966048441
 31
0.0
 12
415.76296580367728
 22
431.64157291948447
 32
0.0
 13
415.76296580367728
 23
431.64157291948447
 33
0.0
  0
SOLID
  5
15583
  8
DIM
 10
408.2839103367773
 20
420.68714966048441
 30
0.0
 11
407.24202127057742
 21
420.68714966048441
 31
0.0
 12
407.76296580367739
 22
423.64157291948447
 32
0.0
 13
407.76296580367739
 23
423.64157291948447
 33
0.0
  0
SOLID
  5
15584
  8
DIM
 10
408.2839103367773
 20
403.68714966048441
 30
0.0
 11
407.24202127057742
 21
403.68714966048441
 31
0.0
 12
407.76296580367739
 22
406.64157291948447
 32
0.0
 13
407.76296580367739
 23
406.64157291948447
 33
0.0
  0
SOLID
  5
15585
  8
DIM
 10
408.2839103367773
 20
409.59599617848471
 30
0.0
 11
407.24202127057742
 21
409.59599617848471
 31
0.0
 12
407.76296580367739
 22
406.64157291948447
 32
0.0
 13
407.76296580367739
 23
406.64157291948447
 33
0.0
  0
TEXT
  5
15586
  8
DIM
 10
406.76296580367728
 20
412.03629419082239
 30
0.0
 40
3.0
  1
17
 50
90.0
  7
ROMANS
  0
ARC
  5
15587
  8
0
 62
     7
 10
505.08776051762533
 20
414.1747561790562
 30
0.0
 40
17.46681674042852
 50
69.909224437731837
 51
110.09077556226811
  0
ARC
  5
15588
  8
0
 62
     7
 10
505.08776051762561
 20
441.10838965991741
 30
0.0
 40
17.466816740433082
 50
249.90922443773181
 51
290.09077556226811
  0
LINE
  5
15589
  8
0
 10
483.58776051762561
 20
406.64157291948447
 30
0.0
 11
514.58776051762561
 21
406.64157291948447
 31
0.0
  0
LINE
  5
1558A
  8
0
 10
514.58776051762561
 20
423.64157291948447
 30
0.0
 11
483.58776051762561
 21
423.64157291948447
 31
0.0
  0
LINE
  5
1558B
  8
0
 62
     7
 10
487.0877605176255
 20
431.64157291948447
 30
0.0
 11
511.08776051762561
 21
431.64157291948447
 31
0.0
  0
LINE
  5
1558C
  8
0
 62
     7
 10
487.18778051762553
 20
423.64157291948447
 30
0.0
 11
510.98774051762553
 21
423.64157291948447
 31
0.0
  0
LINE
  5
1558D
  8
0
 62
     7
 10
499.08776051762561
 20
430.57870957583549
 30
0.0
 11
499.08776051762561
 21
424.70443626313312
 31
0.0
  0
LINE
  5
1558E
  8
0
 62
     7
 10
487.0877605176255
 20
431.64157291948447
 30
0.0
 11
487.0877605176255
 21
423.64157291948447
 31
0.0
  0
LINE
  5
1558F
  8
0
 10
483.58776051762561
 20
406.64157291948447
 30
0.0
 11
483.58776051762561
 21
423.64157291948447
 31
0.0
  0
LINE
  5
15590
  8
0
 10
487.5877605176255
 20
406.64157291948447
 30
0.0
 11
487.5877605176255
 21
423.64157291948447
 31
0.0
  0
ARC
  5
15591
  8
0
 62
     7
 10
493.08776051762561
 20
414.1747561790562
 30
0.0
 40
17.46681674042852
 50
69.909224437731837
 51
110.09077556226811
  0
ARC
  5
15592
  8
0
 62
     7
 10
493.08776051762561
 20
441.10838965991741
 30
0.0
 40
17.466816740433082
 50
249.90922443773181
 51
290.09077556226811
  0
LINE
  5
15593
  8
0
 62
     7
 10
511.08776051762561
 20
431.64157291948447
 30
0.0
 11
511.08776051762561
 21
423.64157291948447
 31
0.0
  0
LINE
  5
15594
  8
0
 10
514.58776051762561
 20
406.64157291948447
 30
0.0
 11
514.58776051762561
 21
423.64157291948447
 31
0.0
  0
LINE
  5
15595
  8
0
 10
510.58776051762561
 20
406.64157291948447
 30
0.0
 11
510.58776051762561
 21
423.64157291948447
 31
0.0
  0
LINE
  5
15596
  8
DIM
 10
373.33047483491617
 20
531.91323330882324
 30
0.0
 11
400.76296580367739
 21
531.91323330882324
 31
0.0
  0
POLYLINE
  5
15597
  8
0
 66
     1
 10
0.0
 20
0.0
 30
0.0
  0
VERTEX
  5
1565A
  8
0
 10
372.330474834916
 20
531.91323330882324
 30
0.0
  0
VERTEX
  5
1565B
  8
0
 10
323.19545677243849
 20
531.91323330882324
 30
0.0
  0
SEQEND
  5
1565C
  8
0
  0
LINE
  5
15598
  8
0
 10
359.76296580367728
 20
519.41323330882324
 30
0.0
 11
308.88732145665921
 21
519.41323330882358
 31
0.0
  0
LINE
  5
15599
  8
CENTER
  6
CENTER
 10
315.76296580367728
 20
525.91323330882324
 30
0.0
 11
335.76296580367739
 21
525.91323330882324
 31
0.0
  0
LINE
  5
1559A
  8
0
 10
282.76296580367728
 20
512.41323330882369
 30
0.0
 11
308.88732145665921
 21
519.41323330882358
 31
0.0
  0
POLYLINE
  5
1559B
  8
DIM
 66
     1
 10
0.0
 20
0.0
 30
0.0
 70
     7
  0
VERTEX
  5
1559C
  8
DIM
 10
281.37844412543791
 20
518.74592643998176
 30
0.0
 42
-0.0185322085214218
  0
VERTEX
  5
1559D
  8
DIM
 10
283.40761719531741
 20
523.14702567966287
 30
0.0
  0
VERTEX
  5
1559E
  8
DIM
 10
282.87242479071779
 20
523.41826190522806
 30
0.0
  0
VERTEX
  5
1559F
  8
DIM
 10
285.49490957405118
 20
525.4524595440771
 30
0.0
  0
VERTEX
  5
155A0
  8
DIM
 10
285.28079061141671
 20
522.19769889018471
 30
0.0
  0
VERTEX
  5
155A1
  8
DIM
 10
284.74559820681679
 20
522.4689351157499
 30
0.0
 42
0.018532208521422
  0
VERTEX
  5
155A2
  8
DIM
 10
282.76296580367728
 20
518.16877851918025
 30
0.0
  0
SEQEND
  5
155A3
  8
DIM
  0
TEXT
  5
155A4
  8
DIM
 10
269.44747366266211
 20
520.72044168021137
 30
0.0
 40
4.0
  1
CW
  7
ROMANS
  0
ARC
  5
155A5
  8
0
 10
347.76296580367728
 20
503.91323330882318
 30
0.0
 40
37.25
 50
131.26407159361449
 51
138.7359284063935
  0
POLYLINE
  5
155A6
  8
0
 66
     1
 10
0.0
 20
0.0
 30
0.0
  0
VERTEX
  5
1565D
  8
0
 10
319.76296580367739
 20
528.48074234006208
 30
0.0
  0
VERTEX
  5
1565E
  8
0
 10
319.76296580367739
 20
519.41323330882358
 30
0.0
  0
SEQEND
  5
1565F
  8
0
  0
CIRCLE
  5
155A7
  8
0
 10
325.76296580367739
 20
525.91323330882324
 30
0.0
 40
3.3999999999999999
  0
LINE
  5
155A8
  8
CENTER
  6
CENTER
 10
325.76296580367739
 20
515.91323330882324
 30
0.0
 11
325.76296580367739
 21
535.91323330882324
 31
0.0
  0
LINE
  5
155A9
  8
DIM
 10
360.76296580367739
 20
519.41323330882324
 30
0.0
 11
384.76296580367728
 21
519.41323330882324
 31
0.0
  0
LINE
  5
155AA
  8
CENTER
  6
CENTER
 10
359.76296580367728
 20
525.91323330882324
 30
0.0
 11
379.76296580367739
 21
525.91323330882324
 31
0.0
  0
LINE
  5
155AB
  8
0
 10
359.76296580367728
 20
519.41323330882324
 30
0.0
 11
363.76296580367728
 21
515.41323330882324
 31
0.0
  0
ARC
  5
155AC
  8
0
 10
347.76296580367728
 20
503.91323330882318
 30
0.0
 40
37.25
 50
41.264071593605351
 51
48.735928406385462
  0
CIRCLE
  5
155AD
  8
0
 10
369.76296580367739
 20
525.91323330882324
 30
0.0
 40
3.3999999999999999
  0
SOLID
  5
155AE
  8
DIM
 10
400.2839103367773
 20
528.95881004982346
 30
0.0
 11
399.24202127057742
 21
528.95881004982346
 31
0.0
 12
399.76296580367728
 22
531.91323330882324
 32
0.0
 13
399.76296580367728
 23
531.91323330882324
 33
0.0
  0
SOLID
  5
155AF
  8
DIM
 10
392.2839103367773
 20
522.95881004982357
 30
0.0
 11
391.24202127057742
 21
522.95881004982357
 31
0.0
 12
391.76296580367728
 22
525.91323330882324
 32
0.0
 13
391.76296580367728
 23
525.91323330882324
 33
0.0
  0
LINE
  5
155B0
  8
DIM
 10
380.76296580367728
 20
525.91323330882324
 30
0.0
 11
392.76296580367728
 21
525.91323330882324
 31
0.0
  0
SOLID
  5
155B1
  8
DIM
 10
384.2839103367773
 20
516.45881004982311
 30
0.0
 11
383.24202127057742
 21
516.45881004982311
 31
0.0
 12
383.76296580367739
 22
519.41323330882324
 32
0.0
 13
383.76296580367739
 23
519.41323330882324
 33
0.0
  0
LINE
  5
155B2
  8
CENTER
  6
CENTER
 10
369.76296580367739
 20
535.91323330882324
 30
0.0
 11
369.76296580367739
 21
515.91323330882324
 31
0.0
  0
ENDSEC
  0
EOF
