  0
SECTION
  2
HEADER
  9
$ACADVER
  1
AC1009
  9
$INSBASE
 10
0.0
 20
0.0
 30
0.0
  9
$EXTMIN
 10
185.86065972067939
 20
192.6196310862662
 30
-0.0015258207003583
  9
$EXTMAX
 10
505.99127394472168
 20
466.97570952933251
 30
0.0000000349246037
  9
$LIMMIN
 10
0.0
 20
0.0
  9
$LIMMAX
 10
1188.0
 20
840.0
  9
$ORTHOMODE
 70
     1
  9
$REGENMODE
 70
     1
  9
$FILLMODE
 70
     1
  9
$QTEXTMODE
 70
     0
  9
$MIRRTEXT
 70
     1
  9
$DRAGMODE
 70
     2
  9
$LTSCALE
 40
1.0
  9
$OSMODE
 70
    39
  9
$ATTMODE
 70
     1
  9
$TEXTSIZE
 40
3.0
  9
$TRACEWID
 40
0.05
  9
$TEXTSTYLE
  7
ITALICT
  9
$CLAYER
  8
0
  9
$CELTYPE
  6
CONTINUOUS
  9
$CECOLOR
 62
   256
  9
$DIMSCALE
 40
1.0
  9
$DIMASZ
 40
3.0
  9
$DIMEXO
 40
1.0
  9
$DIMDLI
 40
1.4824161510814720E+016
  9
$DIMRND
 40
0.0
  9
$DIMDLE
 40
0.0
  9
$DIMEXE
 40
1.0
  9
$DIMTP
 40
0.15
  9
$DIMTM
 40
-0.1
  9
$DIMTXT
 40
3.0
  9
$DIMCEN
 40
2.0
  9
$DIMTSZ
 40
0.0
  9
$DIMTOL
 70
     0
  9
$DIMLIM
 70
     0
  9
$DIMTIH
 70
     0
  9
$DIMTOH
 70
     0
  9
$DIMSE1
 70
     0
  9
$DIMSE2
 70
     0
  9
$DIMTAD
 70
     1
  9
$DIMZIN
 70
     0
  9
$DIMBLK
  1

  9
$DIMASO
 70
     0
  9
$DIMSHO
 70
     0
  9
$DIMPOST
  1

  9
$DIMAPOST
  1

  9
$DIMALT
 70
     0
  9
$DIMALTD
 70
     2
  9
$DIMALTF
 40
25.399999999999999
  9
$DIMLFAC
 40
1.0
  9
$DIMTOFL
 70
     1
  9
$DIMTVP
 40
1.0
  9
$DIMTIX
 70
     0
  9
$DIMSOXD
 70
     0
  9
$DIMSAH
 70
     0
  9
$DIMBLK1
  1

  9
$DIMBLK2
  1

  9
$DIMSTYLE
  2
STANDARD
  9
$DIMCLRD
 70
     0
  9
$DIMCLRE
 70
     0
  9
$DIMCLRT
 70
     0
  9
$DIMTFAC
 40
1.0
  9
$DIMGAP
 40
1.0
  9
$LUNITS
 70
     2
  9
$LUPREC
 70
     2
  9
$SKETCHINC
 40
0.1
  9
$FILLETRAD
 40
0.0
  9
$AUNITS
 70
     0
  9
$AUPREC
 70
     2
  9
$MENU
  1
ACAD
  9
$ELEVATION
 40
0.0
  9
$PELEVATION
 40
0.0
  9
$THICKNESS
 40
0.0
  9
$LIMCHECK
 70
     0
  9
$BLIPMODE
 70
     0
  9
$CHAMFERA
 40
0.0
  9
$CHAMFERB
 40
0.0
  9
$SKPOLY
 70
     1
  9
$TDCREATE
 40
2450580.7034460641
  9
$TDUPDATE
 40
2452055.6432534601
  9
$TDINDWG
 40
0.5753084144
  9
$TDUSRTIMER
 40
0.5753084144
  9
$USRTIMER
 70
     1
  9
$ANGBASE
 50
0.0
  9
$ANGDIR
 70
     0
  9
$PDMODE
 70
     0
  9
$PDSIZE
 40
0.0
  9
$PLINEWID
 40
0.0
  9
$COORDS
 70
     2
  9
$SPLFRAME
 70
     0
  9
$SPLINETYPE
 70
     6
  9
$SPLINESEGS
 70
     8
  9
$ATTDIA
 70
     0
  9
$ATTREQ
 70
     1
  9
$HANDLING
 70
 12289
  9
$HANDSEED
  5
14E63
  9
$SURFTAB1
 70
     6
  9
$SURFTAB2
 70
     6
  9
$SURFTYPE
 70
     6
  9
$SURFU
 70
     6
  9
$SURFV
 70
     6
  9
$UCSNAME
  2

  9
$UCSORG
 10
0.0
 20
0.0
 30
0.0
  9
$UCSXDIR
 10
1.0
 20
0.0
 30
0.0
  9
$UCSYDIR
 10
0.0
 20
1.0
 30
0.0
  9
$PUCSNAME
  2

  9
$PUCSORG
 10
0.0
 20
0.0
 30
0.0
  9
$PUCSXDIR
 10
1.0
 20
0.0
 30
0.0
  9
$PUCSYDIR
 10
0.0
 20
1.0
 30
0.0
  9
$USERI1
 70
     0
  9
$USERI2
 70
-31485
  9
$USERI3
 70
     0
  9
$USERI4
 70
     0
  9
$USERI5
 70
     0
  9
$USERR1
 40
0.0
  9
$USERR2
 40
0.0
  9
$USERR3
 40
0.0
  9
$USERR4
 40
0.0
  9
$USERR5
 40
0.0
  9
$WORLDVIEW
 70
     1
  9
$SHADEDGE
 70
     3
  9
$SHADEDIF
 70
    70
  9
$TILEMODE
 70
     1
  9
$MAXACTVP
 70
    16
  9
$PLIMCHECK
 70
     0
  9
$PEXTMIN
 10
1.0000000000000000E+020
 20
1.0000000000000000E+020
 30
1.0000000000000000E+020
  9
$PEXTMAX
 10
-1.0000000000000000E+020
 20
-1.0000000000000000E+020
 30
-1.0000000000000000E+020
  9
$PLIMMIN
 10
0.0
 20
0.0
  9
$PLIMMAX
 10
12.0
 20
9.0
  9
$UNITMODE
 70
     0
  9
$VISRETAIN
 70
     0
  9
$PLINEGEN
 70
     0
  9
$PSLTSCALE
 70
     0
  0
ENDSEC
  0
SECTION
  2
TABLES
  0
TABLE
  2
VPORT
 70
     3
  0
VPORT
  2
*ACTIVE
 70
     0
 10
0.0
 20
0.0
 11
1.0
 21
1.0
 12
345.30848391224572
 22
329.5935175353024
 13
0.0
 23
0.0
 14
1.0
 24
1.0
 15
0.0
 25
0.0
 16
0.0
 26
0.0
 36
1.0
 17
0.0
 27
0.0
 37
0.0
 40
277.83218542487339
 41
1.7274401473296499
 42
1.0
 43
0.0
 44
0.0
 50
0.0
 51
0.0
 71
     0
 72
   100
 73
     1
 74
     1
 75
     0
 76
     0
 77
     0
 78
     0
  0
ENDTAB
  0
TABLE
  2
LTYPE
 70
     4
  0
LTYPE
  2
CONTINUOUS
 70
     0
  3
Solid line
 72
    65
 73
     0
 40
0.0
  0
LTYPE
  2
CENTER
 70
     0
  3
____________________ _ ____________________ _ 
 72
    65
 73
     4
 40
34.5
 49
30.0
 49
-1.5
 49
1.5
 49
-1.5
  0
LTYPE
  2
HIDDEN
 70
     0
  3
___ ___ ___ ___ ___ ___ ___ ___ ___ ___ 
 72
    65
 73
     2
 40
6.0
 49
4.5
 49
-1.5
  0
LTYPE
  2
PHANTOM
 70
     0
  3
__________ _ _ __________ _ _ __________ _ _ 
 72
    65
 73
     6
 40
15.0
 49
10.0
 49
-1.0
 49
1.0
 49
-1.0
 49
1.0
 49
-1.0
  0
ENDTAB
  0
TABLE
  2
LAYER
 70
     6
  0
LAYER
  2
0
 70
     0
 62
     7
  6
CONTINUOUS
  0
LAYER
  2
LOGO
 70
     0
 62
     7
  6
CONTINUOUS
  0
LAYER
  2
DIM
 70
     0
 62
     5
  6
CONTINUOUS
  0
LAYER
  2
CENTER
 70
     0
 62
     1
  6
CONTINUOUS
  0
LAYER
  2
HIDDEN
 70
     0
 62
     3
  6
CONTINUOUS
  0
LAYER
  2
UMCL3
 70
     0
 62
     1
  6
CONTINUOUS
  0
ENDTAB
  0
TABLE
  2
STYLE
 70
     7
  0
STYLE
  2
STANDARD
 70
     0
 40
0.0
 41
1.0
 50
0.0
 71
     0
 42
3.0
  3
txt
  4

  0
STYLE
  2
ITALICT
 70
     0
 40
0.0
 41
1.0
 50
0.0
 71
     0
 42
3.0
  3
ITALICT.SHX
  4

  0
STYLE
  2
ROMANSS
 70
     0
 40
0.0
 41
1.0
 50
0.0
 71
     0
 42
3.0
  3
ROMANSS.SHX
  4
LMP
  0
STYLE
  2
CHINESET
 70
     0
 40
0.0
 41
1.0
 50
0.0
 71
     0
 42
5.0
  3
simplex.shx
  4
chineset.shx
  0
STYLE
  2
LOGO
 70
     0
 40
0.0
 41
1.0
 50
0.0
 71
     0
 42
5.0
  3
txt
  4

  0
STYLE
  2
ROMANS
 70
     0
 40
0.0
 41
1.0
 50
0.0
 71
     0
 42
3.0
  3
ROMANS.SHX
  4
LMP
  0
STYLE
  2
ROMANS1
 70
     0
 40
0.0
 41
1.0
 50
0.0
 71
     0
 42
3.0
  3
ROMANS.SHX
  4

  0
ENDTAB
  0
TABLE
  2
VIEW
 70
     0
  0
ENDTAB
  0
TABLE
  2
UCS
 70
     0
  0
ENDTAB
  0
TABLE
  2
APPID
 70
     1
  0
APPID
  2
ACAD
 70
     0
  0
ENDTAB
  0
TABLE
  2
DIMSTYLE
 70
     1
  0
DIMSTYLE
  2
STANDARD
 70
     0
  3

  4

  5

  6

  7

 40
1.0
 41
0.18
 42
0.0625
 43
0.38
 44
0.18
 45
0.0
 46
0.0
 47
0.0
 48
0.0
140
0.18
141
0.09
142
0.0
143
25.399999999999999
144
1.0
145
0.0
146
1.0
147
0.09
 71
     0
 72
     0
 73
     1
 74
     1
 75
     0
 76
     0
 77
     0
 78
     0
170
     0
171
     2
172
     0
173
     0
174
     0
175
     0
176
     0
177
     0
178
     0
  0
ENDTAB
  0
ENDSEC
  0
SECTION
  2
BLOCKS
  0
BLOCK
  8
0
  2
$MODEL_SPACE
 70
     0
 10
0.0
 20
0.0
 30
0.0
  3
$MODEL_SPACE
  1

  0
ENDBLK
  5
3E
  8
0
  0
BLOCK
 67
     1
  8
0
  2
$PAPER_SPACE
 70
     0
 10
0.0
 20
0.0
 30
0.0
  3
$PAPER_SPACE
  1

  0
ENDBLK
  5
3C
 67
     1
  8
0
  0
ENDSEC
  0
SECTION
  2
ENTITIES
  0
LINE
  5
B2B
  8
0
 62
     4
 10
185.86272374947831
 20
232.92671314659441
 30
0.0
 11
185.86272374947831
 21
466.9577453877942
 31
0.0
  0
LINE
  5
B2D
  8
0
 62
     4
 10
505.92834892189939
 20
232.92671314659441
 30
0.0
 11
185.86272374947831
 21
232.92671314659441
 31
0.0
  0
LINE
  5
B2E
  8
0
 62
     4
 10
185.86272374947831
 20
466.9577453877942
 30
0.0
 11
505.9283489218995
 21
466.95774538779358
 31
0.0
  0
LINE
  5
B2F
  8
0
 62
     4
 10
505.9283489218995
 20
466.95774538779381
 30
0.0
 11
505.92834892189939
 21
232.92671314659441
 31
0.0
  0
LINE
  5
D2E
  8
LOGO
 62
     1
 10
505.92834892189939
 20
192.67417446185979
 30
0.0
 11
185.86272374947831
 21
192.67417446185979
 31
0.0
  0
LINE
  5
D2F
  8
LOGO
 62
     1
 10
505.92834892189939
 20
232.92671314659441
 30
0.0
 11
185.86272374947831
 21
232.92671314659441
 31
0.0
  0
TEXT
  5
D35
  8
LOGO
 62
     7
 10
277.71317590953089
 20
222.8483929141041
 30
0.0
 40
8.0505077369469227
  1
訂購代號:
  7
CHINESET
  0
TEXT
  5
D36
  8
LOGO
 62
     7
 10
276.75029080086529
 20
215.29276090428741
 30
0.0
 40
5.3670051579646154
  1
Order example:
 41
0.8
  7
CHINESET
  0
TEXT
  5
D37
  8
LOGO
  6
CONTINUOUS
 62
     5
 10
188.9091421950921
 20
194.5426611861391
 30
0.0
 40
4.0252538684734613
  1
MINDMAN INDUSTRIAL CO.,LTD
 41
0.85
  7
CHINESET
  0
TEXT
  5
D38
  8
LOGO
  6
CONTINUOUS
 62
     5
 10
187.18025730344351
 20
200.5817249400985
 30
0.0
 40
6.0378808027101938
  1
金器工業股份有限公司
 41
0.8
  7
LOGO
  0
SOLID
  5
D39
  8
LOGO
 62
     2
 10
200.7815455440136
 20
215.46660154231989
 30
0.0
 11
201.50171691645539
 21
215.46660154231989
 31
0.0
 12
209.78368769952931
 22
231.97052882743279
 32
0.0
 13
210.50385907197111
 23
231.97052882743159
 33
0.0
  0
SOLID
  5
D3A
  8
LOGO
 62
     5
 10
201.50171691645539
 20
215.46660154231989
 30
0.0
 11
203.24213106652149
 21
215.46660154231989
 31
0.0
 12
209.78368769952931
 22
230.65021464462319
 32
0.0
 13
208.0432735494629
 23
224.26869609437929
 33
0.0
  0
SOLID
  5
D3B
  8
LOGO
 62
     5
 10
201.50171691645539
 20
216.78691572512841
 30
0.0
 11
203.24213106652149
 21
223.16843427537219
 31
0.0
 12
209.78368769952931
 22
231.97052882743279
 32
0.0
 13
208.0432735494629
 23
231.97052882743279
 33
0.0
  0
LINE
  5
D3C
  8
LOGO
 62
     1
 10
274.41830885589451
 20
208.7751899357537
 30
0.0
 11
185.86272374947819
 21
208.7751899357537
 31
0.0
  0
SOLID
  5
D3D
  8
LOGO
 62
     2
 10
200.7815455440136
 20
231.97052882743159
 30
0.0
 11
201.50171691645539
 21
231.97052882743159
 31
0.0
 12
200.7815455440136
 22
215.46660154231989
 32
0.0
 13
201.50171691645539
 23
215.46660154231989
 33
0.0
  0
SOLID
  5
D3E
  8
LOGO
 62
     2
 10
191.7794033884974
 20
215.46660154231941
 30
0.0
 11
192.49957476093971
 21
215.46660154231989
 31
0.0
 12
200.7815455440136
 22
231.97052882743159
 32
0.0
 13
201.50171691645539
 23
231.97052882743159
 33
0.0
  0
SOLID
  5
D3F
  8
LOGO
 62
     5
 10
201.50171691645539
 20
231.97052882743159
 30
0.0
 11
203.24213106652149
 21
231.97052882743279
 31
0.0
 12
201.50171691645539
 22
216.78691572512841
 32
0.0
 13
203.24213106652149
 23
223.16843427537219
 33
0.0
  0
SOLID
  5
D40
  8
LOGO
 62
     5
 10
199.04113139394741
 20
215.46660154231989
 30
0.0
 11
200.7815455440136
 21
215.46660154231989
 31
0.0
 12
199.04113139394741
 22
224.26869609437929
 32
0.0
 13
200.7815455440136
 23
230.65021464462319
 33
0.0
  0
SOLID
  5
D41
  8
LOGO
 62
     5
 10
192.49957476093971
 20
215.46660154231989
 30
0.0
 11
194.23998891100581
 21
215.46660154231989
 31
0.0
 12
200.7815455440136
 22
230.65021464462319
 32
0.0
 13
199.04113139394741
 23
224.26869609437929
 33
0.0
  0
SOLID
  5
D42
  8
LOGO
 62
     5
 10
190.03898923843099
 20
215.46660154231989
 30
0.0
 11
191.7794033884974
 21
215.46660154231941
 31
0.0
 12
199.04113139394741
 22
231.97052882743279
 32
0.0
 13
200.7815455440136
 23
231.97052882743159
 33
0.0
  0
LINE
  5
D43
  8
LOGO
 62
     1
 10
185.86272374947831
 20
192.67417446185979
 30
0.0
 11
185.86272374947831
 21
232.92671314659441
 31
0.0
  0
SOLID
  5
D44
  8
LOGO
 62
     5
 10
193.13962706819609
 20
212.46588749048109
 30
0.0
 11
193.73976987856491
 21
212.46588749048109
 31
0.0
 12
193.13962706819609
 22
209.46517343864181
 32
0.0
 13
193.73976987856491
 23
209.46517343864289
 33
0.0
  0
SOLID
  5
D45
  8
LOGO
 62
     5
 10
193.13962706819609
 20
212.8859874577382
 30
0.0
 11
193.73976987856491
 21
212.8859874577382
 31
0.0
 12
193.13962706819609
 22
213.36610170603299
 32
0.0
 13
193.73976987856491
 23
213.36610170603299
 33
0.0
  0
SOLID
  5
D46
  8
LOGO
 62
     5
 10
191.82906190553919
 20
212.46588749048109
 30
0.0
 11
192.4292047159062
 21
212.46588749048109
 31
0.0
 12
191.82906190553919
 22
209.46517343864289
 32
0.0
 13
192.4292047159062
 23
209.46517343864289
 33
0.0
  0
SOLID
  5
D47
  8
LOGO
 62
     5
 10
189.5388702297916
 20
209.46517343864289
 30
0.0
 11
190.13901304015889
 21
209.46517343864289
 31
0.0
 12
191.82906190553919
 22
212.46588749048109
 32
0.0
 13
192.4292047159062
 23
212.46588749048109
 33
0.0
  0
SOLID
  5
D48
  8
LOGO
 62
     5
 10
189.5388702297916
 20
212.46588749048109
 30
0.0
 11
190.13901304015889
 21
212.46588749048109
 31
0.0
 12
189.5388702297916
 22
209.46517343864289
 32
0.0
 13
190.13901304015889
 23
209.46517343864289
 33
0.0
  0
SOLID
  5
D49
  8
LOGO
 62
     5
 10
187.24867855404489
 20
209.46517343864289
 30
0.0
 11
187.84882136441311
 21
209.46517343864289
 31
0.0
 12
189.5388702297916
 22
212.46588749048109
 32
0.0
 13
190.13901304015889
 23
212.46588749048109
 33
0.0
  0
SOLID
  5
D4A
  8
LOGO
 62
     5
 10
204.84247188464809
 20
211.26560186974561
 30
0.0
 11
205.4426146950151
 21
211.26560186974561
 31
0.0
 12
204.84247188464809
 22
209.46517343864181
 32
0.0
 13
205.4426146950151
 23
209.46517343864181
 33
0.0
  0
SOLID
  5
D4B
  8
LOGO
 62
     5
 10
203.0420434535452
 20
211.26560186974561
 30
0.0
 11
203.64218626391249
 21
211.26560186974561
 31
0.0
 12
203.0420434535452
 22
209.46517343864289
 32
0.0
 13
203.64218626391249
 23
209.46517343864289
 33
0.0
  0
SOLID
  5
D4C
  8
LOGO
 62
     5
 10
201.2416150224426
 20
212.46588749048109
 30
0.0
 11
201.8417578328098
 21
212.46588749048109
 31
0.0
 12
201.2416150224426
 22
209.46517343864289
 32
0.0
 13
201.8417578328098
 23
209.46517343864289
 33
0.0
  0
SOLID
  5
D4D
  8
LOGO
 62
     5
 10
199.94128559521829
 20
213.36610170603299
 30
0.0
 11
200.54142840558549
 21
213.36610170603299
 31
0.0
 12
199.94128559521829
 22
209.46517343864289
 32
0.0
 13
200.54142840558549
 23
209.46517343864289
 33
0.0
  0
POLYLINE
  5
D4E
  8
LOGO
 62
     5
 66
     1
 10
0.0
 20
0.0
 30
0.0
 70
     1
 40
0.6011045776920371
 41
0.6011045776920371
  0
VERTEX
  5
14E2E
  8
LOGO
 62
     5
 10
197.83892223856279
 20
210.96553046456179
 30
0.0
 42
1.0
  0
VERTEX
  5
14E2F
  8
LOGO
 62
     5
 10
200.24334054933101
 20
210.96553046456179
 30
0.0
 42
1.0
  0
SEQEND
  5
14E30
  8
LOGO
 62
     5
  0
SOLID
  5
D4F
  8
LOGO
 62
     5
 10
196.24038492652301
 20
211.26560186974561
 30
0.0
 11
196.8405277368914
 21
211.26560186974561
 31
0.0
 12
196.24038492652301
 22
209.46517343864289
 32
0.0
 13
196.8405277368914
 23
209.46517343864289
 33
0.0
  0
SOLID
  5
D50
  8
LOGO
 62
     5
 10
194.4399564954204
 20
212.46588749048109
 30
0.0
 11
195.04009930578761
 21
212.46588749048109
 31
0.0
 12
194.4399564954204
 22
209.46517343864289
 32
0.0
 13
195.04009930578761
 23
209.46517343864289
 33
0.0
  0
POLYLINE
  5
D51
  8
LOGO
 62
     5
 66
     1
 10
0.0
 20
0.0
 30
0.0
 40
0.6011045776920371
 41
0.6011045776920371
  0
VERTEX
  5
14E31
  8
LOGO
 62
     5
 10
196.5418989826936
 20
211.2656018697455
 30
0.0
 42
1.0
  0
VERTEX
  5
14E32
  8
LOGO
 62
     5
 10
194.7385852496173
 20
211.2656018697455
 30
0.0
 42
1.0
  0
SEQEND
  5
14E33
  8
LOGO
 62
     5
  0
POLYLINE
  5
D52
  8
LOGO
 62
     5
 66
     1
 10
0.0
 20
0.0
 30
0.0
 40
0.6011045776920371
 41
0.6011045776920371
  0
VERTEX
  5
14E34
  8
LOGO
 62
     5
 10
205.14398594081831
 20
211.2656018697455
 30
0.0
 42
1.0
  0
VERTEX
  5
14E35
  8
LOGO
 62
     5
 10
203.3406722077421
 20
211.2656018697455
 30
0.0
 42
1.0
  0
SEQEND
  5
14E36
  8
LOGO
 62
     5
  0
POLYLINE
  5
D53
  8
LOGO
 62
     5
 66
     1
 10
0.0
 20
0.0
 30
0.0
 40
0.6011045776920371
 41
0.6011045776920371
  0
VERTEX
  5
14E37
  8
LOGO
 62
     5
 10
203.34355750971551
 20
211.2656018697455
 30
0.0
 42
1.0
  0
VERTEX
  5
14E38
  8
LOGO
 62
     5
 10
201.5402437766393
 20
211.2656018697455
 30
0.0
 42
1.0
  0
SEQEND
  5
14E39
  8
LOGO
 62
     5
  0
CIRCLE
  5
D54
  8
LOGO
  6
CONTINUOUS
 62
     6
 10
255.03654407434519
 20
220.85956158865471
 30
0.0
 40
1.3693671871256861
  0
CIRCLE
  5
D55
  8
LOGO
  6
CONTINUOUS
 62
     6
 10
255.03654407434519
 20
220.85956158865471
 30
0.0
 40
2.3371571398316249
  0
LINE
  5
D56
  8
LOGO
 62
     1
 10
274.41830885589451
 20
216.82569767270061
 30
0.0
 11
215.3812521182837
 21
216.82569767270061
 31
0.0
  0
LINE
  5
D57
  8
LOGO
 62
     1
 10
274.41830885589451
 20
224.8762054096475
 30
0.0
 11
215.3812521182837
 21
224.8762054096475
 31
0.0
  0
TEXT
  5
D58
  8
LOGO
 62
     6
 10
253.62182757975049
 20
226.88883234388419
 30
0.0
 40
4.0252538684734613
  1
1 : 1
  7
CHINESET
 72
     1
 11
260.71394153848939
 21
228.90145927812091
 31
0.0
 73
     2
  0
TEXT
  5
D59
  8
LOGO
 62
     6
 10
253.62182757975049
 20
210.78781686999039
 30
0.0
 40
4.0252538684734613
  1
m/m
  7
CHINESET
 72
     1
 11
260.71394153848939
 21
212.80044380422709
 31
0.0
 73
     2
  0
SOLID
  5
D5A
  8
LOGO
 62
     2
 10
209.78368769952931
 20
231.97052882743279
 30
0.0
 11
210.50385907197111
 21
231.97052882743159
 31
0.0
 12
209.78368769952931
 22
215.46660154231941
 32
0.0
 13
210.50385907197111
 23
215.46660154231941
 33
0.0
  0
SOLID
  5
D5B
  8
LOGO
 62
     5
 10
210.50385907197111
 20
215.46660154231941
 30
0.0
 11
212.24427322203729
 21
215.46660154231941
 31
0.0
 12
210.50385907197111
 22
231.97052882743159
 32
0.0
 13
212.24427322203729
 23
231.97052882743279
 33
0.0
  0
SOLID
  5
D5C
  8
LOGO
 62
     5
 10
209.78368769952931
 20
230.65021464462319
 30
0.0
 11
208.0432735494629
 21
224.26869609437929
 31
0.0
 12
209.78368769952931
 22
215.46660154231941
 32
0.0
 13
208.0432735494629
 23
215.46660154231941
 33
0.0
  0
LINE
  5
D5D
  8
LOGO
 62
     1
 10
215.3812521182837
 20
208.77518993575359
 30
0.0
 11
215.3812521182837
 21
232.92671314659441
 31
0.0
  0
LINE
  5
D5E
  8
LOGO
 62
     1
 10
247.58328306607129
 20
208.77518993575359
 30
0.0
 11
247.58328306607129
 21
232.92671314659441
 31
0.0
  0
TEXT
  5
D5F
  8
LOGO
 62
     6
 10
220.5008718822485
 20
210.78781686999039
 30
0.0
 40
4.0252538684734613
  1
單位 Unit:
 41
0.9
  7
CHINESET
 72
     4
 11
231.48226759217769
 21
212.80044380422709
 31
0.0
  0
SOLID
  5
D60
  8
LOGO
 62
     5
 10
211.6441304116702
 20
211.26560186974561
 30
0.0
 11
212.24427322203729
 21
211.2656018697455
 31
0.0
 12
211.6441304116702
 22
209.46517343864289
 32
0.0
 13
212.24427322203729
 23
209.46517343864289
 33
0.0
  0
SOLID
  5
D61
  8
LOGO
 62
     5
 10
209.84370198056629
 20
209.46517343864289
 30
0.0
 11
210.44384479093449
 21
209.46517343864289
 31
0.0
 12
209.84370198056629
 22
212.46588749048109
 32
0.0
 13
210.44384479093449
 23
212.46588749048109
 33
0.0
  0
SOLID
  5
D62
  8
LOGO
 62
     5
 10
208.54337255334369
 20
212.46588749048109
 30
0.0
 11
209.14351536371089
 21
212.46588749048109
 31
0.0
 12
208.54337255334369
 22
209.46517343864289
 32
0.0
 13
209.14351536371089
 23
209.46517343864289
 33
0.0
  0
LINE
  5
D63
  8
LOGO
 62
     5
 10
212.24427322203729
 20
209.46517343864289
 30
0.0
 11
212.24427322203729
 21
211.26560186974561
 31
0.0
  0
POLYLINE
  5
D64
  8
LOGO
 62
     5
 66
     1
 10
0.0
 20
0.0
 30
0.0
 70
     1
 40
0.6011045776920371
 41
0.6011045776920371
  0
VERTEX
  5
14E3A
  8
LOGO
 62
     5
 10
206.4410091966877
 20
210.96553046456179
 30
0.0
 42
1.0
  0
VERTEX
  5
14E3B
  8
LOGO
 62
     5
 10
208.84542750745581
 20
210.96553046456179
 30
0.0
 42
1.0
  0
SEQEND
  5
14E3C
  8
LOGO
 62
     5
  0
CIRCLE
  5
D65
  8
LOGO
 62
     5
 10
207.6432183520721
 20
210.96553046456199
 30
0.0
 40
0.9002142155515948
  0
POLYLINE
  5
D66
  8
LOGO
 62
     5
 66
     1
 10
0.0
 20
0.0
 30
0.0
 70
     1
  0
VERTEX
  5
14E3D
  8
LOGO
 62
     5
 10
206.7430041365204
 20
210.96553046456199
 30
0.0
 42
1.0000000573306349
  0
VERTEX
  5
14E3E
  8
LOGO
 62
     5
 10
208.54343256762391
 20
210.96553046456199
 30
0.0
 42
1.0000000573306349
  0
SEQEND
  5
14E3F
  8
LOGO
 62
     5
  0
POLYLINE
  5
D67
  8
LOGO
 62
     5
 66
     1
 10
0.0
 20
0.0
 30
0.0
 40
0.6011045776920371
 41
0.6011045776920371
  0
VERTEX
  5
14E40
  8
LOGO
 62
     5
 10
211.9456444678404
 20
211.2656018697455
 30
0.0
 42
1.0
  0
VERTEX
  5
14E41
  8
LOGO
 62
     5
 10
210.1423307347643
 20
211.2656018697455
 30
0.0
 42
1.0
  0
SEQEND
  5
14E42
  8
LOGO
 62
     5
  0
TEXT
  5
D68
  8
LOGO
 62
     6
 10
220.10733143707191
 20
218.89494624722951
 30
0.0
 40
4.0252538684734613
  1
投影 View:
 41
0.9
  7
CHINESET
 72
     4
 11
231.48226759217769
 21
220.850951541174
 31
0.0
  0
TEXT
  5
D69
  8
LOGO
 62
     6
 10
218.70028957144029
 20
226.89081327590611
 30
0.0
 40
4.0252538684734613
  1
比例 Scale:
 41
0.9
  7
CHINESET
 72
     4
 11
231.48226759217769
 21
228.90145927812091
 31
0.0
  0
LINE
  5
D6A
  8
LOGO
 62
     1
 10
274.41830885589451
 20
192.67417446185979
 30
0.0
 11
274.41830885589451
 21
232.92671314659441
 31
0.0
  0
LINE
  5
D6B
  8
LOGO
  6
CONTINUOUS
 62
     6
 10
262.39665725914273
 20
219.4901944015291
 30
0.0
 11
269.72351073329378
 21
218.52240444882321
 31
0.0
  0
LINE
  5
D6C
  8
LOGO
  6
CONTINUOUS
 62
     6
 10
262.39665725914273
 20
222.2289287757805
 30
0.0
 11
269.72351073329378
 21
223.19671872848639
 31
0.0
  0
LINE
  5
D6D
  8
LOGO
 62
     6
 10
262.39665725914273
 20
219.4901944015291
 30
0.0
 11
262.39665725914273
 21
222.2289287757805
 31
0.0
  0
LINE
  5
D6E
  8
LOGO
 62
     6
 10
269.72351073329378
 20
218.52240444882321
 30
0.0
 11
269.72351073329378
 21
223.19671872848639
 31
0.0
  0
LINE
  5
D6F
  8
LOGO
 62
     6
 10
357.45647876509179
 20
196.0285526855877
 30
0.0
 11
330.6214529752686
 21
196.02855268558761
 31
0.0
  0
LINE
  5
D70
  8
LOGO
 62
     6
 10
357.45647876509179
 20
210.78781686999039
 30
0.0
 11
330.6214529752686
 21
210.78781686999039
 31
0.0
  0
LINE
  5
D71
  8
LOGO
 62
     6
 10
360.1399813440741
 20
216.82569767270061
 30
0.0
 11
327.93795039628628
 21
216.82569767270061
 31
0.0
  0
LINE
  5
D72
  8
LOGO
 62
     6
 10
360.1399813440741
 20
228.90145927812091
 30
0.0
 11
327.93795039628628
 21
228.90145927812091
 31
0.0
  0
TEXT
  5
D73
  8
LOGO
  6
CONTINUOUS
 62
     7
 10
331.5798467534766
 20
219.5092002516829
 30
0.0
 40
6.7087564474557677
  1
MTHS
  7
CHINESET
 72
     1
 11
344.03896587018011
 21
222.8635784754108
 31
0.0
 73
     2
  0
LINE
  5
D74
  8
LOGO
 62
     6
 10
327.93795039628628
 20
228.90145927812091
 30
0.0
 11
327.93795039628628
 21
216.82569767270061
 31
0.0
  0
LINE
  5
D75
  8
LOGO
 62
     6
 10
330.6214529752686
 20
210.78781686999039
 30
0.0
 11
330.6214529752686
 21
196.02855268558761
 31
0.0
  0
TEXT
  5
D76
  8
LOGO
  6
CONTINUOUS
 62
     6
 10
337.64967401546028
 20
197.70574179745159
 30
0.0
 40
3.3543782237278839
  1
Model
  7
CHINESET
 72
     4
 11
344.03896587018011
 21
199.3829309093156
 31
0.0
  0
TEXT
  5
D77
  8
LOGO
 62
     6
 10
338.67196071221548
 20
203.54552939797321
 30
0.0
 40
5.3670051579646154
  1
型式
  7
CHINESET
 72
     4
 11
344.03896587018011
 21
206.0916873567713
 31
0.0
  0
LINE
  5
D78
  8
LOGO
 62
     6
 10
344.03896587018011
 20
216.82569767270061
 30
0.0
 11
344.03896587018011
 21
210.78781686999039
 31
0.0
  0
LINE
  5
D79
  8
LOGO
 62
     6
 10
360.13998134407422
 20
228.90145927812091
 30
0.0
 11
360.13998134407422
 21
216.82569767270061
 31
0.0
  0
LINE
  5
D7A
  8
LOGO
 62
     6
 10
357.45647876509179
 20
210.78781686999039
 30
0.0
 11
357.45647876509179
 21
196.0285526855877
 31
0.0
  0
LINE
  5
D7B
  8
LOGO
  6
CONTINUOUS
 62
     7
 10
362.2204535881728
 20
222.82080421938289
 30
0.0
 11
367.55266928816468
 21
222.82080421938289
 31
0.0
  0
LINE
  5
D82
  8
LOGO
 62
     6
 10
391.18334479715151
 20
228.90145927812111
 30
0.0
 11
391.18334479715151
 21
216.82569767270061
 31
0.0
  0
LINE
  5
D83
  8
LOGO
 62
     6
 10
369.64098575386561
 20
228.90145927812091
 30
0.0
 11
369.64098575386561
 21
216.82569767270061
 31
0.0
  0
LINE
  5
D85
  8
LOGO
 62
     6
 10
391.18334479715151
 20
196.0285526855877
 30
0.0
 11
369.64098575386561
 21
196.02855268558761
 31
0.0
  0
LINE
  5
D86
  8
LOGO
 62
     6
 10
391.18334479715151
 20
216.82569767270061
 30
0.0
 11
369.64098575386561
 21
216.82569767270061
 31
0.0
  0
LINE
  5
D87
  8
LOGO
 62
     6
 10
391.18334479715151
 20
210.78781686999039
 30
0.0
 11
369.64098575386561
 21
210.78781686999039
 31
0.0
  0
LINE
  5
D88
  8
LOGO
 62
     6
 10
369.64098575386561
 20
210.78781686999039
 30
0.0
 11
369.64098575386561
 21
196.0285526855877
 31
0.0
  0
TEXT
  5
D89
  8
LOGO
  6
CONTINUOUS
 62
     6
 10
376.25912556994081
 20
197.70574179745159
 30
0.0
 40
3.3543782237278839
  1
Bore
 41
0.8
  7
CHINESET
 72
     4
 11
380.41216527550858
 21
199.3829309093156
 31
0.0
  0
TEXT
  5
D8A
  8
LOGO
 62
     6
 10
375.2799665932049
 20
203.40818477778899
 30
0.0
 40
5.3670051579646154
  1
內徑
 41
0.9
  7
CHINESET
 72
     4
 11
380.41216527550858
 21
206.0916873567713
 31
0.0
  0
LINE
  5
D8B
  8
LOGO
 62
     6
 10
380.41216496612162
 20
216.82569767270061
 30
0.0
 11
380.41216496612162
 21
210.78781686999039
 31
0.0
  0
LINE
  5
D8C
  8
LOGO
 62
     6
 10
391.18334479715151
 20
210.78781686999039
 30
0.0
 11
391.18334479715151
 21
196.0285526855877
 31
0.0
  0
LINE
  5
D8E
  8
LOGO
 62
     6
 10
391.18334479715151
 20
228.90145927812111
 30
0.0
 11
369.64098575386561
 21
228.90145927812091
 31
0.0
  0
TEXT
  5
D8F
  8
LOGO
  6
CONTINUOUS
 62
     7
 10
375.6074179735644
 20
219.4331225308313
 30
0.0
 40
6.7087564474557677
  1
25
  7
CHINESET
 72
     1
 11
381.03831605007622
 21
222.7875007545592
 31
0.0
 73
     2
  0
LINE
  5
D9E
  8
LOGO
 62
     1
 10
505.92834892189939
 20
192.67417446185979
 30
0.0
 11
505.92834892189939
 21
232.92671314659441
 31
0.0
  0
LINE
  5
DAD
  8
LOGO
 62
     6
 10
400.68434920694301
 20
228.90145927812111
 30
0.0
 11
400.68434920694301
 21
216.8256976727007
 31
0.0
  0
LINE
  5
DAE
  8
LOGO
 62
     6
 10
442.22670825022902
 20
228.90145927812111
 30
0.0
 11
442.22670825022902
 21
216.8256976727007
 31
0.0
  0
TEXT
  5
DAF
  8
LOGO
 62
     6
 10
411.99618213767309
 20
203.57040110002569
 30
0.0
 40
5.3670051579646154
  1
旋轉方向
 41
0.9
  7
CHINESET
 72
     4
 11
421.45552872858582
 21
206.09168735677139
 31
0.0
  0
TEXT
  5
DB0
  8
LOGO
  6
CONTINUOUS
 62
     6
 10
403.56551153537038
 20
198.26480483473961
 30
0.0
 40
3.3543782237278839
  1
Rotating direction
 41
0.8
  7
CHINESET
 72
     4
 11
421.45552872858582
 21
199.3829309093156
 31
0.0
  0
LINE
  5
DB1
  8
LOGO
 62
     6
 10
442.22670825022902
 20
210.78781686999039
 30
0.0
 11
400.68434920694301
 21
210.78781686999039
 31
0.0
  0
LINE
  5
DB2
  8
LOGO
 62
     6
 10
442.22670825022902
 20
216.8256976727007
 30
0.0
 11
400.68434920694301
 21
216.8256976727007
 31
0.0
  0
LINE
  5
DB3
  8
LOGO
 62
     6
 10
442.22670825022902
 20
196.02855268558781
 30
0.0
 11
400.68434920694301
 21
196.0285526855877
 31
0.0
  0
LINE
  5
DB4
  8
LOGO
 62
     6
 10
400.68434920694301
 20
210.78781686999039
 30
0.0
 11
400.68434920694301
 21
196.02855268558781
 31
0.0
  0
LINE
  5
DB5
  8
LOGO
 62
     6
 10
421.45552872858599
 20
216.8256976727007
 30
0.0
 11
421.45552872858599
 21
210.78781686999039
 31
0.0
  0
LINE
  5
DB6
  8
LOGO
 62
     6
 10
442.22670825022902
 20
210.78781686999039
 30
0.0
 11
442.22670825022902
 21
196.02855268558781
 31
0.0
  0
LINE
  5
DB7
  8
LOGO
 62
     6
 10
442.22670825022902
 20
228.90145927812111
 30
0.0
 11
400.68434920694301
 21
228.90145927812111
 31
0.0
  0
LINE
  5
DB8
  8
LOGO
  6
CONTINUOUS
 62
     7
 10
393.26381704125038
 20
222.82080421938301
 30
0.0
 11
398.59603274124203
 21
222.82080421938301
 31
0.0
  0
TEXT
  5
DCEA
  8
UMCL3
  6
CONTINUOUS
 62
     2
 10
766.23679790982271
 20
285.02499111941353
 30
0.0
 40
2.5
  1

 41
0.8
  7
ROMANS1
 72
     1
 11
766.23679790982271
 21
286.27499111941353
 31
0.0
 73
     2
  0
TEXT
  5
DCED
  8
UMCL3
  6
CONTINUOUS
 62
     2
 10
741.15575056207274
 20
285.02499111941353
 30
0.0
 40
2.5
  1

 41
0.8
  7
ROMANS1
 72
     1
 11
741.15575056207274
 21
286.27499111941353
 31
0.0
 73
     2
  0
TEXT
  5
DCF2
  8
UMCL3
  6
CONTINUOUS
 62
     2
 10
719.57470321432265
 20
285.02499111941353
 30
0.0
 40
2.5
  1

 41
0.8
  7
ROMANS1
 72
     1
 11
719.57470321432265
 21
286.27499111941353
 31
0.0
 73
     2
  0
TEXT
  5
DD0D
  8
UMCL3
 62
     2
 10
716.36931152386535
 20
289.1485161689501
 30
0.0
 40
3.2999999999999998
  1

 41
0.9
  7
ROMANS
  0
TEXT
  5
DD17
  8
UMCL3
 62
     2
 10
734.45035887161544
 20
289.1485161689501
 30
0.0
 40
3.2999999999999998
  1

 41
0.9
  7
ROMANS
  0
TEXT
  5
DD1A
  8
UMCL3
 62
     2
 10
759.53140621936552
 20
289.1485161689501
 30
0.0
 40
3.2999999999999998
  1

 41
0.9
  7
ROMANS
  0
TEXT
  5
14B64
  8
UMCL3
  6
CONTINUOUS
 62
     2
 10
426.05478391879888
 20
150.3638432988582
 30
0.0
 40
2.5
  1

 41
0.8
  7
ROMANS1
 72
     1
 11
426.05478391879888
 21
151.6138432988582
 31
0.0
 73
     2
  0
TEXT
  5
14B68
  8
UMCL3
 62
     2
 10
388.4510203905802
 20
154.33843610509459
 30
0.0
 40
3.2999999999999998
  1

 41
0.9
  7
ROMANS
  0
TEXT
  5
14B6A
  8
UMCL3
  6
CONTINUOUS
 62
     2
 10
394.72373657104862
 20
150.3638432988582
 30
0.0
 40
2.5
  1

 41
0.8
  7
ROMANS1
 72
     1
 11
394.72373657104862
 21
151.6138432988582
 31
0.0
 73
     2
  0
TEXT
  5
14B77
  8
UMCL3
 62
     2
 10
419.7820677383304
 20
154.33843610509459
 30
0.0
 40
3.2999999999999998
  1

 41
0.9
  7
ROMANS
  0
LINE
  5
14B7C
  8
LOGO
 62
     6
 10
493.2700717033066
 20
228.90145927812111
 30
0.0
 11
493.2700717033066
 21
216.8256976727007
 31
0.0
  0
LINE
  5
14B7D
  8
LOGO
 62
     6
 10
451.72771266002042
 20
228.90145927812111
 30
0.0
 11
451.72771266002042
 21
216.8256976727007
 31
0.0
  0
TEXT
  5
14B7E
  8
LOGO
  6
CONTINUOUS
 62
     6
 10
457.86741383435498
 20
198.26480483473961
 30
0.0
 40
3.3543782237278839
  1
Rotating angle
 41
0.8
  7
CHINESET
 72
     4
 11
472.49889218166328
 21
199.3829309093156
 31
0.0
  0
TEXT
  5
14B7F
  8
LOGO
 62
     6
 10
462.88859857068292
 20
203.57568358541749
 30
0.0
 40
5.3670051579646154
  1
旋轉角度
 41
0.9
  7
CHINESET
 72
     4
 11
472.49889218166328
 21
206.09168735677139
 31
0.0
  0
LINE
  5
14B80
  8
LOGO
 62
     6
 10
493.2700717033066
 20
216.8256976727007
 30
0.0
 11
451.72771266002042
 21
216.8256976727007
 31
0.0
  0
LINE
  5
14B81
  8
LOGO
 62
     6
 10
493.2700717033066
 20
210.78781686999051
 30
0.0
 11
451.72771266002042
 21
210.78781686999051
 31
0.0
  0
LINE
  5
14B82
  8
LOGO
 62
     6
 10
493.2700717033066
 20
196.02855268558781
 30
0.0
 11
451.72771266002042
 21
196.0285526855877
 31
0.0
  0
LINE
  5
14B83
  8
LOGO
 62
     6
 10
451.72771266002042
 20
210.78781686999051
 30
0.0
 11
451.72771266002042
 21
196.02855268558781
 31
0.0
  0
LINE
  5
14B84
  8
LOGO
 62
     6
 10
472.49889218166362
 20
216.8256976727007
 30
0.0
 11
472.49889218166362
 21
210.78781686999051
 31
0.0
  0
LINE
  5
14B85
  8
LOGO
 62
     6
 10
493.2700717033066
 20
210.78781686999051
 30
0.0
 11
493.2700717033066
 21
196.02855268558781
 31
0.0
  0
LINE
  5
14B86
  8
LOGO
 62
     6
 10
493.2700717033066
 20
228.90145927812111
 30
0.0
 11
451.72771266002042
 21
228.90145927812111
 31
0.0
  0
LINE
  5
14B87
  8
LOGO
  6
CONTINUOUS
 62
     7
 10
444.30718049432778
 20
222.82080421938309
 30
0.0
 11
449.63939619431949
 21
222.82080421938309
 31
0.0
  0
LINE
  5
14CA5
  8
0
 10
330.88755187097422
 20
320.926730609527
 30
0.0
 11
330.88755187097422
 21
275.926730609527
 31
0.0
  0
LINE
  5
14CA6
  8
0
 10
284.88755187097422
 20
320.926730609527
 30
0.0
 11
284.88755187097422
 21
275.926730609527
 31
0.0
  0
LINE
  5
14CA7
  8
DIM
 10
357.88755187097422
 20
248.926730609527
 30
0.0
 11
357.88755187097422
 21
364.926730609527
 31
0.0
  0
LINE
  5
14CA8
  8
DIM
 10
365.88755187097422
 20
248.926730609527
 30
0.0
 11
365.88755187097422
 21
372.9267306095266
 31
0.0
  0
TEXT
  5
14CA9
  8
DIM
 10
309.96671292590918
 20
293.37766876755671
 30
0.0
 40
3.0
  1
%%c46
  7
ROMANS
  0
LINE
  5
14CAA
  8
DIM
 10
349.88755187097422
 20
248.926730609527
 30
0.0
 11
349.88755187097422
 21
324.926730609527
 31
0.0
  0
LINE
  5
14CAB
  8
CENTER
  6
CENTER
 10
307.88755187097422
 20
377.08799557455671
 30
0.0
 11
307.88755187097422
 21
245.3214788718609
 31
0.0
  0
LINE
  5
14CAC
  8
0
 10
282.68755187097412
 20
248.926730609527
 30
0.0
 11
333.08755187097421
 21
248.926730609527
 31
0.0
  0
LINE
  5
14CAD
  8
0
 10
282.68755187097412
 20
275.926730609527
 30
0.0
 11
333.08755187097421
 21
275.926730609527
 31
0.0
  0
LINE
  5
14CAE
  8
0
 10
281.88755187097422
 20
275.12673060952682
 30
0.0
 11
333.88755187097422
 21
275.12673060952682
 31
0.0
  0
LINE
  5
14CAF
  8
0
 10
281.88755187097422
 20
249.72673060952721
 30
0.0
 11
333.88755187097422
 21
249.72673060952721
 31
0.0
  0
LINE
  5
14CB0
  8
DIM
 10
284.88755187097422
 20
292.37766876755671
 30
0.0
 11
330.88755187097422
 21
292.37766876755671
 31
0.0
  0
LINE
  5
14CB1
  8
0
 10
282.68755187097412
 20
275.926730609527
 30
0.0
 11
281.88755187097422
 21
275.12673060952682
 31
0.0
  0
LINE
  5
14CB2
  8
0
 10
281.88755187097422
 20
249.7267306095267
 30
0.0
 11
282.68755187097412
 21
248.926730609527
 31
0.0
  0
LINE
  5
14CB3
  8
0
 10
281.88755187097422
 20
275.12673060952682
 30
0.0
 11
281.88755187097422
 21
249.7267306095267
 31
0.0
  0
LINE
  5
14CB4
  8
0
 10
286.39265335135769
 20
275.926730609527
 30
0.0
 11
285.59265335135768
 21
275.12673060952682
 31
0.0
  0
LINE
  5
14CB5
  8
0
 10
285.59265335135768
 20
249.7267306095267
 30
0.0
 11
286.39265335135769
 21
248.926730609527
 31
0.0
  0
CIRCLE
  5
14CB6
  8
0
 10
299.88755187097422
 20
265.926730609527
 30
0.0
 40
4.25
  0
ARC
  5
14CB7
  8
0
 62
     2
 10
299.88755187097422
 20
265.926730609527
 30
0.0
 40
5.0
 50
73.19517950324412
 51
13.068895048788461
  0
LINE
  5
14CB8
  8
0
  6
CONTINUOUS
 10
285.59265335135768
 20
275.12673060952682
 30
0.0
 11
285.59265335135768
 21
249.72673060952721
 31
0.0
  0
SOLID
  5
14CB9
  8
DIM
 10
287.84197512997429
 20
292.89861330065639
 30
0.0
 11
287.84197512997429
 21
291.85672423445652
 31
0.0
 12
284.88755187097422
 22
292.37766876755671
 32
0.0
 13
284.88755187097422
 23
292.37766876755671
 33
0.0
  0
LINE
  5
14CBA
  8
CENTER
  6
CENTER
 10
307.88755187097422
 20
265.926730609527
 30
0.0
 11
291.88755187097422
 21
265.926730609527
 31
0.0
  0
LINE
  5
14CBB
  8
CENTER
  6
CENTER
 10
299.88755187097422
 20
273.926730609527
 30
0.0
 11
299.88755187097422
 21
257.926730609527
 31
0.0
  0
LINE
  5
14CBC
  8
CENTER
  6
CENTER
 10
287.88755187097439
 20
281.32369133101872
 30
0.0
 11
287.88755187097439
 21
245.1424030367815
 31
0.0
  0
LINE
  5
14CBD
  8
HIDDEN
  6
HIDDEN
 10
291.28755187097431
 20
275.926730609527
 30
0.0
 11
291.28755187097431
 21
248.926730609527
 31
0.0
  0
LINE
  5
14CBE
  8
HIDDEN
  6
HIDDEN
 10
284.4875518709743
 20
275.926730609527
 30
0.0
 11
284.4875518709743
 21
248.926730609527
 31
0.0
  0
LINE
  5
14CBF
  8
DIM
 10
334.08755187097421
 20
248.926730609527
 30
0.0
 11
367.84965797086028
 21
248.926730609527
 31
0.0
  0
LINE
  5
14CC0
  8
0
 10
333.88755187097422
 20
275.12673060952682
 30
0.0
 11
333.08755187097421
 21
275.926730609527
 31
0.0
  0
LINE
  5
14CC1
  8
0
 10
330.1824503905907
 20
275.12673060952682
 30
0.0
 11
329.38245039059069
 21
275.926730609527
 31
0.0
  0
LINE
  5
14CC2
  8
0
 10
333.08755187097421
 20
248.926730609527
 30
0.0
 11
333.88755187097422
 21
249.72673060952721
 31
0.0
  0
LINE
  5
14CC3
  8
0
 10
329.38245039059069
 20
248.926730609527
 30
0.0
 11
330.1824503905907
 21
249.72673060952721
 31
0.0
  0
LINE
  5
14CC4
  8
0
 10
333.88755187097422
 20
249.72673060952721
 30
0.0
 11
333.88755187097422
 21
275.12673060952682
 31
0.0
  0
LINE
  5
14CC5
  8
0
  6
CONTINUOUS
 10
330.1824503905907
 20
275.12673060952682
 30
0.0
 11
330.1824503905907
 21
249.72673060952721
 31
0.0
  0
TEXT
  5
14CC6
  8
DIM
 10
348.88755187097422
 20
283.9382216830171
 30
0.0
 40
3.0
  1
76
 50
90.0
  7
ROMANS
  0
SOLID
  5
14CC7
  8
DIM
 10
342.40849640407419
 20
272.97230735052688
 30
0.0
 11
341.3666073378742
 21
272.97230735052688
 31
0.0
 12
341.88755187097422
 22
275.926730609527
 32
0.0
 13
341.88755187097422
 23
275.926730609527
 33
0.0
  0
SOLID
  5
14CC8
  8
DIM
 10
327.9331286119741
 20
291.85672423445652
 30
0.0
 11
327.9331286119741
 21
292.89861330065639
 31
0.0
 12
330.88755187097422
 22
292.37766876755671
 32
0.0
 13
330.88755187097422
 23
292.37766876755671
 33
0.0
  0
LINE
  5
14CC9
  8
DIM
 10
334.08755187097421
 20
275.926730609527
 30
0.0
 11
342.88755187097422
 21
275.926730609527
 31
0.0
  0
TEXT
  5
14CCA
  8
DIM
 10
340.88755187097422
 20
259.20777231053978
 30
0.0
 40
3.0
  1
27
 50
90.0
  7
ROMANS
  0
SOLID
  5
14CCB
  8
DIM
 10
349.3666073378742
 20
251.88115386852709
 30
0.0
 11
350.40849640407419
 21
251.88115386852709
 31
0.0
 12
349.88755187097422
 22
248.926730609527
 32
0.0
 13
349.88755187097422
 23
248.926730609527
 33
0.0
  0
SOLID
  5
14CCC
  8
DIM
 10
341.3666073378742
 20
251.88115386852709
 30
0.0
 11
342.40849640407419
 21
251.88115386852709
 31
0.0
 12
341.88755187097422
 22
248.926730609527
 32
0.0
 13
341.88755187097422
 23
248.926730609527
 33
0.0
  0
LINE
  5
14CCD
  8
DIM
 10
341.88755187097422
 20
248.926730609527
 30
0.0
 11
341.88755187097422
 21
275.926730609527
 31
0.0
  0
LINE
  5
14CCE
  8
CENTER
  6
CENTER
 10
327.88755187097439
 20
281.32369133101872
 30
0.0
 11
327.88755187097439
 21
245.0862125972771
 31
0.0
  0
LINE
  5
14CCF
  8
HIDDEN
  6
HIDDEN
 10
324.4875518709743
 20
275.926730609527
 30
0.0
 11
324.4875518709743
 21
248.926730609527
 31
0.0
  0
LINE
  5
14CD0
  8
HIDDEN
  6
HIDDEN
 10
331.28755187097431
 20
275.926730609527
 30
0.0
 11
331.28755187097431
 21
248.926730609527
 31
0.0
  0
SOLID
  5
14CD1
  8
DIM
 10
365.3666073378742
 20
251.88115386852709
 30
0.0
 11
366.40849640407413
 21
251.88115386852709
 31
0.0
 12
365.88755187097422
 22
248.926730609527
 32
0.0
 13
365.88755187097422
 23
248.926730609527
 33
0.0
  0
SOLID
  5
14CD2
  8
DIM
 10
357.3666073378742
 20
251.88115386852709
 30
0.0
 11
358.40849640407413
 21
251.88115386852709
 31
0.0
 12
357.88755187097422
 22
248.926730609527
 32
0.0
 13
357.88755187097422
 23
248.926730609527
 33
0.0
  0
LINE
  5
14CD3
  8
0
 10
247.88755187097439
 20
441.69791625898858
 30
0.0
 11
270.2798567163872
 21
447.69791625898858
 31
0.0
  0
LINE
  5
14CD4
  8
0
 10
247.88755187097419
 20
426.69791625898858
 30
0.0
 11
270.27985671638748
 21
420.69791625898858
 31
0.0
  0
LINE
  5
14CD5
  8
0
 10
247.88755187097419
 20
349.926730609527
 30
0.0
 11
321.88755187097422
 21
349.926730609527
 31
0.0
  0
LINE
  5
14CD6
  8
0
 10
321.88755187097422
 20
364.926730609527
 30
0.0
 11
247.88755187097419
 21
364.926730609527
 31
0.0
  0
LINE
  5
14CD7
  8
0
  6
PHANTOM
 62
     6
 10
321.88755187097422
 20
342.926730609527
 30
0.0
 11
247.88755187097419
 21
342.926730609527
 31
0.0
  0
LINE
  5
14CD8
  8
0
  6
PHANTOM
 62
     6
 10
247.88755187097419
 20
327.926730609527
 30
0.0
 11
321.88755187097422
 21
327.926730609527
 31
0.0
  0
POLYLINE
  5
14CD9
  8
DIM
 66
     1
 10
0.0
 20
0.0
 30
0.0
 70
     7
  0
VERTEX
  5
14CDA
  8
DIM
 10
246.50303019273491
 20
447.27506417979009
 30
0.0
 42
-0.0185322085214218
  0
VERTEX
  5
14CDB
  8
DIM
 10
248.5322032626145
 20
451.67616341947121
 30
0.0
  0
VERTEX
  5
14CDC
  8
DIM
 10
247.99701085801479
 20
451.9473996450364
 30
0.0
  0
VERTEX
  5
14CDD
  8
DIM
 10
250.61949564134821
 20
453.98159728388538
 30
0.0
  0
VERTEX
  5
14CDE
  8
DIM
 10
250.40537667871371
 20
450.7268366299931
 30
0.0
  0
VERTEX
  5
14CDF
  8
DIM
 10
249.8701842741138
 20
450.99807285555869
 30
0.0
 42
0.018532208521422
  0
VERTEX
  5
14CE0
  8
DIM
 10
247.88755187097419
 20
446.69791625898858
 30
0.0
  0
SEQEND
  5
14CE1
  8
DIM
  0
POLYLINE
  5
14CE2
  8
DIM
 66
     1
 10
0.0
 20
0.0
 30
0.0
 70
     7
  0
VERTEX
  5
14CE3
  8
DIM
 10
246.50303019273451
 20
421.12076833818799
 30
0.0
 42
0.0185322085214218
  0
VERTEX
  5
14CE4
  8
DIM
 10
248.53220326261399
 20
416.71966909850693
 30
0.0
  0
VERTEX
  5
14CE5
  8
DIM
 10
247.99701085801459
 20
416.44843287294168
 30
0.0
  0
VERTEX
  5
14CE6
  8
DIM
 10
250.61949564134781
 20
414.41423523409259
 30
0.0
  0
VERTEX
  5
14CE7
  8
DIM
 10
250.40537667871331
 20
417.66899588798498
 30
0.0
  0
VERTEX
  5
14CE8
  8
DIM
 10
249.87018427411331
 20
417.39775966241939
 30
0.0
 42
-0.018532208521422
  0
VERTEX
  5
14CE9
  8
DIM
 10
247.88755187097419
 20
421.69791625898858
 30
0.0
  0
SEQEND
  5
14CEA
  8
DIM
  0
SOLID
  5
14CEB
  8
DIM
 10
250.84197512997409
 20
389.44767514262668
 30
0.0
 11
250.84197512997409
 21
388.40578607642681
 31
0.0
 12
247.88755187097419
 22
388.926730609527
 32
0.0
 13
247.88755187097419
 23
388.926730609527
 33
0.0
  0
SOLID
  5
14CEC
  8
DIM
 10
250.84197512997409
 20
381.44767514262668
 30
0.0
 11
250.84197512997409
 21
380.40578607642681
 31
0.0
 12
247.88755187097419
 22
380.9267306095266
 32
0.0
 13
247.88755187097419
 23
380.9267306095266
 33
0.0
  0
LINE
  5
14CED
  8
DIM
 10
257.88755187097439
 20
380.9267306095266
 30
0.0
 11
247.88755187097419
 21
380.9267306095266
 31
0.0
  0
LINE
  5
14CEE
  8
DIM
 10
247.88755187097419
 20
388.926730609527
 30
0.0
 11
321.88755187097422
 21
388.926730609527
 31
0.0
  0
LINE
  5
14CEF
  8
DIM
 10
240.01878088989719
 20
339.39065198086638
 30
0.0
 11
257.88755187097439
 21
349.926730609527
 31
0.0
  0
LINE
  5
14CF0
  8
CENTER
  6
CENTER
 10
336.25759150518837
 20
434.19791625898819
 30
0.0
 11
245.17820417033079
 21
434.19791625898858
 31
0.0
  0
LINE
  5
14CF1
  8
0
 10
247.88755187097419
 20
364.926730609527
 30
0.0
 11
247.88755187097419
 21
349.926730609527
 31
0.0
  0
LINE
  5
14CF2
  8
0
  6
PHANTOM
 62
     6
 10
247.88755187097419
 20
342.926730609527
 30
0.0
 11
247.88755187097419
 21
327.926730609527
 31
0.0
  0
TEXT
  5
14CF3
  8
DIM
 10
216.38625775664349
 20
340.39065198086649
 30
0.0
 40
3.0
  1
M10x1.5P
  7
ROMANS
  0
LINE
  5
14CF4
  8
DIM
 10
216.0220098472266
 20
339.39065198086638
 30
0.0
 11
240.01878088989719
 21
339.39065198086638
 31
0.0
  0
LINE
  5
14CF5
  8
DIM
 10
247.88755187097419
 20
365.926730609527
 30
0.0
 11
247.88755187097419
 21
389.926730609527
 31
0.0
  0
LINE
  5
14CF6
  8
0
 10
247.88755187097439
 20
441.69791625898858
 30
0.0
 11
247.88755187097419
 21
426.69791625898858
 31
0.0
  0
TEXT
  5
14CF7
  8
DIM
 10
237.86654928176719
 20
449.24957942002032
 30
0.0
 40
4.0
  1
CW
  7
ROMANS
  0
TEXT
  5
14CF8
  8
DIM
 10
232.98093411087069
 20
416.1866304356235
 30
0.0
 40
4.0
  1
CCW
  7
ROMANS
  0
LINE
  5
14CF9
  8
DIM
 10
345.748623736463
 20
398.39790812563791
 30
0.0
 11
330.4341522703844
 21
411.94517872307267
 31
0.0
  0
LINE
  5
14CFA
  8
CENTER
  6
CENTER
 10
307.88755187097422
 20
462.11140084235598
 30
0.0
 11
307.88755187097422
 21
406.10836972792811
 31
0.0
  0
LINE
  5
14CFB
  8
0
 62
     7
 10
297.03751126719771
 20
372.926730609527
 30
0.0
 11
318.7375912671975
 21
372.9267306095266
 31
0.0
  0
ARC
  5
14CFC
  8
0
 62
     7
 10
317.28396153927469
 20
367.38057479886709
 30
0.0
 40
5.546155810659597
 50
55.615752531945937
 51
124.38424746805271
  0
ARC
  5
14CFD
  8
0
 62
     7
 10
317.2839599474118
 20
370.47288642018742
 30
0.0
 40
5.5461558106604487
 50
235.6157525319577
 51
304.3842474680423
  0
LINE
  5
14CFE
  8
0
 62
     7
 10
297.03751126719771
 20
364.926730609527
 30
0.0
 11
318.7375912671975
 21
364.9267306095266
 31
0.0
  0
LINE
  5
14CFF
  8
0
 10
326.88755187097422
 20
324.926730609527
 30
0.0
 11
288.88755187097422
 21
324.926730609527
 31
0.0
  0
LINE
  5
14D00
  8
0
 62
     4
 10
330.88755187097422
 20
320.926730609527
 30
0.0
 11
284.88755187097422
 21
320.926730609527
 31
0.0
  0
LINE
  5
14D01
  8
0
 10
270.2798567163872
 20
364.926730609527
 30
0.0
 11
270.2798567163872
 21
349.926730609527
 31
0.0
  0
LINE
  5
14D02
  8
CENTER
  6
CENTER
 10
257.88755187097439
 20
367.4488243978152
 30
0.0
 11
257.88755187097422
 21
347.27003291988052
 31
0.0
  0
LINE
  5
14D03
  8
HIDDEN
  6
HIDDEN
 10
316.6875518709744
 20
349.926730609527
 30
0.0
 11
315.38755187097422
 21
362.926730609527
 31
0.0
  0
LINE
  5
14D04
  8
HIDDEN
  6
HIDDEN
 10
299.08755187097421
 20
349.926730609527
 30
0.0
 11
300.38755187097422
 21
362.926730609527
 31
0.0
  0
LINE
  5
14D05
  8
HIDDEN
  6
HIDDEN
 10
253.63755187097419
 20
364.926730609527
 30
0.0
 11
253.63755187097419
 21
349.926730609527
 31
0.0
  0
LINE
  5
14D06
  8
HIDDEN
  6
HIDDEN
 10
262.13755187097422
 20
364.926730609527
 30
0.0
 11
262.13755187097422
 21
349.926730609527
 31
0.0
  0
LINE
  5
14D07
  8
HIDDEN
  6
HIDDEN
 10
252.88755187097419
 20
364.926730609527
 30
0.0
 11
252.88755187097419
 21
349.926730609527
 31
0.0
  0
LINE
  5
14D08
  8
HIDDEN
  6
HIDDEN
 10
262.88755187097422
 20
364.926730609527
 30
0.0
 11
262.88755187097422
 21
349.926730609527
 31
0.0
  0
LINE
  5
14D09
  8
DIM
 10
274.70234113647302
 20
295.84262151421979
 30
0.0
 11
303.38817852312849
 21
309.74598773685818
 31
0.0
  0
SOLID
  5
14D0A
  8
DIM
 10
255.07799676252981
 20
348.87487506217252
 30
0.0
 11
255.6071894530769
 21
347.97738527251562
 31
0.0
 12
257.88755187097439
 22
349.926730609527
 32
0.0
 13
257.88755187097439
 23
349.926730609527
 33
0.0
  0
LINE
  5
14D0B
  8
DIM
 10
250.37691835711911
 20
295.84262151421979
 30
0.0
 11
274.70234113647302
 21
295.84262151421979
 31
0.0
  0
TEXT
  5
14D0C
  8
DIM
 10
250.29341017030691
 20
296.84262151421979
 30
0.0
 40
3.0
  1
2-PT 1/8
  7
ROMANS
  0
CIRCLE
  5
14D0D
  8
0
 10
307.88755187097422
 20
311.926730609527
 30
0.0
 40
4.25
  0
ARC
  5
14D0E
  8
0
 62
     2
 10
307.88755187097422
 20
311.926730609527
 30
0.0
 40
5.0
 50
78.403426933771968
 51
12.45107802822492
  0
ARC
  5
14D0F
  8
0
 10
288.88755187097422
 20
320.926730609527
 30
0.0
 40
4.0
 50
90.0
 51
180.0
  0
LINE
  5
14D10
  8
0
 10
316.88755187097422
 20
349.926730609527
 30
0.0
 11
316.88755187097422
 21
324.926730609527
 31
0.0
  0
LINE
  5
14D11
  8
0
 10
298.88755187097422
 20
349.926730609527
 30
0.0
 11
298.88755187097422
 21
324.926730609527
 31
0.0
  0
SOLID
  5
14D12
  8
DIM
 10
300.95677708469128
 20
307.98863545428901
 30
0.0
 11
300.50235865364579
 21
308.92620503346359
 31
0.0
 12
303.38817852312849
 22
309.74598773685818
 32
0.0
 13
303.38817852312849
 23
309.74598773685818
 33
0.0
  0
LINE
  5
14D13
  8
CENTER
  6
CENTER
 10
315.88755187097422
 20
311.926730609527
 30
0.0
 11
299.88755187097422
 21
311.926730609527
 31
0.0
  0
TEXT
  5
14D14
  8
DIM
 10
279.85987995276218
 20
381.926730609527
 30
0.0
 40
3.0
  1
50
  7
ROMANS
  0
LINE
  5
14D15
  8
DIM
 10
307.88755187097422
 20
380.926730609527
 30
0.0
 11
257.88755187097439
 21
380.926730609527
 31
0.0
  0
SOLID
  5
14D16
  8
DIM
 10
254.9331286119743
 20
380.40578607642681
 30
0.0
 11
254.9331286119743
 21
381.44767514262668
 31
0.0
 12
257.88755187097439
 22
380.9267306095266
 32
0.0
 13
257.88755187097439
 23
380.9267306095266
 33
0.0
  0
SOLID
  5
14D17
  8
DIM
 10
260.84197512997429
 20
381.44767514262668
 30
0.0
 11
260.84197512997429
 21
380.40578607642681
 31
0.0
 12
257.88755187097439
 22
380.926730609527
 32
0.0
 13
257.88755187097439
 23
380.926730609527
 33
0.0
  0
LINE
  5
14D18
  8
DIM
 10
257.88755187097439
 20
368.4488243978152
 30
0.0
 11
257.88755187097439
 21
381.926730609527
 31
0.0
  0
TEXT
  5
14D19
  8
DIM
 10
249.3348528956148
 20
381.9267306095266
 30
0.0
 40
3.0
  1
10
  7
ROMANS
  0
LINE
  5
14D1A
  8
0
 62
     7
 10
314.15182478191582
 20
371.95764412424512
 30
0.0
 11
314.15182319005271
 21
365.89581709480842
 31
0.0
  0
LINE
  5
14D1B
  8
0
 62
     7
 10
301.6232777524794
 20
371.95764412424512
 30
0.0
 11
301.62327616061629
 21
365.89581709480842
 31
0.0
  0
ARC
  5
14D1C
  8
0
 62
     7
 10
307.88755126719752
 20
352.19573709480841
 30
0.0
 40
20.730993514718641
 50
72.412046226010602
 51
107.5879537739893
  0
ARC
  5
14D1D
  8
0
 62
     7
 10
307.88754967533458
 20
385.65772412424701
 30
0.0
 40
20.73099351472019
 50
252.4120462260106
 51
287.5879537739894
  0
LINE
  5
14D1E
  8
0
 62
     7
 10
297.03751126719771
 20
372.926730609527
 30
0.0
 11
295.35900423776138
 21
371.95764412424558
 31
0.0
  0
LINE
  5
14D1F
  8
0
 62
     7
 10
297.03750967533432
 20
364.9267306095266
 30
0.0
 11
295.35900264589822
 21
365.89581709480842
 31
0.0
  0
LINE
  5
14D20
  8
0
 62
     7
 10
295.35900423776138
 20
371.95764412424512
 30
0.0
 11
295.35900264589822
 21
365.89581709480842
 31
0.0
  0
ARC
  5
14D21
  8
0
 62
     7
 10
298.49113940325742
 20
370.47288642018742
 30
0.0
 40
5.5461558106605002
 50
235.6157525319577
 51
304.3842474680423
  0
ARC
  5
14D22
  8
0
 62
     7
 10
298.4911409951203
 20
367.38057479886658
 30
0.0
 40
5.5461558106604736
 50
55.615752531957689
 51
124.3842474680423
  0
TEXT
  5
14D23
  8
DIM
 10
284.55603796155401
 20
389.926730609527
 30
0.0
 40
3.0
  1
74
  7
ROMANS
  0
SOLID
  5
14D24
  8
DIM
 10
304.93312861197433
 20
380.40578607642681
 30
0.0
 11
304.93312861197433
 21
381.44767514262668
 31
0.0
 12
307.88755187097422
 22
380.926730609527
 32
0.0
 13
307.88755187097422
 23
380.926730609527
 33
0.0
  0
LINE
  5
14D25
  8
DIM
 10
307.88755187097422
 20
378.08799557455671
 30
0.0
 11
307.88755187097422
 21
381.926730609527
 31
0.0
  0
LINE
  5
14D26
  8
HIDDEN
  6
HIDDEN
 10
300.28755187097431
 20
361.926730609527
 30
0.0
 11
315.4875518709743
 21
361.926730609527
 31
0.0
  0
LINE
  5
14D27
  8
HIDDEN
  6
HIDDEN
 10
300.38755187097422
 20
362.926730609527
 30
0.0
 11
315.38755187097422
 21
362.926730609527
 31
0.0
  0
LINE
  5
14D28
  8
HIDDEN
  6
HIDDEN
 10
301.63755187097422
 20
364.926730609527
 30
0.0
 11
301.63755187097422
 21
361.926730609527
 31
0.0
  0
LINE
  5
14D29
  8
HIDDEN
  6
HIDDEN
 10
300.88755187097422
 20
364.926730609527
 30
0.0
 11
300.88755187097422
 21
361.926730609527
 31
0.0
  0
LINE
  5
14D2A
  8
HIDDEN
  6
HIDDEN
 10
300.38755187097422
 20
364.926730609527
 30
0.0
 11
300.38755187097422
 21
362.926730609527
 31
0.0
  0
LINE
  5
14D2B
  8
HIDDEN
  6
HIDDEN
 10
314.13755187097422
 20
364.926730609527
 30
0.0
 11
314.13755187097422
 21
361.926730609527
 31
0.0
  0
LINE
  5
14D2C
  8
HIDDEN
  6
HIDDEN
 10
314.88755187097422
 20
364.926730609527
 30
0.0
 11
314.88755187097422
 21
361.926730609527
 31
0.0
  0
LINE
  5
14D2D
  8
HIDDEN
  6
HIDDEN
 10
315.38755187097422
 20
364.926730609527
 30
0.0
 11
315.38755187097422
 21
362.926730609527
 31
0.0
  0
LINE
  5
14D2E
  8
0
 10
321.88755187097422
 20
349.926730609527
 30
0.0
 11
321.88755187097422
 21
364.926730609527
 31
0.0
  0
LINE
  5
14D2F
  8
0
 10
318.88755187097422
 20
349.926730609527
 30
0.0
 11
318.88755187097422
 21
364.926730609527
 31
0.0
  0
SOLID
  5
14D30
  8
DIM
 10
357.3666073378742
 20
352.88115386852712
 30
0.0
 11
358.40849640407413
 21
352.88115386852712
 31
0.0
 12
357.88755187097422
 22
349.926730609527
 32
0.0
 13
357.88755187097422
 23
349.926730609527
 33
0.0
  0
LINE
  5
14D31
  8
DIM
 10
322.88755187097422
 20
349.926730609527
 30
0.0
 11
358.88755187097422
 21
349.926730609527
 31
0.0
  0
ARC
  5
14D32
  8
0
 10
326.88755187097422
 20
320.926730609527
 30
0.0
 40
4.0
 50
0.0
 51
90.0
  0
LINE
  5
14D33
  8
0
  6
PHANTOM
 62
     6
 10
321.88755187097422
 20
327.926730609527
 30
0.0
 11
321.88755187097422
 21
342.926730609527
 31
0.0
  0
SOLID
  5
14D34
  8
DIM
 10
350.40849640407419
 20
346.97230735052688
 30
0.0
 11
349.3666073378742
 21
346.97230735052688
 31
0.0
 12
349.88755187097422
 22
349.9267306095266
 32
0.0
 13
349.88755187097422
 23
349.9267306095266
 33
0.0
  0
SOLID
  5
14D35
  8
DIM
 10
350.40849640407419
 20
321.97230735052688
 30
0.0
 11
349.3666073378742
 21
321.97230735052688
 31
0.0
 12
349.88755187097422
 22
324.926730609527
 32
0.0
 13
349.88755187097422
 23
324.926730609527
 33
0.0
  0
SOLID
  5
14D36
  8
DIM
 10
350.40849640407419
 20
330.88115386852712
 30
0.0
 11
349.3666073378742
 21
330.88115386852712
 31
0.0
 12
349.88755187097422
 22
327.926730609527
 32
0.0
 13
349.88755187097422
 23
327.926730609527
 33
0.0
  0
LINE
  5
14D37
  8
DIM
 10
349.88755187097422
 20
327.926730609527
 30
0.0
 11
349.88755187097422
 21
349.926730609527
 31
0.0
  0
TEXT
  5
14D38
  8
DIM
 10
348.88755187097422
 20
335.06241531672168
 30
0.0
 40
3.0
  1
22
 50
90.0
  7
ROMANS
  0
LINE
  5
14D39
  8
DIM
 10
327.88755187097422
 20
324.926730609527
 30
0.0
 11
350.88755187097422
 21
324.926730609527
 31
0.0
  0
LINE
  5
14D3A
  8
DIM
 10
322.88755187097422
 20
327.926730609527
 30
0.0
 11
351.1996722947917
 21
327.926730609527
 31
0.0
  0
SOLID
  5
14D3B
  8
DIM
 10
358.40849640407413
 20
346.97230735052688
 30
0.0
 11
357.3666073378742
 21
346.97230735052688
 31
0.0
 12
357.88755187097422
 22
349.926730609527
 32
0.0
 13
357.88755187097422
 23
349.926730609527
 33
0.0
  0
TEXT
  5
14D3C
  8
DIM
 10
364.88755187097422
 20
306.57972555199729
 30
0.0
 40
3.0
  1
124
 50
90.0
  7
ROMANS
  0
TEXT
  5
14D3D
  8
DIM
 10
356.88755187097422
 20
295.14101713399788
 30
0.0
 40
3.0
  1
101
 50
90.0
  7
ROMANS
  0
LINE
  5
14D3E
  8
DIM
 10
322.88755187097422
 20
364.926730609527
 30
0.0
 11
358.88755187097422
 21
364.926730609527
 31
0.0
  0
LINE
  5
14D3F
  8
DIM
 10
319.7375912671975
 20
372.9267306095266
 30
0.0
 11
367.25601469372668
 21
372.9267306095266
 31
0.0
  0
LINE
  5
14D40
  8
DIM
 10
345.748623736463
 20
398.39790812563791
 30
0.0
 11
364.7129094506908
 21
398.39790812563791
 31
0.0
  0
TEXT
  5
14D41
  8
DIM
 10
349.748623736463
 20
399.39790812563791
 30
0.0
 40
3.0
  1
4-%%c6.8
  7
ROMANS
  0
LINE
  5
14D42
  8
0
 62
     7
 10
318.7375912671975
 20
372.9267306095266
 30
0.0
 11
320.41609829663412
 21
371.95764412424472
 31
0.0
  0
LINE
  5
14D43
  8
0
 62
     7
 10
318.73758967533439
 20
364.9267306095266
 30
0.0
 11
320.41609670477078
 21
365.89581709480842
 31
0.0
  0
LINE
  5
14D44
  8
0
 62
     7
 10
320.41609829663412
 20
371.95764412424472
 30
0.0
 11
320.41609670477078
 21
365.89581709480842
 31
0.0
  0
SOLID
  5
14D45
  8
DIM
 10
318.93312861197398
 20
388.40578607642681
 30
0.0
 11
318.93312861197398
 21
389.44767514262668
 31
0.0
 12
321.88755187097422
 22
388.926730609527
 32
0.0
 13
321.88755187097422
 23
388.926730609527
 33
0.0
  0
LINE
  5
14D46
  8
DIM
 10
321.88755187097422
 20
365.926730609527
 30
0.0
 11
321.88755187097422
 21
389.926730609527
 31
0.0
  0
SOLID
  5
14D47
  8
DIM
 10
366.40849640407413
 20
369.97230735052642
 30
0.0
 11
365.3666073378742
 21
369.97230735052642
 31
0.0
 12
365.88755187097422
 22
372.9267306095266
 32
0.0
 13
365.88755187097422
 23
372.9267306095266
 33
0.0
  0
TEXT
  5
14D48
  8
DIM
 10
356.88755187097422
 20
353.79778802804083
 30
0.0
 40
3.0
  1
15
 50
90.0
  7
ROMANS
  0
SOLID
  5
14D49
  8
DIM
 10
358.40849640407413
 20
361.97230735052688
 30
0.0
 11
357.3666073378742
 21
361.97230735052688
 31
0.0
 12
357.88755187097422
 22
364.926730609527
 32
0.0
 13
357.88755187097422
 23
364.926730609527
 33
0.0
  0
POLYLINE
  5
14D4A
  8
0
 66
     1
 10
0.0
 20
0.0
 30
0.0
  0
VERTEX
  5
14E43
  8
0
 10
330.1824503905907
 20
460.19791625898819
 30
0.0
  0
VERTEX
  5
14E44
  8
0
 10
285.59265335135768
 20
460.19791625898819
 30
0.0
  0
SEQEND
  5
14E45
  8
0
  0
LINE
  5
14D4B
  8
0
 10
318.88755187097422
 20
447.69791625898858
 30
0.0
 11
270.2798567163872
 21
447.69791625898858
 31
0.0
  0
POLYLINE
  5
14D4C
  8
0
 66
     1
 10
0.0
 20
0.0
 30
0.0
  0
VERTEX
  5
14E46
  8
0
 10
285.59265335135768
 20
408.19791625898858
 30
0.0
  0
VERTEX
  5
14E47
  8
0
 10
330.1824503905907
 20
408.19791625898858
 30
0.0
  0
SEQEND
  5
14E48
  8
0
  0
LINE
  5
14D4D
  8
0
 10
270.2798567163872
 20
420.69791625898858
 30
0.0
 11
318.88755187097422
 21
420.69791625898858
 31
0.0
  0
POLYLINE
  5
14D4E
  8
0
 62
     7
 66
     1
 10
0.0
 20
0.0
 30
0.0
 70
     1
  0
VERTEX
  5
14E49
  8
0
 62
     7
 10
301.62327835625592
 20
423.34787625898832
 30
0.0
  0
VERTEX
  5
14E4A
  8
0
 62
     7
 10
314.15182538569252
 20
423.34787625898832
 30
0.0
  0
VERTEX
  5
14E4B
  8
0
 62
     7
 10
320.41609890041059
 20
434.19791625898858
 30
0.0
  0
VERTEX
  5
14E4C
  8
0
 62
     7
 10
314.15182538569252
 20
445.04795625898839
 30
0.0
  0
VERTEX
  5
14E4D
  8
0
 62
     7
 10
301.62327835625592
 20
445.04795625898839
 30
0.0
  0
VERTEX
  5
14E4E
  8
0
 62
     7
 10
295.35900484153763
 20
434.19791625898819
 30
0.0
  0
SEQEND
  5
14E4F
  8
0
 62
     7
  0
CIRCLE
  5
14D4F
  8
0
 62
     7
 10
307.88755187097422
 20
434.19791625898858
 30
0.0
 40
10.85004
  0
ARC
  5
14D50
  8
0
 10
307.88755187097422
 20
434.19791625898858
 30
0.0
 40
23.0
 50
215.94132989123301
 51
144.0586701087669
  0
ARC
  5
14D51
  8
0
 10
307.88755187097422
 20
434.19791625898858
 30
0.0
 40
34.25
 50
130.61295988215801
 51
139.38704011784191
  0
ARC
  5
14D52
  8
0
 10
307.88755187097422
 20
434.19791625898858
 30
0.0
 40
34.25
 50
220.61295988215801
 51
229.38704011784191
  0
LINE
  5
14D53
  8
CENTER
  6
CENTER
 10
294.2875518709742
 20
454.19791625898807
 30
0.0
 11
281.48755187097407
 21
454.19791625898807
 31
0.0
  0
LINE
  5
14D54
  8
CENTER
  6
CENTER
 10
294.2875518709742
 20
414.19791625898819
 30
0.0
 11
281.48755187097407
 21
414.19791625898819
 31
0.0
  0
POLYLINE
  5
14D55
  8
0
 66
     1
 10
0.0
 20
0.0
 30
0.0
  0
VERTEX
  5
14E50
  8
0
 10
281.88755187097422
 20
456.4928147786049
 30
0.0
  0
VERTEX
  5
14E51
  8
0
 10
281.88755187097422
 20
447.69791625898858
 30
0.0
  0
SEQEND
  5
14E52
  8
0
  0
POLYLINE
  5
14D56
  8
0
 66
     1
 10
0.0
 20
0.0
 30
0.0
  0
VERTEX
  5
14E53
  8
0
 10
281.88755187097422
 20
420.69791625898858
 30
0.0
  0
VERTEX
  5
14E54
  8
0
 10
281.88755187097422
 20
411.90301773937188
 30
0.0
  0
SEQEND
  5
14E55
  8
0
  0
CIRCLE
  5
14D57
  8
0
 62
     7
 10
257.88755187097422
 20
434.19791625898858
 30
0.0
 40
4.2999999999999989
  0
ARC
  5
14D58
  8
0
 62
     2
 10
257.88755187097422
 20
434.19791625898858
 30
0.0
 40
5.0
 50
76.896110783783627
 51
12.730867054791229
  0
LINE
  5
14D59
  8
CENTER
  6
CENTER
 10
257.88755187097439
 20
442.64929136259519
 30
0.0
 11
257.88755187097422
 21
425.22153614820928
 31
0.0
  0
CIRCLE
  5
14D5A
  8
0
 10
287.88755187097422
 20
454.19791625898807
 30
0.0
 40
3.3999999999999999
  0
CIRCLE
  5
14D5B
  8
0
 10
287.88755187097422
 20
414.19791625898858
 30
0.0
 40
3.3999999999999999
  0
CIRCLE
  5
14D5C
  8
0
 62
     7
 10
307.88755187097422
 20
434.19791625898858
 30
0.0
 40
7.0
  0
CIRCLE
  5
14D5D
  8
0
 62
     7
 10
307.88755187097422
 20
434.19791625898858
 30
0.0
 40
6.25
  0
LINE
  5
14D5E
  8
CENTER
  6
CENTER
 10
287.88755187097388
 20
447.79791625898849
 30
0.0
 11
287.88755187097388
 21
460.59791625898822
 31
0.0
  0
LINE
  5
14D5F
  8
CENTER
  6
CENTER
 10
287.88755187097439
 20
420.59791625898828
 30
0.0
 11
287.88755187097439
 21
407.79791625898849
 31
0.0
  0
LINE
  5
14D60
  8
DIM
 10
331.18245039059059
 20
408.19791625898858
 30
0.0
 11
358.88755187097422
 21
408.19791625898858
 31
0.0
  0
LINE
  5
14D61
  8
DIM
 10
331.18245039059059
 20
460.19791625898819
 30
0.0
 11
358.88755187097422
 21
460.19791625898819
 31
0.0
  0
ARC
  5
14D62
  8
0
 10
307.88755187097422
 20
434.19791625898858
 30
0.0
 40
34.25
 50
40.612959882158073
 51
49.38704011784192
  0
LINE
  5
14D63
  8
0
 10
318.88755187097422
 20
447.69791625898858
 30
0.0
 11
321.88755187097422
 21
444.69791625898807
 31
0.0
  0
CIRCLE
  5
14D64
  8
0
 10
327.88755187097422
 20
454.19791625898807
 30
0.0
 40
3.3999999999999999
  0
CIRCLE
  5
14D65
  8
0
 10
327.88755187097422
 20
414.19791625898858
 30
0.0
 40
3.3999999999999999
  0
LINE
  5
14D66
  8
0
 10
318.88755187097422
 20
420.69791625898858
 30
0.0
 11
321.88755187097422
 21
423.69791625898807
 31
0.0
  0
ARC
  5
14D67
  8
0
 10
307.88755187097422
 20
434.19791625898858
 30
0.0
 40
34.25
 50
310.61295988215801
 51
319.38704011784188
  0
LINE
  5
14D68
  8
0
 10
321.88755187097422
 20
423.69791625898807
 30
0.0
 11
321.88755187097422
 21
444.69791625898807
 31
0.0
  0
POLYLINE
  5
14D69
  8
0
 66
     1
 10
0.0
 20
0.0
 30
0.0
  0
VERTEX
  5
14E56
  8
0
 10
333.88755187097422
 20
411.90301773937188
 30
0.0
  0
VERTEX
  5
14E57
  8
0
 10
333.88755187097422
 20
456.4928147786049
 30
0.0
  0
SEQEND
  5
14E58
  8
0
  0
SOLID
  5
14D6A
  8
DIM
 10
350.40849640407419
 20
451.2434929999884
 30
0.0
 11
349.3666073378742
 21
451.2434929999884
 31
0.0
 12
349.88755187097422
 22
454.19791625898858
 32
0.0
 13
349.88755187097422
 23
454.19791625898858
 33
0.0
  0
SOLID
  5
14D6B
  8
DIM
 10
342.40849640407419
 20
444.74349299998852
 30
0.0
 11
341.3666073378742
 21
444.74349299998852
 31
0.0
 12
341.88755187097422
 22
447.69791625898819
 32
0.0
 13
341.88755187097422
 23
447.69791625898819
 33
0.0
  0
TEXT
  5
14D6C
  8
DIM
 10
348.88755187097422
 20
432.64453487182789
 30
0.0
 40
3.0
  1
40
 50
90.0
  7
ROMANS
  0
LINE
  5
14D6D
  8
DIM
 10
319.88755187097422
 20
447.69791625898858
 30
0.0
 11
343.22945893135619
 21
447.69791625898858
 31
0.0
  0
POLYLINE
  5
14D6E
  8
DIM
 66
     1
 10
0.0
 20
0.0
 30
0.0
 70
     1
  0
VERTEX
  5
14E59
  8
DIM
 10
346.10886030003547
 20
432.25013497168169
 30
0.0
  0
VERTEX
  5
14E5A
  8
DIM
 10
348.58724748277149
 20
432.25013497168169
 30
0.0
  0
VERTEX
  5
14E5B
  8
DIM
 10
348.58724748277149
 20
429.88301186273742
 30
0.0
  0
VERTEX
  5
14E5C
  8
DIM
 10
346.10886030003547
 20
429.88301186273742
 30
0.0
  0
SEQEND
  5
14E5D
  8
DIM
  0
SOLID
  5
14D6F
  8
DIM
 10
349.3666073378742
 20
417.15233951798871
 30
0.0
 11
350.40849640407419
 21
417.15233951798871
 31
0.0
 12
349.88755187097422
 22
414.19791625898858
 32
0.0
 13
349.88755187097422
 23
414.19791625898858
 33
0.0
  0
SOLID
  5
14D70
  8
DIM
 10
342.40849640407419
 20
423.65233951798831
 30
0.0
 11
341.3666073378742
 21
423.65233951798831
 31
0.0
 12
341.88755187097422
 22
420.69791625898807
 32
0.0
 13
341.88755187097422
 23
420.69791625898807
 33
0.0
  0
LINE
  5
14D71
  8
DIM
 10
319.88755187097422
 20
420.69791625898807
 30
0.0
 11
343.22945893135619
 21
420.69791625898807
 31
0.0
  0
SOLID
  5
14D72
  8
DIM
 10
332.99217778663183
 20
410.37785442411121
 30
0.0
 11
332.3018534902526
 21
409.59747939113311
 31
0.0
 12
330.4341522703844
 22
411.94517872307267
 32
0.0
 13
330.4341522703844
 23
411.94517872307267
 33
0.0
  0
LINE
  5
14D73
  8
DIM
 10
349.88755187097422
 20
414.19791625898858
 30
0.0
 11
349.88755187097422
 21
454.19791625898858
 31
0.0
  0
TEXT
  5
14D74
  8
DIM
 10
340.88755187097422
 20
431.5255679652181
 30
0.0
 40
3.0
  1
27
 50
90.0
  7
ROMANS
  0
LINE
  5
14D75
  8
DIM
 10
341.88755187097422
 20
420.69791625898807
 30
0.0
 11
341.88755187097422
 21
447.69791625898858
 31
0.0
  0
LINE
  5
14D76
  8
DIM
 10
335.28755187097431
 20
414.19791625898858
 30
0.0
 11
350.88755187097422
 21
414.19791625898858
 31
0.0
  0
LINE
  5
14D77
  8
DIM
 10
335.28755187097431
 20
454.19791625898858
 30
0.0
 11
350.88755187097422
 21
454.19791625898858
 31
0.0
  0
LINE
  5
14D78
  8
CENTER
  6
CENTER
 10
321.48755187097407
 20
454.19791625898858
 30
0.0
 11
334.2875518709742
 21
454.19791625898858
 31
0.0
  0
LINE
  5
14D79
  8
CENTER
  6
CENTER
 10
327.88755187097388
 20
447.79791625898849
 30
0.0
 11
327.88755187097388
 21
460.59791625898868
 31
0.0
  0
LINE
  5
14D7A
  8
CENTER
  6
CENTER
 10
321.48755187097407
 20
414.19791625898858
 30
0.0
 11
334.2875518709742
 21
414.19791625898858
 31
0.0
  0
LINE
  5
14D7B
  8
CENTER
  6
CENTER
 10
327.88755187097439
 20
420.59791625898868
 30
0.0
 11
327.88755187097439
 21
407.79791625898849
 31
0.0
  0
SOLID
  5
14D7C
  8
DIM
 10
358.40849640407413
 20
457.24349299998852
 30
0.0
 11
357.3666073378742
 21
457.24349299998852
 31
0.0
 12
357.88755187097422
 22
460.19791625898819
 32
0.0
 13
357.88755187097422
 23
460.19791625898819
 33
0.0
  0
TEXT
  5
14D7D
  8
DIM
 10
356.88755187097422
 20
432.65893316893693
 30
0.0
 40
3.0
  1
52
 50
90.0
  7
ROMANS
  0
POLYLINE
  5
14D7E
  8
DIM
 66
     1
 10
0.0
 20
0.0
 30
0.0
 70
     1
  0
VERTEX
  5
14E5E
  8
DIM
 10
354.10886030003547
 20
432.25013497168169
 30
0.0
  0
VERTEX
  5
14E5F
  8
DIM
 10
356.58724748277149
 20
432.25013497168169
 30
0.0
  0
VERTEX
  5
14E60
  8
DIM
 10
356.58724748277149
 20
429.88301186273742
 30
0.0
  0
VERTEX
  5
14E61
  8
DIM
 10
354.10886030003547
 20
429.88301186273742
 30
0.0
  0
SEQEND
  5
14E62
  8
DIM
  0
SOLID
  5
14D7F
  8
DIM
 10
357.3666073378742
 20
411.15233951798831
 30
0.0
 11
358.40849640407413
 21
411.15233951798831
 31
0.0
 12
357.88755187097422
 22
408.19791625898858
 32
0.0
 13
357.88755187097422
 23
408.19791625898858
 33
0.0
  0
LINE
  5
14D80
  8
DIM
 10
357.88755187097422
 20
408.19791625898858
 30
0.0
 11
357.88755187097422
 21
460.19791625898819
 31
0.0
  0
LINE
  5
14D81
  8
0
 10
418.08613424264371
 20
320.926730609527
 30
0.0
 11
418.08613424264371
 21
275.926730609527
 31
0.0
  0
LINE
  5
14D82
  8
0
 10
464.08613424264371
 20
320.926730609527
 30
0.0
 11
464.08613424264371
 21
275.926730609527
 31
0.0
  0
LINE
  5
14D83
  8
CENTER
  6
CENTER
 10
441.08613424264382
 20
377.08799557455671
 30
0.0
 11
441.08613424264382
 21
245.3214788718609
 31
0.0
  0
LINE
  5
14D84
  8
0
 10
415.88613424264372
 20
248.926730609527
 30
0.0
 11
466.28613424264358
 21
248.926730609527
 31
0.0
  0
LINE
  5
14D85
  8
0
 10
415.88613424264372
 20
275.926730609527
 30
0.0
 11
466.28613424264358
 21
275.926730609527
 31
0.0
  0
LINE
  5
14D86
  8
0
 10
415.08613424264371
 20
275.12673060952682
 30
0.0
 11
467.08613424264371
 21
275.12673060952682
 31
0.0
  0
LINE
  5
14D87
  8
0
 10
415.08613424264371
 20
249.72673060952721
 30
0.0
 11
467.08613424264371
 21
249.72673060952721
 31
0.0
  0
LINE
  5
14D88
  8
CENTER
  6
CENTER
 10
428.69543648446768
 20
265.926730609527
 30
0.0
 11
412.69543648446768
 21
265.926730609527
 31
0.0
  0
LINE
  5
14D89
  8
HIDDEN
  6
HIDDEN
 10
424.08613424264382
 20
269.70506059597972
 30
0.0
 11
415.08613424264371
 21
270.176730609527
 31
0.0
  0
LINE
  5
14D8A
  8
HIDDEN
  6
HIDDEN
 10
424.08613424264382
 20
270.45506059597932
 30
0.0
 11
415.08613424264371
 21
270.926730609527
 31
0.0
  0
LINE
  5
14D8B
  8
HIDDEN
  6
HIDDEN
 10
424.08613424264382
 20
262.14840062307428
 30
0.0
 11
415.08613424264371
 21
261.676730609527
 31
0.0
  0
LINE
  5
14D8C
  8
HIDDEN
  6
HIDDEN
 10
424.08613424264382
 20
261.39840062307428
 30
0.0
 11
415.08613424264371
 21
260.926730609527
 31
0.0
  0
LINE
  5
14D8D
  8
0
 10
419.59123572302718
 20
275.926730609527
 30
0.0
 11
418.791235723027
 21
275.12673060952682
 31
0.0
  0
LINE
  5
14D8E
  8
0
 10
418.79123572302723
 20
249.7267306095267
 30
0.0
 11
419.59123572302718
 21
248.926730609527
 31
0.0
  0
LINE
  5
14D8F
  8
0
  6
CONTINUOUS
 10
418.791235723027
 20
275.12673060952682
 30
0.0
 11
418.791235723027
 21
249.72673060952721
 31
0.0
  0
LINE
  5
14D90
  8
0
 10
415.88613424264372
 20
275.926730609527
 30
0.0
 11
415.08613424264371
 21
275.12673060952682
 31
0.0
  0
LINE
  5
14D91
  8
0
 10
415.08613424264371
 20
249.7267306095267
 30
0.0
 11
415.88613424264372
 21
248.926730609527
 31
0.0
  0
LINE
  5
14D92
  8
0
 10
415.08613424264371
 20
275.12673060952682
 30
0.0
 11
415.08613424264371
 21
249.7267306095267
 31
0.0
  0
LINE
  5
14D93
  8
CENTER
  6
CENTER
 10
421.08613424264371
 20
281.32369133101872
 30
0.0
 11
421.08613424264371
 21
245.1424030367815
 31
0.0
  0
LINE
  5
14D94
  8
HIDDEN
  6
HIDDEN
 10
417.68613424264379
 20
275.926730609527
 30
0.0
 11
417.68613424264379
 21
248.926730609527
 31
0.0
  0
LINE
  5
14D95
  8
HIDDEN
  6
HIDDEN
 10
457.68613424264362
 20
275.926730609527
 30
0.0
 11
457.68613424264362
 21
248.926730609527
 31
0.0
  0
LINE
  5
14D96
  8
HIDDEN
  6
HIDDEN
 10
424.4861342426438
 20
275.926730609527
 30
0.0
 11
424.4861342426438
 21
248.926730609527
 31
0.0
  0
LINE
  5
14D97
  8
0
 10
467.08613424264371
 20
275.12673060952682
 30
0.0
 11
466.28613424264358
 21
275.926730609527
 31
0.0
  0
LINE
  5
14D98
  8
0
 10
463.38103276226047
 20
275.12673060952682
 30
0.0
 11
462.58103276226029
 21
275.926730609527
 31
0.0
  0
LINE
  5
14D99
  8
0
 10
466.28613424264358
 20
248.926730609527
 30
0.0
 11
467.08613424264371
 21
249.72673060952721
 31
0.0
  0
LINE
  5
14D9A
  8
0
 10
462.58103276226029
 20
248.926730609527
 30
0.0
 11
463.38103276226047
 21
249.72673060952721
 31
0.0
  0
LINE
  5
14D9B
  8
0
 10
467.08613424264371
 20
249.72673060952721
 30
0.0
 11
467.08613424264371
 21
275.12673060952682
 31
0.0
  0
LINE
  5
14D9C
  8
0
  6
CONTINUOUS
 10
463.38103276226019
 20
275.12673060952682
 30
0.0
 11
463.38103276226019
 21
249.72673060952721
 31
0.0
  0
LINE
  5
14D9D
  8
CENTER
  6
CENTER
 10
461.08613424264382
 20
281.32369133101872
 30
0.0
 11
461.08613424264382
 21
245.0862125972771
 31
0.0
  0
LINE
  5
14D9E
  8
HIDDEN
  6
HIDDEN
 10
464.4861342426438
 20
275.926730609527
 30
0.0
 11
464.4861342426438
 21
248.926730609527
 31
0.0
  0
LINE
  5
14D9F
  8
0
 10
460.08613424264371
 20
324.926730609527
 30
0.0
 11
422.08613424264371
 21
324.926730609527
 31
0.0
  0
LINE
  5
14DA0
  8
0
 62
     4
 10
464.08613424264371
 20
320.926730609527
 30
0.0
 11
418.08613424264371
 21
320.926730609527
 31
0.0
  0
LINE
  5
14DA1
  8
0
 10
454.58613424264422
 20
364.9267306095266
 30
0.0
 11
454.58613424264399
 21
349.926730609527
 31
0.0
  0
LINE
  5
14DA2
  8
0
 10
427.58613424264371
 20
364.926730609527
 30
0.0
 11
427.58613424264371
 21
349.926730609527
 31
0.0
  0
LINE
  5
14DA3
  8
CENTER
  6
CENTER
 10
432.32224904040589
 20
311.926730609527
 30
0.0
 11
416.32224904040589
 21
311.926730609527
 31
0.0
  0
LINE
  5
14DA4
  8
HIDDEN
  6
HIDDEN
 10
427.08613424264371
 20
315.70506059597932
 30
0.0
 11
418.08613424264371
 21
316.176730609527
 31
0.0
  0
LINE
  5
14DA5
  8
HIDDEN
  6
HIDDEN
 10
427.08613424264371
 20
308.14840062307428
 30
0.0
 11
418.08613424264371
 21
307.676730609527
 31
0.0
  0
LINE
  5
14DA6
  8
HIDDEN
  6
HIDDEN
 10
427.08613424264371
 20
307.39840062307428
 30
0.0
 11
418.08613424264371
 21
306.926730609527
 31
0.0
  0
LINE
  5
14DA7
  8
HIDDEN
  6
HIDDEN
 10
427.08613424264371
 20
316.45506059597932
 30
0.0
 11
418.08613424264371
 21
316.926730609527
 31
0.0
  0
ARC
  5
14DA8
  8
0
 10
422.08613424264371
 20
320.926730609527
 30
0.0
 40
4.0
 50
90.0
 51
180.0
  0
LINE
  5
14DA9
  8
0
 10
427.58613424264371
 20
349.926730609527
 30
0.0
 11
454.58613424264399
 21
349.926730609527
 31
0.0
  0
LINE
  5
14DAA
  8
0
 10
450.08613424264371
 20
349.926730609527
 30
0.0
 11
450.08613424264371
 21
324.926730609527
 31
0.0
  0
LINE
  5
14DAB
  8
0
 10
432.08613424264382
 20
349.926730609527
 30
0.0
 11
432.08613424264382
 21
324.926730609527
 31
0.0
  0
LINE
  5
14DAC
  8
0
 62
     7
 10
451.08613239629437
 20
372.926730609527
 30
0.0
 11
451.08613449713039
 21
364.926730609527
 31
0.0
  0
LINE
  5
14DAD
  8
0
 62
     7
 10
441.0861358345071
 20
371.95764412424512
 30
0.0
 11
441.08613424264382
 21
365.89581709480842
 31
0.0
  0
LINE
  5
14DAE
  8
0
 62
     7
 10
431.08613608899333
 20
372.926730609527
 30
0.0
 11
431.08613398815709
 21
364.926730609527
 31
0.0
  0
ARC
  5
14DAF
  8
0
 62
     7
 10
436.08613424264388
 20
378.31001941290731
 30
0.0
 40
13.38328880338053
 50
248.06217406361759
 51
291.9378259363823
  0
ARC
  5
14DB0
  8
0
 62
     7
 10
436.08613583450688
 20
359.54344180614669
 30
0.0
 40
13.38328880338031
 50
68.062174063617661
 51
111.9378259363823
  0
LINE
  5
14DB1
  8
0
 62
     7
 10
427.58613424264371
 20
364.926730609527
 30
0.0
 11
454.58613424264422
 21
364.9267306095266
 31
0.0
  0
ARC
  5
14DB2
  8
0
 62
     7
 10
446.08613424264371
 20
378.31001941290731
 30
0.0
 40
13.38328880338053
 50
248.06217406361759
 51
291.9378259363823
  0
ARC
  5
14DB3
  8
0
 62
     7
 10
446.08613265078083
 20
359.54344180614669
 30
0.0
 40
13.38328880338031
 50
68.062174063617661
 51
111.9378259363823
  0
LINE
  5
14DB4
  8
0
 62
     7
 10
431.08613608899333
 20
372.926730609527
 30
0.0
 11
451.08613239629437
 21
372.926730609527
 31
0.0
  0
ARC
  5
14DB5
  8
0
 10
460.08613424264371
 20
320.926730609527
 30
0.0
 40
4.0
 50
0.0
 51
90.0
  0
ENDSEC
  0
EOF
