  0
SECTION
  2
HEADER
  9
$ACADVER
  1
AC1012
  9
$DWGCODEPAGE
  3
big5
  9
$INSBASE
 10
0.0
 20
0.0
 30
0.0
  9
$EXTMIN
 10
185.8606597206794
 20
176.2774679813039
 30
-0.000000000000013
  9
$EXTMAX
 10
635.9650289788433
 20
587.0104997081339
 30
0.0000000000000023
  9
$LIMMIN
 10
0.0
 20
0.0
  9
$LIMMAX
 10
1188.0
 20
840.0
  9
$ORTHOMODE
 70
     1
  9
$REGENMODE
 70
     1
  9
$FILLMODE
 70
     1
  9
$QTEXTMODE
 70
     0
  9
$MIRRTEXT
 70
     1
  9
$DRAGMODE
 70
     2
  9
$LTSCALE
 40
1.0
  9
$OSMODE
 70
    39
  9
$ATTMODE
 70
     1
  9
$TEXTSIZE
 40
3.0
  9
$TRACEWID
 40
0.05
  9
$TEXTSTYLE
  7
ITALICT
  9
$CLAYER
  8
0
  9
$CELTYPE
  6
CONTINUOUS
  9
$CECOLOR
 62
   256
  9
$CELTSCALE
 40
1.0
  9
$DELOBJ
 70
     1
  9
$DISPSILH
 70
     0
  9
$DIMSCALE
 40
1.0
  9
$DIMASZ
 40
3.0
  9
$DIMEXO
 40
1.0
  9
$DIMDLI
 40
1.482416151081472E+16
  9
$DIMRND
 40
0.0
  9
$DIMDLE
 40
0.0
  9
$DIMEXE
 40
1.0
  9
$DIMTP
 40
0.15
  9
$DIMTM
 40
-0.1
  9
$DIMTXT
 40
3.0
  9
$DIMCEN
 40
2.0
  9
$DIMTSZ
 40
0.0
  9
$DIMTOL
 70
     0
  9
$DIMLIM
 70
     0
  9
$DIMTIH
 70
     0
  9
$DIMTOH
 70
     0
  9
$DIMSE1
 70
     0
  9
$DIMSE2
 70
     0
  9
$DIMTAD
 70
     1
  9
$DIMZIN
 70
     0
  9
$DIMBLK
  1

  9
$DIMASO
 70
     0
  9
$DIMSHO
 70
     0
  9
$DIMPOST
  1

  9
$DIMAPOST
  1

  9
$DIMALT
 70
     0
  9
$DIMALTD
 70
     2
  9
$DIMALTF
 40
25.4
  9
$DIMLFAC
 40
1.0
  9
$DIMTOFL
 70
     1
  9
$DIMTVP
 40
1.0
  9
$DIMTIX
 70
     0
  9
$DIMSOXD
 70
     0
  9
$DIMSAH
 70
     0
  9
$DIMBLK1
  1

  9
$DIMBLK2
  1

  9
$DIMSTYLE
  2
STANDARD
  9
$DIMCLRD
 70
     0
  9
$DIMCLRE
 70
     0
  9
$DIMCLRT
 70
     0
  9
$DIMTFAC
 40
1.0
  9
$DIMGAP
 40
1.0
  9
$DIMJUST
 70
     0
  9
$DIMSD1
 70
     0
  9
$DIMSD2
 70
     0
  9
$DIMTOLJ
 70
     1
  9
$DIMTZIN
 70
     0
  9
$DIMALTZ
 70
     0
  9
$DIMALTTZ
 70
     0
  9
$DIMFIT
 70
     5
  9
$DIMUPT
 70
     0
  9
$DIMUNIT
 70
     2
  9
$DIMDEC
 70
     2
  9
$DIMTDEC
 70
     2
  9
$DIMALTU
 70
     2
  9
$DIMALTTD
 70
     2
  9
$DIMTXSTY
  7
STANDARD
  9
$DIMAUNIT
 70
     0
  9
$LUNITS
 70
     2
  9
$LUPREC
 70
     2
  9
$SKETCHINC
 40
0.1
  9
$FILLETRAD
 40
0.0
  9
$AUNITS
 70
     0
  9
$AUPREC
 70
     2
  9
$MENU
  1
ACAD
  9
$ELEVATION
 40
0.0
  9
$PELEVATION
 40
0.0
  9
$THICKNESS
 40
0.0
  9
$LIMCHECK
 70
     0
  9
$BLIPMODE
 70
     0
  9
$CHAMFERA
 40
0.0
  9
$CHAMFERB
 40
0.0
  9
$CHAMFERC
 40
0.0
  9
$CHAMFERD
 40
0.0
  9
$SKPOLY
 70
     1
  9
$TDCREATE
 40
2450580.703446064
  9
$TDUPDATE
 40
2452055.643725659
  9
$TDINDWG
 40
0.5768876620
  9
$TDUSRTIMER
 40
0.5768876620
  9
$USRTIMER
 70
     1
  9
$ANGBASE
 50
0.0
  9
$ANGDIR
 70
     0
  9
$PDMODE
 70
     0
  9
$PDSIZE
 40
0.0
  9
$PLINEWID
 40
0.0
  9
$COORDS
 70
     2
  9
$SPLFRAME
 70
     0
  9
$SPLINETYPE
 70
     6
  9
$SPLINESEGS
 70
     8
  9
$ATTDIA
 70
     0
  9
$ATTREQ
 70
     1
  9
$HANDLING
 70
 12289
  9
$HANDSEED
  5
14E30
  9
$SURFTAB1
 70
     6
  9
$SURFTAB2
 70
     6
  9
$SURFTYPE
 70
     6
  9
$SURFU
 70
     6
  9
$SURFV
 70
     6
  9
$UCSNAME
  2

  9
$UCSORG
 10
0.0
 20
0.0
 30
0.0
  9
$UCSXDIR
 10
1.0
 20
0.0
 30
0.0
  9
$UCSYDIR
 10
0.0
 20
1.0
 30
0.0
  9
$PUCSNAME
  2

  9
$PUCSORG
 10
0.0
 20
0.0
 30
0.0
  9
$PUCSXDIR
 10
1.0
 20
0.0
 30
0.0
  9
$PUCSYDIR
 10
0.0
 20
1.0
 30
0.0
  9
$USERI1
 70
     0
  9
$USERI2
 70
-31485
  9
$USERI3
 70
     0
  9
$USERI4
 70
     0
  9
$USERI5
 70
     0
  9
$USERR1
 40
0.0
  9
$USERR2
 40
0.0
  9
$USERR3
 40
0.0
  9
$USERR4
 40
0.0
  9
$USERR5
 40
0.0
  9
$WORLDVIEW
 70
     1
  9
$SHADEDGE
 70
     3
  9
$SHADEDIF
 70
    70
  9
$TILEMODE
 70
     1
  9
$MAXACTVP
 70
    16
  9
$PINSBASE
 10
0.0
 20
0.0
 30
0.0
  9
$PLIMCHECK
 70
     0
  9
$PEXTMIN
 10
1.000000000000000E+20
 20
1.000000000000000E+20
 30
1.000000000000000E+20
  9
$PEXTMAX
 10
-1.000000000000000E+20
 20
-1.000000000000000E+20
 30
-1.000000000000000E+20
  9
$PLIMMIN
 10
0.0
 20
0.0
  9
$PLIMMAX
 10
12.0
 20
9.0
  9
$UNITMODE
 70
     0
  9
$VISRETAIN
 70
     0
  9
$PLINEGEN
 70
     0
  9
$PSLTSCALE
 70
     0
  9
$TREEDEPTH
 70
  3020
  9
$PICKSTYLE
 70
     1
  9
$CMLSTYLE
  2
STANDARD
  9
$CMLJUST
 70
     0
  9
$CMLSCALE
 40
1.0
  9
$SAVEIMAGES
 70
     1
  0
ENDSEC
  0
SECTION
  2
CLASSES
  0
CLASS
  1
ACDBDICTIONARYWDFLT
  2
AcDbDictionaryWithDefault
  3
AutoCAD 2000
 90
    32768
280
     0
281
     0
  0
CLASS
  1
ACDBPLACEHOLDER
  2
AcDbPlaceHolder
  3
AutoCAD 2000
 90
    32768
280
     0
281
     0
  0
CLASS
  1
LAYOUT
  2
AcDbLayout
  3
AutoCAD 2000
 90
    32768
280
     0
281
     0
  0
CLASS
  1
LONG_TRANSACTION
  2
AcDbLongTransaction
  3
AutoCAD 2000
 90
    32768
280
     0
281
     0
  0
CLASS
  1
LWPOLYLINE
  2
AcDbPolyline
  3
AutoCAD 2000
 90
    32768
280
     0
281
     1
  0
CLASS
  1
HATCH
  2
AcDbHatch
  3
AutoCAD 2000
 90
    32768
280
     0
281
     1
  0
CLASS
  1
XRECORD
  2
AcDbXrecord
  3
AutoCAD 2000
 90
    32768
280
     0
281
     0
  0
ENDSEC
  0
SECTION
  2
TABLES
  0
TABLE
  2
VPORT
  5
8
330
0
100
AcDbSymbolTable
 70
     3
  0
VPORT
  5
14DFA
330
8
100
AcDbSymbolTableRecord
100
AcDbViewportTableRecord
  2
*ACTIVE
 70
     0
 10
0.0
 20
0.0
 11
1.0
 21
1.0
 12
410.8679824762075
 22
381.5724900688601
 13
0.0
 23
0.0
 14
1.0
 24
1.0
 15
0.0
 25
0.0
 16
0.0
 26
0.0
 36
1.0
 17
0.0
 27
0.0
 37
0.0
 40
415.6937473634415
 41
1.72744014732965
 42
1.0
 43
0.0
 44
0.0
 50
0.0
 51
0.0
 71
     0
 72
   100
 73
     1
 74
     1
 75
     0
 76
     0
 77
     0
 78
     0
  0
ENDTAB
  0
TABLE
  2
LTYPE
  5
5
330
0
100
AcDbSymbolTable
 70
     4
  0
LTYPE
  5
13
330
5
100
AcDbSymbolTableRecord
100
AcDbLinetypeTableRecord
  2
BYBLOCK
 70
     0
  3

 72
    65
 73
     0
 40
0.0
  0
LTYPE
  5
14
330
5
100
AcDbSymbolTableRecord
100
AcDbLinetypeTableRecord
  2
BYLAYER
 70
     0
  3

 72
    65
 73
     0
 40
0.0
  0
LTYPE
  5
15
330
5
100
AcDbSymbolTableRecord
100
AcDbLinetypeTableRecord
  2
CONTINUOUS
 70
     0
  3
Solid line
 72
    65
 73
     0
 40
0.0
  0
LTYPE
  5
35
330
5
100
AcDbSymbolTableRecord
100
AcDbLinetypeTableRecord
  2
CENTER
 70
     0
  3
____________________ _ ____________________ _ 
 72
    65
 73
     4
 40
34.5
 49
30.0
 74
     0
 49
-1.5
 74
     0
 49
1.5
 74
     0
 49
-1.5
 74
     0
  0
LTYPE
  5
36
330
5
100
AcDbSymbolTableRecord
100
AcDbLinetypeTableRecord
  2
HIDDEN
 70
     0
  3
___ ___ ___ ___ ___ ___ ___ ___ ___ ___ 
 72
    65
 73
     2
 40
6.0
 49
4.5
 74
     0
 49
-1.5
 74
     0
  0
LTYPE
  5
1491F
330
5
100
AcDbSymbolTableRecord
100
AcDbLinetypeTableRecord
  2
PHANTOM
 70
     0
  3
__________ _ _ __________ _ _ __________ _ _ 
 72
    65
 73
     6
 40
15.0
 49
10.0
 74
     0
 49
-1.0
 74
     0
 49
1.0
 74
     0
 49
-1.0
 74
     0
 49
1.0
 74
     0
 49
-1.0
 74
     0
  0
ENDTAB
  0
TABLE
  2
LAYER
  5
2
330
0
100
AcDbSymbolTable
 70
     6
  0
LAYER
  5
10
330
2
100
AcDbSymbolTableRecord
100
AcDbLayerTableRecord
  2
0
 70
     0
 62
     7
  6
CONTINUOUS
  0
LAYER
  5
D28
330
2
100
AcDbSymbolTableRecord
100
AcDbLayerTableRecord
  2
LOGO
 70
     0
 62
     7
  6
CONTINUOUS
  0
LAYER
  5
D29
330
2
100
AcDbSymbolTableRecord
100
AcDbLayerTableRecord
  2
DIM
 70
     0
 62
     5
  6
CONTINUOUS
  0
LAYER
  5
D2A
330
2
100
AcDbSymbolTableRecord
100
AcDbLayerTableRecord
  2
CENTER
 70
     0
 62
     1
  6
CONTINUOUS
  0
LAYER
  5
D2B
330
2
100
AcDbSymbolTableRecord
100
AcDbLayerTableRecord
  2
HIDDEN
 70
     0
 62
     3
  6
CONTINUOUS
  0
LAYER
  5
DC9C
330
2
100
AcDbSymbolTableRecord
100
AcDbLayerTableRecord
  2
UMCL3
 70
     0
 62
     1
  6
CONTINUOUS
  0
ENDTAB
  0
TABLE
  2
STYLE
  5
3
330
0
100
AcDbSymbolTable
 70
     7
  0
STYLE
  5
11
330
3
100
AcDbSymbolTableRecord
100
AcDbTextStyleTableRecord
  2
STANDARD
 70
     0
 40
0.0
 41
1.0
 50
0.0
 71
     0
 42
3.0
  3

  4

  0
STYLE
  5
30
330
3
100
AcDbSymbolTableRecord
100
AcDbTextStyleTableRecord
  2
ITALICT
 70
     0
 40
0.0
 41
1.0
 50
0.0
 71
     0
 42
3.0
  3
ITALICT.SHX
  4

  0
STYLE
  5
34
330
3
100
AcDbSymbolTableRecord
100
AcDbTextStyleTableRecord
  2
ROMANSS
 70
     0
 40
0.0
 41
1.0
 50
0.0
 71
     0
 42
3.0
  3
ROMANSS.SHX
  4
LMP
  0
STYLE
  5
D2C
330
3
100
AcDbSymbolTableRecord
100
AcDbTextStyleTableRecord
  2
CHINESET
 70
     0
 40
0.0
 41
1.0
 50
0.0
 71
     0
 42
5.0
  3
simplex.shx
  4
chineset.shx
  0
STYLE
  5
D2D
330
3
100
AcDbSymbolTableRecord
100
AcDbTextStyleTableRecord
  2
LOGO
 70
     0
 40
0.0
 41
1.0
 50
0.0
 71
     0
 42
5.0
  3
LEI00DP.TTF
  4

1001
ACAD
1000
文鼎中粗隸
1071
    34865
  0
STYLE
  5
DC9D
330
3
100
AcDbSymbolTableRecord
100
AcDbTextStyleTableRecord
  2
ROMANS
 70
     0
 40
0.0
 41
1.0
 50
0.0
 71
     0
 42
3.0
  3
ROMANS.SHX
  4
LMP
  0
STYLE
  5
DC9E
330
3
100
AcDbSymbolTableRecord
100
AcDbTextStyleTableRecord
  2
ROMANS1
 70
     0
 40
0.0
 41
1.0
 50
0.0
 71
     0
 42
3.0
  3
ROMANS.SHX
  4

  0
ENDTAB
  0
TABLE
  2
VIEW
  5
6
330
0
100
AcDbSymbolTable
 70
     0
  0
ENDTAB
  0
TABLE
  2
UCS
  5
7
330
0
100
AcDbSymbolTable
 70
     0
  0
ENDTAB
  0
TABLE
  2
APPID
  5
9
330
0
100
AcDbSymbolTable
 70
     1
  0
APPID
  5
12
330
9
100
AcDbSymbolTableRecord
100
AcDbRegAppTableRecord
  2
ACAD
 70
     0
  0
ENDTAB
  0
TABLE
  2
DIMSTYLE
  5
A
330
0
100
AcDbSymbolTable
 70
     1
  0
DIMSTYLE
105
D27
330
A
100
AcDbSymbolTableRecord
100
AcDbDimStyleTableRecord
  2
STANDARD
 70
     0
  3

  4

  5

  6

  7

 40
1.0
 41
0.18
 42
0.0625
 43
0.38
 44
0.18
 45
0.0
 46
0.0
 47
0.0
 48
0.0
140
0.18
141
0.09
142
0.0
143
25.4
144
1.0
145
0.0
146
1.0
147
0.09
 71
     0
 72
     0
 73
     1
 74
     1
 75
     0
 76
     0
 77
     0
 78
     0
170
     0
171
     2
172
     0
173
     0
174
     0
175
     0
176
     0
177
     0
178
     0
270
     2
271
     4
272
     4
273
     2
274
     2
340
11
275
     0
280
     0
281
     0
282
     0
283
     1
284
     0
285
     0
286
     0
287
     3
288
     0
  0
ENDTAB
  0
TABLE
  2
BLOCK_RECORD
  5
1
330
0
100
AcDbSymbolTable
 70
     0
  0
BLOCK_RECORD
  5
1E
102
{ACAD_XDICTIONARY
360
14DFD
102
}
330
1
100
AcDbSymbolTableRecord
100
AcDbBlockTableRecord
  2
*MODEL_SPACE
  0
BLOCK_RECORD
  5
1A
102
{ACAD_XDICTIONARY
360
14DFB
102
}
330
1
100
AcDbSymbolTableRecord
100
AcDbBlockTableRecord
  2
*PAPER_SPACE
  0
ENDTAB
  0
ENDSEC
  0
SECTION
  2
BLOCKS
  0
BLOCK
  5
3D
330
1E
100
AcDbEntity
  8
0
100
AcDbBlockBegin
  2
*MODEL_SPACE
 70
     0
 10
0.0
 20
0.0
 30
0.0
  3
*MODEL_SPACE
  1

  0
ENDBLK
  5
3E
330
1E
100
AcDbEntity
  8
0
100
AcDbBlockEnd
  0
BLOCK
  5
3B
330
1A
100
AcDbEntity
 67
     1
  8
0
100
AcDbBlockBegin
  2
*PAPER_SPACE
 70
     0
 10
0.0
 20
0.0
 30
0.0
  3
*PAPER_SPACE
  1

  0
ENDBLK
  5
3C
330
1A
100
AcDbEntity
 67
     1
  8
0
100
AcDbBlockEnd
  0
ENDSEC
  0
SECTION
  2
ENTITIES
  0
LINE
  5
B2B
330
1E
100
AcDbEntity
  8
0
 62
     4
100
AcDbLine
 10
185.8627237494783
 20
232.9267131465944
 30
0.0
 11
185.8627237494783
 21
586.9577453877942
 31
0.0
  0
LINE
  5
B2D
330
1E
100
AcDbEntity
  8
0
 62
     4
100
AcDbLine
 10
635.9283489218994
 20
232.9267131465944
 30
0.0
 11
185.8627237494783
 21
232.9267131465944
 31
0.0
  0
LINE
  5
B2E
330
1E
100
AcDbEntity
  8
0
 62
     4
100
AcDbLine
 10
185.8627237494783
 20
586.9577453877942
 30
0.0
 11
635.9283489218995
 21
586.9577453877936
 31
0.0
  0
LINE
  5
B2F
330
1E
100
AcDbEntity
  8
0
 62
     4
100
AcDbLine
 10
635.9283489218995
 20
586.9577453877938
 30
0.0
 11
635.9283489218994
 21
232.9267131465944
 31
0.0
  0
LINE
  5
D2E
330
1E
100
AcDbEntity
  8
LOGO
 62
     1
100
AcDbLine
 10
635.9283489218994
 20
176.3249335016769
 30
0.0
 11
185.8627237494783
 21
176.3249335016769
 31
0.0
  0
LINE
  5
D2F
330
1E
100
AcDbEntity
  8
LOGO
 62
     1
100
AcDbLine
 10
635.9283489218994
 20
232.9267131465944
 30
0.0
 11
185.8627237494783
 21
232.9267131465944
 31
0.0
  0
TEXT
  5
D35
330
1E
100
AcDbEntity
  8
LOGO
 62
     7
100
AcDbText
 10
315.0197713128154
 20
218.7549148046759
 30
0.0
 40
11.3203559289835
  1
訂購代號:
  7
CHINESET
100
AcDbText
  0
TEXT
  5
D36
330
1E
100
AcDbEntity
  8
LOGO
 62
     7
100
AcDbText
 10
313.6657943333526
 20
208.130436645739
 30
0.0
 40
7.546903952655672
  1
Order example:
 41
0.8
  7
CHINESET
100
AcDbText
  0
TEXT
  5
D37
330
1E
100
AcDbEntity
  8
LOGO
  6
CONTINUOUS
 62
     5
100
AcDbText
 10
190.1464959337713
 20
178.952337319991
 30
0.0
 40
5.660177964491754
  1
MINDMAN INDUSTRIAL CO.,LTD
 41
0.85
  7
CHINESET
100
AcDbText
  0
TEXT
  5
D38
330
1E
100
AcDbEntity
  8
LOGO
  6
CONTINUOUS
 62
     5
100
AcDbText
 10
187.7153955643023
 20
187.4442676933876
 30
0.0
 40
8.490266946737634
  1
金器工業股份有限公司
 41
0.8
  7
LOGO
100
AcDbText
  0
SOLID
  5
D39
330
1E
100
AcDbEntity
  8
LOGO
 62
     2
100
AcDbTrace
 10
206.8410742179997
 20
208.3748855627206
 30
0.0
 11
207.8537552230115
 21
208.3748855627206
 31
0.0
 12
219.4995867806361
 22
231.5821585942218
 32
0.0
 13
220.5122677856479
 23
231.5821585942202
 33
0.0
  0
SOLID
  5
D3A
330
1E
100
AcDbEntity
  8
LOGO
 62
     5
100
AcDbTrace
 10
207.8537552230115
 20
208.3748855627206
 30
0.0
 11
210.3010676517873
 21
208.3748855627206
 31
0.0
 12
219.4995867806361
 22
229.7255767517009
 32
0.0
 13
217.0522743518598
 23
220.7520978461868
 33
0.0
  0
SOLID
  5
D3B
330
1E
100
AcDbEntity
  8
LOGO
 62
     5
100
AcDbTrace
 10
207.8537552230115
 20
210.2314674052399
 30
0.0
 11
210.3010676517873
 21
219.204946310754
 31
0.0
 12
219.4995867806361
 22
231.5821585942218
 32
0.0
 13
217.0522743518598
 23
231.5821585942218
 33
0.0
  0
LINE
  5
D3C
330
1E
100
AcDbEntity
  8
LOGO
 62
     1
100
AcDbLine
 10
310.386638968297
 20
198.9656453596439
 30
0.0
 11
185.8627237494782
 21
198.9656453596439
 31
0.0
  0
SOLID
  5
D3D
330
1E
100
AcDbEntity
  8
LOGO
 62
     2
100
AcDbTrace
 10
206.8410742179997
 20
231.5821585942202
 30
0.0
 11
207.8537552230115
 21
231.5821585942202
 31
0.0
 12
206.8410742179997
 22
208.3748855627206
 32
0.0
 13
207.8537552230115
 23
208.3748855627206
 33
0.0
  0
SOLID
  5
D3E
330
1E
100
AcDbEntity
  8
LOGO
 62
     2
100
AcDbTrace
 10
194.1825616553625
 20
208.3748855627198
 30
0.0
 11
195.1952426603749
 21
208.3748855627206
 31
0.0
 12
206.8410742179997
 22
231.5821585942202
 32
0.0
 13
207.8537552230115
 23
231.5821585942202
 33
0.0
  0
SOLID
  5
D3F
330
1E
100
AcDbEntity
  8
LOGO
 62
     5
100
AcDbTrace
 10
207.8537552230115
 20
231.5821585942202
 30
0.0
 11
210.3010676517873
 21
231.5821585942218
 31
0.0
 12
207.8537552230115
 22
210.2314674052399
 32
0.0
 13
210.3010676517873
 23
219.204946310754
 33
0.0
  0
SOLID
  5
D40
330
1E
100
AcDbEntity
  8
LOGO
 62
     5
100
AcDbTrace
 10
204.3937617892236
 20
208.3748855627206
 30
0.0
 11
206.8410742179997
 21
208.3748855627206
 31
0.0
 12
204.3937617892236
 22
220.7520978461868
 32
0.0
 13
206.8410742179997
 23
229.7255767517009
 33
0.0
  0
SOLID
  5
D41
330
1E
100
AcDbEntity
  8
LOGO
 62
     5
100
AcDbTrace
 10
195.1952426603749
 20
208.3748855627206
 30
0.0
 11
197.642555089151
 21
208.3748855627206
 31
0.0
 12
206.8410742179997
 22
229.7255767517009
 32
0.0
 13
204.3937617892236
 23
220.7520978461868
 33
0.0
  0
SOLID
  5
D42
330
1E
100
AcDbEntity
  8
LOGO
 62
     5
100
AcDbTrace
 10
191.7352492265861
 20
208.3748855627206
 30
0.0
 11
194.1825616553625
 21
208.3748855627198
 31
0.0
 12
204.3937617892236
 22
231.5821585942218
 32
0.0
 13
206.8410742179997
 23
231.5821585942202
 33
0.0
  0
LINE
  5
D43
330
1E
100
AcDbEntity
  8
LOGO
 62
     1
100
AcDbLine
 10
185.8627237494783
 20
176.3249335016769
 30
0.0
 11
185.8627237494783
 21
232.9267131465944
 31
0.0
  0
SOLID
  5
D44
330
1E
100
AcDbEntity
  8
LOGO
 62
     5
100
AcDbTrace
 10
196.0952629035773
 20
204.1553813751749
 30
0.0
 11
196.939163741088
 21
204.1553813751749
 31
0.0
 12
196.0952629035773
 22
199.9358771876283
 32
0.0
 13
196.939163741088
 23
199.9358771876298
 33
0.0
  0
SOLID
  5
D45
330
1E
100
AcDbEntity
  8
LOGO
 62
     5
100
AcDbTrace
 10
196.0952629035773
 20
204.7461119614308
 30
0.0
 11
196.939163741088
 21
204.7461119614308
 31
0.0
 12
196.0952629035773
 22
205.421232631439
 32
0.0
 13
196.939163741088
 23
205.421232631439
 33
0.0
  0
SOLID
  5
D46
330
1E
100
AcDbEntity
  8
LOGO
 62
     5
100
AcDbTrace
 10
194.2523898085905
 20
204.1553813751749
 30
0.0
 11
195.0962906460987
 21
204.1553813751749
 31
0.0
 12
194.2523898085905
 22
199.9358771876298
 32
0.0
 13
195.0962906460987
 23
199.9358771876298
 33
0.0
  0
SOLID
  5
D47
330
1E
100
AcDbEntity
  8
LOGO
 62
     5
100
AcDbTrace
 10
191.0319985286624
 20
199.9358771876298
 30
0.0
 11
191.8758993661709
 21
199.9358771876298
 31
0.0
 12
194.2523898085905
 22
204.1553813751749
 32
0.0
 13
195.0962906460987
 23
204.1553813751749
 33
0.0
  0
SOLID
  5
D48
330
1E
100
AcDbEntity
  8
LOGO
 62
     5
100
AcDbTrace
 10
191.0319985286624
 20
204.1553813751749
 30
0.0
 11
191.8758993661709
 21
204.1553813751749
 31
0.0
 12
191.0319985286624
 22
199.9358771876298
 32
0.0
 13
191.8758993661709
 23
199.9358771876298
 33
0.0
  0
SOLID
  5
D49
330
1E
100
AcDbEntity
  8
LOGO
 62
     5
100
AcDbTrace
 10
187.8116072487355
 20
199.9358771876298
 30
0.0
 11
188.6555080862453
 21
199.9358771876298
 31
0.0
 12
191.0319985286624
 22
204.1553813751749
 32
0.0
 13
191.8758993661709
 23
204.1553813751749
 33
0.0
  0
SOLID
  5
D4A
330
1E
100
AcDbEntity
  8
LOGO
 62
     5
100
AcDbTrace
 10
212.5514136250892
 20
202.4675797001565
 30
0.0
 11
213.3953144625974
 21
202.4675797001565
 31
0.0
 12
212.5514136250892
 22
199.9358771876283
 32
0.0
 13
213.3953144625974
 23
199.9358771876283
 33
0.0
  0
SOLID
  5
D4B
330
1E
100
AcDbEntity
  8
LOGO
 62
     5
100
AcDbTrace
 10
210.0197111125623
 20
202.4675797001565
 30
0.0
 11
210.8636119500708
 21
202.4675797001565
 31
0.0
 12
210.0197111125623
 22
199.9358771876298
 32
0.0
 13
210.8636119500708
 23
199.9358771876298
 33
0.0
  0
SOLID
  5
D4C
330
1E
100
AcDbEntity
  8
LOGO
 62
     5
100
AcDbTrace
 10
207.4880086000357
 20
204.1553813751749
 30
0.0
 11
208.3319094375441
 21
204.1553813751749
 31
0.0
 12
207.4880086000357
 22
199.9358771876298
 32
0.0
 13
208.3319094375441
 23
199.9358771876298
 33
0.0
  0
SOLID
  5
D4D
330
1E
100
AcDbEntity
  8
LOGO
 62
     5
100
AcDbTrace
 10
205.659528655404
 20
205.421232631439
 30
0.0
 11
206.5034294929123
 21
205.421232631439
 31
0.0
 12
205.659528655404
 22
199.9358771876298
 32
0.0
 13
206.5034294929123
 23
199.9358771876298
 33
0.0
  0
POLYLINE
  5
D4E
330
1E
100
AcDbEntity
  8
LOGO
 62
     5
100
AcDb2dPolyline
 66
     1
 10
0.0
 20
0.0
 30
0.0
 70
     1
 40
0.8452532426974354
 41
0.8452532426974354
  0
VERTEX
  5
14DFF
330
D4E
100
AcDbEntity
  8
LOGO
 62
     5
100
AcDbVertex
100
AcDb2dVertex
 10
202.7032553038281
 20
202.045629281402
 30
0.0
 42
1.0
  0
VERTEX
  5
14E00
330
D4E
100
AcDbEntity
  8
LOGO
 62
     5
100
AcDbVertex
100
AcDb2dVertex
 10
206.0842682746179
 20
202.045629281402
 30
0.0
 42
1.0
  0
SEQEND
  5
14E01
330
D4E
100
AcDbEntity
  8
LOGO
 62
     5
  0
SOLID
  5
D4F
330
1E
100
AcDbEntity
  8
LOGO
 62
     5
100
AcDbTrace
 10
200.4554453607357
 20
202.4675797001565
 30
0.0
 11
201.2993461982457
 21
202.4675797001565
 31
0.0
 12
200.4554453607357
 22
199.9358771876298
 32
0.0
 13
201.2993461982457
 23
199.9358771876298
 33
0.0
  0
SOLID
  5
D50
330
1E
100
AcDbEntity
  8
LOGO
 62
     5
100
AcDbTrace
 10
197.923742848209
 20
204.1553813751749
 30
0.0
 11
198.7676436857175
 21
204.1553813751749
 31
0.0
 12
197.923742848209
 22
199.9358771876298
 32
0.0
 13
198.7676436857175
 23
199.9358771876298
 33
0.0
  0
POLYLINE
  5
D51
330
1E
100
AcDbEntity
  8
LOGO
 62
     5
100
AcDb2dPolyline
 66
     1
 10
0.0
 20
0.0
 30
0.0
 40
0.8452532426974354
 41
0.8452532426974354
  0
VERTEX
  5
14E02
330
D51
100
AcDbEntity
  8
LOGO
 62
     5
100
AcDbVertex
100
AcDb2dVertex
 10
200.879424387273
 20
202.4675797001564
 30
0.0
 42
1.0
  0
VERTEX
  5
14E03
330
D51
100
AcDbEntity
  8
LOGO
 62
     5
100
AcDbVertex
100
AcDb2dVertex
 10
198.3436646591806
 20
202.4675797001564
 30
0.0
 42
1.0
  0
SEQEND
  5
14E04
330
D51
100
AcDbEntity
  8
LOGO
 62
     5
  0
POLYLINE
  5
D52
330
1E
100
AcDbEntity
  8
LOGO
 62
     5
100
AcDb2dPolyline
 66
     1
 10
0.0
 20
0.0
 30
0.0
 40
0.8452532426974354
 41
0.8452532426974354
  0
VERTEX
  5
14E05
330
D52
100
AcDbEntity
  8
LOGO
 62
     5
100
AcDbVertex
100
AcDb2dVertex
 10
212.9753926516261
 20
202.4675797001564
 30
0.0
 42
1.0
  0
VERTEX
  5
14E06
330
D52
100
AcDbEntity
  8
LOGO
 62
     5
100
AcDbVertex
100
AcDb2dVertex
 10
210.4396329235337
 20
202.4675797001564
 30
0.0
 42
1.0
  0
SEQEND
  5
14E07
330
D52
100
AcDbEntity
  8
LOGO
 62
     5
  0
POLYLINE
  5
D53
330
1E
100
AcDbEntity
  8
LOGO
 62
     5
100
AcDb2dPolyline
 66
     1
 10
0.0
 20
0.0
 30
0.0
 40
0.8452532426974354
 41
0.8452532426974354
  0
VERTEX
  5
14E08
330
D53
100
AcDbEntity
  8
LOGO
 62
     5
100
AcDbVertex
100
AcDb2dVertex
 10
210.4436901390993
 20
202.4675797001564
 30
0.0
 42
1.0
  0
VERTEX
  5
14E09
330
D53
100
AcDbEntity
  8
LOGO
 62
     5
100
AcDbVertex
100
AcDb2dVertex
 10
207.9079304110069
 20
202.4675797001564
 30
0.0
 42
1.0
  0
SEQEND
  5
14E0A
330
D53
100
AcDbEntity
  8
LOGO
 62
     5
  0
CIRCLE
  5
D54
330
1E
100
AcDbEntity
  8
LOGO
  6
CONTINUOUS
 62
     6
100
AcDbCircle
 10
283.1326466701436
 20
215.9582864152053
 30
0.0
 40
1.92555854391522
  0
CIRCLE
  5
D55
330
1E
100
AcDbEntity
  8
LOGO
  6
CONTINUOUS
 62
     6
100
AcDbCircle
 10
283.1326466701436
 20
215.9582864152053
 30
0.0
 40
3.286432551755152
  0
LINE
  5
D56
330
1E
100
AcDbEntity
  8
LOGO
 62
     1
100
AcDbLine
 10
310.386638968297
 20
210.2860012886274
 30
0.0
 11
227.3706954890845
 21
210.2860012886274
 31
0.0
  0
LINE
  5
D57
330
1E
100
AcDbEntity
  8
LOGO
 62
     1
100
AcDbLine
 10
310.386638968297
 20
221.6063572176109
 30
0.0
 11
227.3706954890845
 21
221.6063572176109
 31
0.0
  0
TEXT
  5
D58
330
1E
100
AcDbEntity
  8
LOGO
 62
     6
100
AcDbText
 10
281.1433194400216
 20
224.4364461998567
 30
0.0
 40
5.660177964491754
  1
1 : 1
  7
CHINESET
 72
     1
 11
291.116013948888
 21
227.2665351821026
 31
0.0
100
AcDbText
 73
     2
  0
TEXT
  5
D59
330
1E
100
AcDbEntity
  8
LOGO
 62
     6
100
AcDbText
 10
281.1433194400216
 20
201.7957343418897
 30
0.0
 40
5.660177964491754
  1
m/m
  7
CHINESET
 72
     1
 11
291.116013948888
 21
204.6258233241356
 31
0.0
100
AcDbText
 73
     2
  0
SOLID
  5
D5A
330
1E
100
AcDbEntity
  8
LOGO
 62
     2
100
AcDbTrace
 10
219.4995867806361
 20
231.5821585942218
 30
0.0
 11
220.5122677856479
 21
231.5821585942202
 31
0.0
 12
219.4995867806361
 22
208.3748855627198
 32
0.0
 13
220.5122677856479
 23
208.3748855627198
 33
0.0
  0
SOLID
  5
D5B
330
1E
100
AcDbEntity
  8
LOGO
 62
     5
100
AcDbTrace
 10
220.5122677856479
 20
208.3748855627198
 30
0.0
 11
222.9595802144241
 21
208.3748855627198
 31
0.0
 12
220.5122677856479
 22
231.5821585942202
 32
0.0
 13
222.9595802144241
 23
231.5821585942218
 33
0.0
  0
SOLID
  5
D5C
330
1E
100
AcDbEntity
  8
LOGO
 62
     5
100
AcDbTrace
 10
219.4995867806361
 20
229.7255767517009
 30
0.0
 11
217.0522743518598
 21
220.7520978461868
 31
0.0
 12
219.4995867806361
 22
208.3748855627198
 32
0.0
 13
217.0522743518598
 23
208.3748855627198
 33
0.0
  0
LINE
  5
D5D
330
1E
100
AcDbEntity
  8
LOGO
 62
     1
100
AcDbLine
 10
227.3706954890845
 20
198.9656453596438
 30
0.0
 11
227.3706954890845
 21
232.9267131465944
 31
0.0
  0
LINE
  5
D5E
330
1E
100
AcDbEntity
  8
LOGO
 62
     1
100
AcDbLine
 10
272.6521192050184
 20
198.9656453596438
 30
0.0
 11
272.6521192050184
 21
232.9267131465944
 31
0.0
  0
TEXT
  5
D5F
330
1E
100
AcDbEntity
  8
LOGO
 62
     6
100
AcDbText
 10
234.5697343376726
 20
201.7957343418897
 30
0.0
 40
5.660177964491754
  1
單位 Unit:
 41
0.9
  7
CHINESET
 72
     4
 11
250.0114073470517
 21
204.6258233241356
 31
0.0
100
AcDbText
  0
SOLID
  5
D60
330
1E
100
AcDbEntity
  8
LOGO
 62
     5
100
AcDbTrace
 10
222.1156793769157
 20
202.4675797001565
 30
0.0
 11
222.9595802144241
 21
202.4675797001564
 31
0.0
 12
222.1156793769157
 22
199.9358771876298
 32
0.0
 13
222.9595802144241
 23
199.9358771876298
 33
0.0
  0
SOLID
  5
D61
330
1E
100
AcDbEntity
  8
LOGO
 62
     5
100
AcDbTrace
 10
219.5839768643875
 20
199.9358771876298
 30
0.0
 11
220.4278777018972
 21
199.9358771876298
 31
0.0
 12
219.5839768643875
 22
204.1553813751749
 32
0.0
 13
220.4278777018972
 23
204.1553813751749
 33
0.0
  0
SOLID
  5
D62
330
1E
100
AcDbEntity
  8
LOGO
 62
     5
100
AcDbTrace
 10
217.7554969197581
 20
204.1553813751749
 30
0.0
 11
218.5993977572665
 21
204.1553813751749
 31
0.0
 12
217.7554969197581
 22
199.9358771876298
 32
0.0
 13
218.5993977572665
 23
199.9358771876298
 33
0.0
  0
LINE
  5
D63
330
1E
100
AcDbEntity
  8
LOGO
 62
     5
100
AcDbLine
 10
222.9595802144241
 20
199.9358771876298
 30
0.0
 11
222.9595802144241
 21
202.4675797001565
 31
0.0
  0
POLYLINE
  5
D64
330
1E
100
AcDbEntity
  8
LOGO
 62
     5
100
AcDb2dPolyline
 66
     1
 10
0.0
 20
0.0
 30
0.0
 70
     1
 40
0.8452532426974354
 41
0.8452532426974354
  0
VERTEX
  5
14E0B
330
D64
100
AcDbEntity
  8
LOGO
 62
     5
100
AcDbVertex
100
AcDb2dVertex
 10
214.7992235681813
 20
202.045629281402
 30
0.0
 42
1.0
  0
VERTEX
  5
14E0C
330
D64
100
AcDbEntity
  8
LOGO
 62
     5
100
AcDbVertex
100
AcDb2dVertex
 10
218.180236538971
 20
202.045629281402
 30
0.0
 42
1.0
  0
SEQEND
  5
14E0D
330
D64
100
AcDbEntity
  8
LOGO
 62
     5
  0
CIRCLE
  5
D65
330
1E
100
AcDbEntity
  8
LOGO
 62
     5
100
AcDbCircle
 10
216.4897300535766
 20
202.0456292814023
 30
0.0
 40
1.265851256263679
  0
POLYLINE
  5
D66
330
1E
100
AcDbEntity
  8
LOGO
 62
     5
100
AcDb2dPolyline
 66
     1
 10
0.0
 20
0.0
 30
0.0
 70
     1
  0
VERTEX
  5
14E0E
330
D66
100
AcDbEntity
  8
LOGO
 62
     5
100
AcDbVertex
100
AcDb2dVertex
 10
215.2238787973128
 20
202.0456292814023
 30
0.0
 42
1.000000057330635
  0
VERTEX
  5
14E0F
330
D66
100
AcDbEntity
  8
LOGO
 62
     5
100
AcDbVertex
100
AcDb2dVertex
 10
217.7555813098405
 20
202.0456292814023
 30
0.0
 42
1.000000057330635
  0
SEQEND
  5
14E10
330
D66
100
AcDbEntity
  8
LOGO
 62
     5
  0
POLYLINE
  5
D67
330
1E
100
AcDbEntity
  8
LOGO
 62
     5
100
AcDb2dPolyline
 66
     1
 10
0.0
 20
0.0
 30
0.0
 40
0.8452532426974354
 41
0.8452532426974354
  0
VERTEX
  5
14E11
330
D67
100
AcDbEntity
  8
LOGO
 62
     5
100
AcDbVertex
100
AcDb2dVertex
 10
222.5396584034526
 20
202.4675797001564
 30
0.0
 42
1.0
  0
VERTEX
  5
14E12
330
D67
100
AcDbEntity
  8
LOGO
 62
     5
100
AcDbVertex
100
AcDb2dVertex
 10
220.0038986753603
 20
202.4675797001564
 30
0.0
 42
1.0
  0
SEQEND
  5
14E13
330
D67
100
AcDbEntity
  8
LOGO
 62
     5
  0
TEXT
  5
D68
330
1E
100
AcDbEntity
  8
LOGO
 62
     6
100
AcDbText
 10
234.0163508670371
 20
213.195709736171
 30
0.0
 40
5.660177964491754
  1
投影 View:
 41
0.9
  7
CHINESET
 72
     4
 11
250.0114073470517
 21
215.9461792531191
 31
0.0
100
AcDbText
  0
TEXT
  5
D69
330
1E
100
AcDbEntity
  8
LOGO
 62
     6
100
AcDbText
 10
232.0378154446277
 20
224.4392317205086
 30
0.0
 40
5.660177964491754
  1
比例 Scale:
 41
0.9
  7
CHINESET
 72
     4
 11
250.0114073470517
 21
227.2665351821026
 31
0.0
100
AcDbText
  0
LINE
  5
D6A
330
1E
100
AcDbEntity
  8
LOGO
 62
     1
100
AcDbLine
 10
310.386638968297
 20
176.3249335016769
 30
0.0
 11
310.386638968297
 21
232.9267131465944
 31
0.0
  0
LINE
  5
D6B
330
1E
100
AcDbEntity
  8
LOGO
  6
CONTINUOUS
 62
     6
100
AcDbLine
 10
293.4821927673578
 20
214.0327278712901
 30
0.0
 11
303.7849701668806
 21
212.6718538634503
 31
0.0
  0
LINE
  5
D6C
330
1E
100
AcDbEntity
  8
LOGO
  6
CONTINUOUS
 62
     6
100
AcDbLine
 10
293.4821927673578
 20
217.8838449591206
 30
0.0
 11
303.7849701668806
 21
219.2447189669605
 31
0.0
  0
LINE
  5
D6D
330
1E
100
AcDbEntity
  8
LOGO
 62
     6
100
AcDbLine
 10
293.4821927673578
 20
214.0327278712901
 30
0.0
 11
293.4821927673578
 21
217.8838449591206
 31
0.0
  0
LINE
  5
D6E
330
1E
100
AcDbEntity
  8
LOGO
 62
     6
100
AcDbLine
 10
303.7849701668806
 20
212.6718538634503
 30
0.0
 11
303.7849701668806
 21
219.2447189669605
 31
0.0
  0
LINE
  5
D6F
330
1E
100
AcDbEntity
  8
LOGO
 62
     6
100
AcDbLine
 10
427.152148645332
 20
181.0417484720867
 30
0.0
 11
389.4176288820535
 21
181.0417484720866
 31
0.0
  0
LINE
  5
D70
330
1E
100
AcDbEntity
  8
LOGO
 62
     6
100
AcDbLine
 10
427.152148645332
 20
201.7957343418898
 30
0.0
 11
389.4176288820535
 21
201.7957343418898
 31
0.0
  0
LINE
  5
D71
330
1E
100
AcDbEntity
  8
LOGO
 62
     6
100
AcDbLine
 10
430.9256006216598
 20
210.2860012886274
 30
0.0
 11
385.6441769057257
 21
210.2860012886274
 31
0.0
  0
LINE
  5
D72
330
1E
100
AcDbEntity
  8
LOGO
 62
     6
100
AcDbLine
 10
430.9256006216598
 20
227.2665351821026
 30
0.0
 11
385.6441769057257
 21
227.2665351821026
 31
0.0
  0
TEXT
  5
D73
330
1E
100
AcDbEntity
  8
LOGO
  6
CONTINUOUS
 62
     7
100
AcDbText
 10
390.7652903021705
 20
214.0594532649553
 30
0.0
 40
9.433629940819589
  1
MTHD
  7
CHINESET
 72
     1
 11
408.2848887636926
 21
218.776268235365
 31
0.0
100
AcDbText
 73
     2
  0
LINE
  5
D74
330
1E
100
AcDbEntity
  8
LOGO
 62
     6
100
AcDbLine
 10
385.6441769057257
 20
227.2665351821026
 30
0.0
 11
385.6441769057257
 21
210.2860012886274
 31
0.0
  0
LINE
  5
D75
330
1E
100
AcDbEntity
  8
LOGO
 62
     6
100
AcDbLine
 10
389.4176288820535
 20
201.7957343418898
 30
0.0
 11
389.4176288820535
 21
181.0417484720866
 31
0.0
  0
TEXT
  5
D76
330
1E
100
AcDbEntity
  8
LOGO
  6
CONTINUOUS
 62
     6
100
AcDbText
 10
399.3004792962454
 20
183.4001559572916
 30
0.0
 40
4.716814970409794
  1
Model
  7
CHINESET
 72
     4
 11
408.2848887636926
 21
185.7585634424965
 31
0.0
100
AcDbText
  0
TEXT
  5
D77
330
1E
100
AcDbEntity
  8
LOGO
 62
     6
100
AcDbText
 10
400.7379848110369
 20
191.6118708388475
 30
0.0
 40
7.546903952655672
  1
型式
  7
CHINESET
 72
     4
 11
408.2848887636926
 21
195.192193383316
 31
0.0
100
AcDbText
  0
LINE
  5
D78
330
1E
100
AcDbEntity
  8
LOGO
 62
     6
100
AcDbLine
 10
408.2848887636926
 20
210.2860012886274
 30
0.0
 11
408.2848887636926
 21
201.7957343418898
 31
0.0
  0
LINE
  5
D79
330
1E
100
AcDbEntity
  8
LOGO
 62
     6
100
AcDbLine
 10
430.9256006216599
 20
227.2665351821026
 30
0.0
 11
430.9256006216599
 21
210.2860012886274
 31
0.0
  0
LINE
  5
D7A
330
1E
100
AcDbEntity
  8
LOGO
 62
     6
100
AcDbLine
 10
427.152148645332
 20
201.7957343418898
 30
0.0
 11
427.152148645332
 21
181.0417484720867
 31
0.0
  0
LINE
  5
D7B
330
1E
100
AcDbEntity
  8
LOGO
  6
CONTINUOUS
 62
     7
100
AcDbLine
 10
433.8510914196477
 20
218.7161205007557
 30
0.0
 11
441.3490755948562
 21
218.7161205007557
 31
0.0
  0
LINE
  5
D82
330
1E
100
AcDbEntity
  8
LOGO
 62
     6
100
AcDbLine
 10
474.5777446856699
 20
227.2665351821028
 30
0.0
 11
474.5777446856699
 21
210.2860012886274
 31
0.0
  0
LINE
  5
D83
330
1E
100
AcDbEntity
  8
LOGO
 62
     6
100
AcDbLine
 10
444.2855966760789
 20
227.2665351821026
 30
0.0
 11
444.2855966760789
 21
210.2860012886274
 31
0.0
  0
LINE
  5
D85
330
1E
100
AcDbEntity
  8
LOGO
 62
     6
100
AcDbLine
 10
474.5777446856699
 20
181.0417484720867
 30
0.0
 11
444.2855966760789
 21
181.0417484720866
 31
0.0
  0
LINE
  5
D86
330
1E
100
AcDbEntity
  8
LOGO
 62
     6
100
AcDbLine
 10
474.5777446856699
 20
210.2860012886274
 30
0.0
 11
444.2855966760789
 21
210.2860012886274
 31
0.0
  0
LINE
  5
D87
330
1E
100
AcDbEntity
  8
LOGO
 62
     6
100
AcDbLine
 10
474.5777446856699
 20
201.7957343418898
 30
0.0
 11
444.2855966760789
 21
201.7957343418898
 31
0.0
  0
LINE
  5
D88
330
1E
100
AcDbEntity
  8
LOGO
 62
     6
100
AcDbLine
 10
444.2855966760789
 20
201.7957343418898
 30
0.0
 11
444.2855966760789
 21
181.0417484720867
 31
0.0
  0
TEXT
  5
D89
330
1E
100
AcDbEntity
  8
LOGO
  6
CONTINUOUS
 62
     6
100
AcDbText
 10
453.5918045270338
 20
183.4001559572916
 30
0.0
 40
4.716814970409794
  1
Bore
 41
0.8
  7
CHINESET
 72
     4
 11
459.4316706808744
 21
185.7585634424965
 31
0.0
100
AcDbText
  0
TEXT
  5
D8A
330
1E
100
AcDbEntity
  8
LOGO
 62
     6
100
AcDbText
 10
452.2149437761474
 20
191.4187414069881
 30
0.0
 40
7.546903952655672
  1
內徑
 41
0.9
  7
CHINESET
 72
     4
 11
459.4316706808744
 21
195.192193383316
 31
0.0
100
AcDbText
  0
LINE
  5
D8B
330
1E
100
AcDbEntity
  8
LOGO
 62
     6
100
AcDbLine
 10
459.4316702458248
 20
210.2860012886274
 30
0.0
 11
459.4316702458248
 21
201.7957343418898
 31
0.0
  0
LINE
  5
D8C
330
1E
100
AcDbEntity
  8
LOGO
 62
     6
100
AcDbLine
 10
474.5777446856699
 20
201.7957343418898
 30
0.0
 11
474.5777446856699
 21
181.0417484720867
 31
0.0
  0
LINE
  5
D8E
330
1E
100
AcDbEntity
  8
LOGO
 62
     6
100
AcDbLine
 10
474.5777446856699
 20
227.2665351821028
 30
0.0
 11
444.2855966760789
 21
227.2665351821026
 31
0.0
  0
TEXT
  5
D8F
330
1E
100
AcDbEntity
  8
LOGO
  6
CONTINUOUS
 62
     7
100
AcDbText
 10
452.6753950043469
 20
213.9524753069871
 30
0.0
 40
9.433629940819589
  1
63
  7
CHINESET
 72
     1
 11
460.312143051677
 21
218.6692902773969
 31
0.0
100
AcDbText
 73
     2
  0
LINE
  5
D9E
330
1E
100
AcDbEntity
  8
LOGO
 62
     1
100
AcDbLine
 10
635.9283489218994
 20
176.3249335016769
 30
0.0
 11
635.9283489218994
 21
232.9267131465944
 31
0.0
  0
LINE
  5
DAD
330
1E
100
AcDbEntity
  8
LOGO
 62
     6
100
AcDbLine
 10
487.9377407400889
 20
227.2665351821028
 30
0.0
 11
487.9377407400889
 21
210.2860012886275
 31
0.0
  0
LINE
  5
DAE
330
1E
100
AcDbEntity
  8
LOGO
 62
     6
100
AcDbLine
 10
546.3532228271817
 20
227.2665351821029
 30
0.0
 11
546.3532228271817
 21
210.2860012886275
 31
0.0
  0
TEXT
  5
DAF
330
1E
100
AcDbEntity
  8
LOGO
 62
     6
100
AcDbText
 10
503.8440635670794
 20
191.6468445981426
 30
0.0
 40
7.546903952655672
  1
旋轉方向
 41
0.9
  7
CHINESET
 72
     4
 11
517.1454817836351
 21
195.1921933833161
 31
0.0
100
AcDbText
  0
TEXT
  5
DB0
330
1E
100
AcDbEntity
  8
LOGO
  6
CONTINUOUS
 62
     6
100
AcDbText
 10
491.9891352747828
 20
184.1862917856932
 30
0.0
 40
4.716814970409794
  1
Rotating direction
 41
0.8
  7
CHINESET
 72
     4
 11
517.1454817836351
 21
185.7585634424965
 31
0.0
100
AcDbText
  0
LINE
  5
DB1
330
1E
100
AcDbEntity
  8
LOGO
 62
     6
100
AcDbLine
 10
546.3532228271817
 20
201.7957343418899
 30
0.0
 11
487.9377407400889
 21
201.7957343418899
 31
0.0
  0
LINE
  5
DB2
330
1E
100
AcDbEntity
  8
LOGO
 62
     6
100
AcDbLine
 10
546.3532228271817
 20
210.2860012886275
 30
0.0
 11
487.9377407400889
 21
210.2860012886275
 31
0.0
  0
LINE
  5
DB3
330
1E
100
AcDbEntity
  8
LOGO
 62
     6
100
AcDbLine
 10
546.3532228271817
 20
181.0417484720868
 30
0.0
 11
487.9377407400889
 21
181.0417484720867
 31
0.0
  0
LINE
  5
DB4
330
1E
100
AcDbEntity
  8
LOGO
 62
     6
100
AcDbLine
 10
487.9377407400889
 20
201.7957343418899
 30
0.0
 11
487.9377407400889
 21
181.0417484720868
 31
0.0
  0
LINE
  5
DB5
330
1E
100
AcDbEntity
  8
LOGO
 62
     6
100
AcDbLine
 10
517.1454817836354
 20
210.2860012886275
 30
0.0
 11
517.1454817836354
 21
201.7957343418899
 31
0.0
  0
LINE
  5
DB6
330
1E
100
AcDbEntity
  8
LOGO
 62
     6
100
AcDbLine
 10
546.3532228271817
 20
201.7957343418899
 30
0.0
 11
546.3532228271817
 21
181.0417484720868
 31
0.0
  0
LINE
  5
DB7
330
1E
100
AcDbEntity
  8
LOGO
 62
     6
100
AcDbLine
 10
546.3532228271817
 20
227.2665351821029
 30
0.0
 11
487.9377407400889
 21
227.2665351821028
 31
0.0
  0
LINE
  5
DB8
330
1E
100
AcDbEntity
  8
LOGO
  6
CONTINUOUS
 62
     7
100
AcDbLine
 10
477.503235483658
 20
218.7161205007558
 30
0.0
 11
485.0012196588662
 21
218.7161205007558
 31
0.0
  0
TEXT
  5
DCEA
330
1E
100
AcDbEntity
  8
UMCL3
  6
CONTINUOUS
 62
     2
100
AcDbText
 10
766.2367979098227
 20
285.0249911194135
 30
0.0
 40
2.5
  1

 41
0.8
  7
ROMANS1
 72
     1
 11
766.2367979098227
 21
286.2749911194135
 31
0.0
100
AcDbText
 73
     2
  0
TEXT
  5
DCED
330
1E
100
AcDbEntity
  8
UMCL3
  6
CONTINUOUS
 62
     2
100
AcDbText
 10
741.1557505620727
 20
285.0249911194135
 30
0.0
 40
2.5
  1

 41
0.8
  7
ROMANS1
 72
     1
 11
741.1557505620727
 21
286.2749911194135
 31
0.0
100
AcDbText
 73
     2
  0
TEXT
  5
DCF2
330
1E
100
AcDbEntity
  8
UMCL3
  6
CONTINUOUS
 62
     2
100
AcDbText
 10
719.5747032143226
 20
285.0249911194135
 30
0.0
 40
2.5
  1

 41
0.8
  7
ROMANS1
 72
     1
 11
719.5747032143226
 21
286.2749911194135
 31
0.0
100
AcDbText
 73
     2
  0
TEXT
  5
DD0D
330
1E
100
AcDbEntity
  8
UMCL3
 62
     2
100
AcDbText
 10
716.3693115238653
 20
289.1485161689501
 30
0.0
 40
3.3
  1

 41
0.9
  7
ROMANS
100
AcDbText
  0
TEXT
  5
DD17
330
1E
100
AcDbEntity
  8
UMCL3
 62
     2
100
AcDbText
 10
734.4503588716154
 20
289.1485161689501
 30
0.0
 40
3.3
  1

 41
0.9
  7
ROMANS
100
AcDbText
  0
TEXT
  5
DD1A
330
1E
100
AcDbEntity
  8
UMCL3
 62
     2
100
AcDbText
 10
759.5314062193655
 20
289.1485161689501
 30
0.0
 40
3.3
  1

 41
0.9
  7
ROMANS
100
AcDbText
  0
TEXT
  5
14B64
330
1E
100
AcDbEntity
  8
UMCL3
  6
CONTINUOUS
 62
     2
100
AcDbText
 10
426.0547839187989
 20
150.3638432988582
 30
0.0
 40
2.5
  1

 41
0.8
  7
ROMANS1
 72
     1
 11
426.0547839187989
 21
151.6138432988582
 31
0.0
100
AcDbText
 73
     2
  0
TEXT
  5
14B68
330
1E
100
AcDbEntity
  8
UMCL3
 62
     2
100
AcDbText
 10
388.4510203905802
 20
154.3384361050946
 30
0.0
 40
3.3
  1

 41
0.9
  7
ROMANS
100
AcDbText
  0
TEXT
  5
14B6A
330
1E
100
AcDbEntity
  8
UMCL3
  6
CONTINUOUS
 62
     2
100
AcDbText
 10
394.7237365710486
 20
150.3638432988582
 30
0.0
 40
2.5
  1

 41
0.8
  7
ROMANS1
 72
     1
 11
394.7237365710486
 21
151.6138432988582
 31
0.0
100
AcDbText
 73
     2
  0
TEXT
  5
14B77
330
1E
100
AcDbEntity
  8
UMCL3
 62
     2
100
AcDbText
 10
419.7820677383304
 20
154.3384361050946
 30
0.0
 40
3.3
  1

 41
0.9
  7
ROMANS
100
AcDbText
  0
LINE
  5
14B7C
330
1E
100
AcDbEntity
  8
LOGO
 62
     6
100
AcDbLine
 10
618.1287009686936
 20
227.2665351821029
 30
0.0
 11
618.1287009686936
 21
210.2860012886276
 31
0.0
  0
LINE
  5
14B7D
330
1E
100
AcDbEntity
  8
LOGO
 62
     6
100
AcDbLine
 10
559.7132188816008
 20
227.2665351821029
 30
0.0
 11
559.7132188816008
 21
210.2860012886276
 31
0.0
  0
TEXT
  5
14B7E
330
1E
100
AcDbEntity
  8
LOGO
  6
CONTINUOUS
 62
     6
100
AcDbText
 10
568.3466622446927
 20
184.1862917856932
 30
0.0
 40
4.716814970409794
  1
Rotating angle
 41
0.8
  7
CHINESET
 72
     4
 11
588.9209599251469
 21
185.7585634424965
 31
0.0
100
AcDbText
  0
TEXT
  5
14B7F
330
1E
100
AcDbEntity
  8
LOGO
 62
     6
100
AcDbText
 10
575.4072850349229
 20
191.6542726532141
 30
0.0
 40
7.546903952655672
  1
旋轉角度
 41
0.9
  7
CHINESET
 72
     4
 11
588.9209599251469
 21
195.1921933833162
 31
0.0
100
AcDbText
  0
LINE
  5
14B80
330
1E
100
AcDbEntity
  8
LOGO
 62
     6
100
AcDbLine
 10
618.1287009686936
 20
210.2860012886276
 30
0.0
 11
559.7132188816008
 21
210.2860012886276
 31
0.0
  0
LINE
  5
14B81
330
1E
100
AcDbEntity
  8
LOGO
 62
     6
100
AcDbLine
 10
618.1287009686936
 20
201.7957343418899
 30
0.0
 11
559.7132188816008
 21
201.7957343418899
 31
0.0
  0
LINE
  5
14B82
330
1E
100
AcDbEntity
  8
LOGO
 62
     6
100
AcDbLine
 10
618.1287009686936
 20
181.0417484720869
 30
0.0
 11
559.7132188816008
 21
181.0417484720868
 31
0.0
  0
LINE
  5
14B83
330
1E
100
AcDbEntity
  8
LOGO
 62
     6
100
AcDbLine
 10
559.7132188816008
 20
201.7957343418899
 30
0.0
 11
559.7132188816008
 21
181.0417484720869
 31
0.0
  0
LINE
  5
14B84
330
1E
100
AcDbEntity
  8
LOGO
 62
     6
100
AcDbLine
 10
588.9209599251473
 20
210.2860012886276
 30
0.0
 11
588.9209599251473
 21
201.7957343418899
 31
0.0
  0
LINE
  5
14B85
330
1E
100
AcDbEntity
  8
LOGO
 62
     6
100
AcDbLine
 10
618.1287009686936
 20
201.7957343418899
 30
0.0
 11
618.1287009686936
 21
181.0417484720869
 31
0.0
  0
LINE
  5
14B86
330
1E
100
AcDbEntity
  8
LOGO
 62
     6
100
AcDbLine
 10
618.1287009686936
 20
227.2665351821029
 30
0.0
 11
559.7132188816008
 21
227.2665351821029
 31
0.0
  0
LINE
  5
14B87
330
1E
100
AcDbEntity
  8
LOGO
  6
CONTINUOUS
 62
     7
100
AcDbLine
 10
549.2787136251698
 20
218.7161205007558
 30
0.0
 11
556.776697800378
 21
218.7161205007558
 31
0.0
  0
LINE
  5
14C8C
330
1E
100
AcDbEntity
  8
0
100
AcDbLine
 10
598.2815907911413
 20
253.9406553690903
 30
0.0
 11
512.2815907911412
 21
253.9406553690903
 31
0.0
  0
LINE
  5
14C8D
330
1E
100
AcDbEntity
  8
0
100
AcDbLine
 10
598.2815907911413
 20
287.9406553690905
 30
0.0
 11
512.2815907911412
 21
287.9406553690905
 31
0.0
  0
LINE
  5
14C8E
330
1E
100
AcDbEntity
  8
0
100
AcDbLine
 10
520.2815907911417
 20
358.9406553690905
 30
0.0
 11
590.2815907911413
 21
358.9406553690903
 31
0.0
  0
LINE
  5
14C8F
330
1E
100
AcDbEntity
  8
0
 62
     4
100
AcDbLine
 10
515.2815907911413
 20
353.9406553690903
 30
0.0
 11
595.2815907911412
 21
353.9406553690905
 31
0.0
  0
LINE
  5
14C90
330
1E
100
AcDbEntity
  8
0
100
AcDbLine
 10
599.2815907911412
 20
254.9406553690903
 30
0.0
 11
511.2815907911413
 21
254.9406553690903
 31
0.0
  0
LINE
  5
14C91
330
1E
100
AcDbEntity
  8
0
100
AcDbLine
 10
599.2815907911412
 20
286.9406553690905
 30
0.0
 11
511.2815907911413
 21
286.9406553690905
 31
0.0
  0
LINE
  5
14C92
330
1E
100
AcDbEntity
  8
0
100
AcDbLine
 10
539.3815907911411
 20
392.9406553690905
 30
0.0
 11
571.1815907911414
 21
392.9406553690905
 31
0.0
  0
LINE
  5
14C93
330
1E
100
AcDbEntity
  8
0
100
AcDbLine
 10
571.1815907911414
 20
424.7406553690905
 30
0.0
 11
539.3815907911411
 21
424.7406553690905
 31
0.0
  0
LINE
  5
14C94
330
1E
100
AcDbEntity
  8
0
100
AcDbLine
 10
537.7815907911412
 20
390.6406553690906
 30
0.0
 11
572.7815907911413
 21
390.6406553690906
 31
0.0
  0
LINE
  5
14C95
330
1E
100
AcDbEntity
  8
0
100
AcDbLine
 10
538.7815907911413
 20
392.6406553690906
 30
0.0
 11
571.7815907911413
 21
392.6406553690906
 31
0.0
  0
LINE
  5
14C96
330
1E
100
AcDbEntity
  8
CENTER
  6
CENTER
100
AcDbLine
 10
545.2815907911417
 20
343.9406553690905
 30
0.0
 11
565.2815907911417
 21
343.9406553690905
 31
0.0
  0
CIRCLE
  5
14C97
330
1E
100
AcDbEntity
  8
0
100
AcDbCircle
 10
280.8180159530416
 20
555.5410623745681
 30
0.0
 40
5.5
  0
POLYLINE
  5
14C98
330
1E
100
AcDbEntity
  8
0
100
AcDb2dPolyline
 66
     1
 10
0.0
 20
0.0
 30
0.0
  0
VERTEX
  5
14E14
330
14C98
100
AcDbEntity
  8
0
100
AcDbVertex
100
AcDb2dVertex
 10
354.3699290054441
 20
564.5410623745681
 30
0.0
  0
VERTEX
  5
14E15
330
14C98
100
AcDbEntity
  8
0
100
AcDbVertex
100
AcDb2dVertex
 10
277.2661029006389
 20
564.5410623745681
 30
0.0
  0
SEQEND
  5
14E16
330
14C98
100
AcDbEntity
  8
0
  0
ARC
  5
14C99
330
1E
100
AcDbEntity
  8
0
100
AcDbCircle
 10
315.8180159530416
 20
520.5410623745681
 30
0.0
 40
40.0
100
AcDbArc
 50
23.42198415077871
 51
156.5780158492212
  0
CIRCLE
  5
14C9A
330
1E
100
AcDbEntity
  8
0
100
AcDbCircle
 10
280.8180159530416
 20
485.5410623745681
 30
0.0
 40
5.5
  0
POLYLINE
  5
14C9B
330
1E
100
AcDbEntity
  8
0
100
AcDb2dPolyline
 66
     1
 10
0.0
 20
0.0
 30
0.0
  0
VERTEX
  5
14E17
330
14C9B
100
AcDbEntity
  8
0
100
AcDbVertex
100
AcDb2dVertex
 10
277.2661029006389
 20
476.5410623745681
 30
0.0
  0
VERTEX
  5
14E18
330
14C9B
100
AcDbEntity
  8
0
100
AcDbVertex
100
AcDb2dVertex
 10
354.3699290054441
 20
476.5410623745681
 30
0.0
  0
SEQEND
  5
14E19
330
14C9B
100
AcDbEntity
  8
0
  0
ARC
  5
14C9C
330
1E
100
AcDbEntity
  8
0
100
AcDbCircle
 10
315.8180159530416
 20
520.5410623745681
 30
0.0
 40
40.0
100
AcDbArc
 50
203.4219841507787
 51
336.5780158492213
  0
LINE
  5
14C9D
330
1E
100
AcDbEntity
  8
0
100
AcDbLine
 10
358.8180159530415
 20
287.9406553690905
 30
0.0
 11
272.8180159530416
 21
287.9406553690905
 31
0.0
  0
LINE
  5
14C9E
330
1E
100
AcDbEntity
  8
0
100
AcDbLine
 10
280.818015953042
 20
358.9406553690905
 30
0.0
 11
350.8180159530415
 21
358.9406553690903
 31
0.0
  0
LINE
  5
14C9F
330
1E
100
AcDbEntity
  8
0
 62
     4
100
AcDbLine
 10
275.8180159530415
 20
353.9406553690903
 30
0.0
 11
355.8180159530416
 21
353.9406553690905
 31
0.0
  0
LINE
  5
14CA0
330
1E
100
AcDbEntity
  8
0
100
AcDbLine
 10
359.8180159530416
 20
286.9406553690905
 30
0.0
 11
271.8180159530415
 21
286.9406553690905
 31
0.0
  0
LINE
  5
14CA1
330
1E
100
AcDbEntity
  8
0
100
AcDbLine
 10
358.8180159530415
 20
253.9406553690903
 30
0.0
 11
272.8180159530416
 21
253.9406553690903
 31
0.0
  0
LINE
  5
14CA2
330
1E
100
AcDbEntity
  8
0
100
AcDbLine
 10
359.8180159530416
 20
254.9406553690903
 30
0.0
 11
271.8180159530415
 21
254.9406553690903
 31
0.0
  0
LINE
  5
14CA3
330
1E
100
AcDbEntity
  8
0
100
AcDbLine
 10
215.8180159530416
 20
392.9406553690905
 30
0.0
 11
415.8180159530416
 21
392.9406553690905
 31
0.0
  0
LINE
  5
14CA4
330
1E
100
AcDbEntity
  8
0
100
AcDbLine
 10
415.8180159530416
 20
424.7406553690905
 30
0.0
 11
215.8180159530416
 21
424.7406553690905
 31
0.0
  0
LINE
  5
14CA5
330
1E
100
AcDbEntity
  8
0
  6
PHANTOM
 62
     6
100
AcDbLine
 10
215.8180159530416
 20
362.9406553690905
 30
0.0
 11
415.8180159530416
 21
362.9406553690905
 31
0.0
  0
LINE
  5
14CA6
330
1E
100
AcDbEntity
  8
0
  6
PHANTOM
 62
     6
100
AcDbLine
 10
415.8180159530416
 20
394.7406553690905
 30
0.0
 11
215.8180159530416
 21
394.7406553690905
 31
0.0
  0
LINE
  5
14CA7
330
1E
100
AcDbEntity
  8
0
100
AcDbLine
 10
215.8180159530416
 20
504.641062374568
 30
0.0
 11
415.8180159530416
 21
504.641062374568
 31
0.0
  0
LINE
  5
14CA8
330
1E
100
AcDbEntity
  8
0
100
AcDbLine
 10
415.8180159530416
 20
536.4410623745682
 30
0.0
 11
215.8180159530416
 21
536.4410623745682
 31
0.0
  0
SOLID
  5
14CA9
330
1E
100
AcDbEntity
  8
DIM
100
AcDbTrace
 10
283.7724392120417
 20
460.0201178414679
 30
0.0
 11
283.7724392120417
 21
461.0620069076681
 31
0.0
 12
280.8180159530416
 22
460.5410623745681
 32
0.0
 13
280.8180159530416
 23
460.5410623745681
 33
0.0
  0
LINE
  5
14CAA
330
1E
100
AcDbEntity
  8
DIM
100
AcDbLine
 10
280.8180159530416
 20
460.5410623745679
 30
0.0
 11
350.8180159530415
 21
460.5410623745681
 31
0.0
  0
LINE
  5
14CAB
330
1E
100
AcDbEntity
  8
DIM
100
AcDbLine
 10
271.8180159530415
 20
452.5410623745679
 30
0.0
 11
359.8180159530416
 21
452.5410623745681
 31
0.0
  0
LINE
  5
14CAC
330
1E
100
AcDbEntity
  8
DIM
100
AcDbLine
 10
275.8180159530415
 20
308.2993529497584
 30
0.0
 11
355.8180159530416
 21
308.2993529497587
 31
0.0
  0
LINE
  5
14CAD
330
1E
100
AcDbEntity
  8
DIM
100
AcDbLine
 10
215.8180159530416
 20
433.5406553690904
 30
0.0
 11
415.8180159530416
 21
433.5406553690904
 31
0.0
  0
LINE
  5
14CAE
330
1E
100
AcDbEntity
  8
CENTER
  6
CENTER
100
AcDbLine
 10
270.8180159530416
 20
555.5410623745681
 30
0.0
 11
290.8180159530416
 21
555.5410623745681
 31
0.0
  0
LINE
  5
14CAF
330
1E
100
AcDbEntity
  8
CENTER
  6
CENTER
100
AcDbLine
 10
270.8180159530416
 20
485.5410623745681
 30
0.0
 11
290.8180159530416
 21
485.5410623745681
 31
0.0
  0
LINE
  5
14CB0
330
1E
100
AcDbEntity
  8
CENTER
  6
CENTER
100
AcDbLine
 10
210.743953985127
 20
520.5410623745681
 30
0.0
 11
361.542466029909
 21
520.5410623745681
 31
0.0
  0
LINE
  5
14CB1
330
1E
100
AcDbEntity
  8
0
  6
PHANTOM
 62
     6
100
AcDbLine
 10
215.8180159530416
 20
394.7406553690905
 30
0.0
 11
215.8180159530416
 21
362.9406553690905
 31
0.0
  0
LINE
  5
14CB2
330
1E
100
AcDbEntity
  8
0
100
AcDbLine
 10
271.8180159530415
 20
254.9406553690903
 30
0.0
 11
271.8180159530415
 21
286.9406553690905
 31
0.0
  0
LINE
  5
14CB3
330
1E
100
AcDbEntity
  8
0
  6
CONTINUOUS
100
AcDbLine
 10
277.2661029006389
 20
286.9406553690905
 30
0.0
 11
277.2661029006389
 21
254.9406553690903
 31
0.0
  0
LINE
  5
14CB4
330
1E
100
AcDbEntity
  8
CENTER
  6
CENTER
100
AcDbLine
 10
280.8180159530416
 20
251.1341697386128
 30
0.0
 11
280.8180159530416
 21
290.5221946822853
 31
0.0
  0
LINE
  5
14CB5
330
1E
100
AcDbEntity
  8
HIDDEN
  6
HIDDEN
100
AcDbLine
 10
275.3180159530415
 20
253.9406553690903
 30
0.0
 11
275.3180159530415
 21
287.9406553690905
 31
0.0
  0
LINE
  5
14CB6
330
1E
100
AcDbEntity
  8
0
100
AcDbLine
 10
277.2661029006394
 20
254.9406553690903
 30
0.0
 11
278.2661029006394
 21
253.9406553690903
 31
0.0
  0
LINE
  5
14CB7
330
1E
100
AcDbEntity
  8
0
100
AcDbLine
 10
271.8180159530415
 20
254.9406553690903
 30
0.0
 11
272.8180159530416
 21
253.9406553690903
 31
0.0
  0
LINE
  5
14CB8
330
1E
100
AcDbEntity
  8
0
100
AcDbLine
 10
275.8180159530415
 20
353.9406553690905
 30
0.0
 11
275.8180159530415
 21
287.9406553690905
 31
0.0
  0
LINE
  5
14CB9
330
1E
100
AcDbEntity
  8
0
100
AcDbLine
 10
278.266102900639
 20
287.9406553690905
 30
0.0
 11
277.2661029006389
 21
286.9406553690905
 31
0.0
  0
LINE
  5
14CBA
330
1E
100
AcDbEntity
  8
0
100
AcDbLine
 10
272.8180159530416
 20
287.9406553690905
 30
0.0
 11
271.8180159530415
 21
286.9406553690905
 31
0.0
  0
SOLID
  5
14CBB
330
1E
100
AcDbEntity
  8
DIM
100
AcDbTrace
 10
278.7724392120421
 20
308.8202974828586
 30
0.0
 11
278.7724392120421
 21
307.7784084166585
 31
0.0
 12
275.818015953042
 22
308.2993529497587
 32
0.0
 13
275.818015953042
 23
308.2993529497587
 33
0.0
  0
ARC
  5
14CBC
330
1E
100
AcDbEntity
  8
0
100
AcDbCircle
 10
280.8180159530416
 20
353.9406553690905
 30
0.0
 40
5.0
100
AcDbArc
 50
90.0
 51
180.0
  0
POLYLINE
  5
14CBD
330
1E
100
AcDbEntity
  8
0
100
AcDb2dPolyline
 66
     1
 10
0.0
 20
0.0
 30
0.0
  0
VERTEX
  5
14E1A
330
14CBD
100
AcDbEntity
  8
0
100
AcDbVertex
100
AcDb2dVertex
 10
271.8180159530415
 20
504.641062374568
 30
0.0
  0
VERTEX
  5
14E1B
330
14CBD
100
AcDbEntity
  8
0
100
AcDbVertex
100
AcDb2dVertex
 10
271.8180159530415
 20
481.9891493221657
 30
0.0
  0
SEQEND
  5
14E1C
330
14CBD
100
AcDbEntity
  8
0
  0
POLYLINE
  5
14CBE
330
1E
100
AcDbEntity
  8
DIM
100
AcDb2dPolyline
 66
     1
 10
0.0
 20
0.0
 30
0.0
 70
     7
  0
VERTEX
  5
14CBF
330
14CBE
100
AcDbEntity
  8
DIM
100
AcDbVertex
100
AcDb2dVertex
 10
205.4388318799587
 20
506.3303823810672
 30
0.0
 42
0.0185322085214218
  0
VERTEX
  5
14CC0
330
14CBE
100
AcDbEntity
  8
DIM
100
AcDbVertex
100
AcDb2dVertex
 10
207.4680049498383
 20
501.9292831413861
 30
0.0
  0
VERTEX
  5
14CC1
330
14CBE
100
AcDbEntity
  8
DIM
100
AcDbVertex
100
AcDb2dVertex
 10
206.9328125452388
 20
501.6580469158209
 30
0.0
  0
VERTEX
  5
14CC2
330
14CBE
100
AcDbEntity
  8
DIM
100
AcDbVertex
100
AcDb2dVertex
 10
209.5552973285721
 20
499.6238492769716
 30
0.0
  0
VERTEX
  5
14CC3
330
14CBE
100
AcDbEntity
  8
DIM
100
AcDbVertex
100
AcDb2dVertex
 10
209.3411783659376
 20
502.8786099308643
 30
0.0
  0
VERTEX
  5
14CC4
330
14CBE
100
AcDbEntity
  8
DIM
100
AcDbVertex
100
AcDb2dVertex
 10
208.8059859613376
 20
502.6073737052988
 30
0.0
 42
-0.018532208521422
  0
VERTEX
  5
14CC5
330
14CBE
100
AcDbEntity
  8
DIM
100
AcDbVertex
100
AcDb2dVertex
 10
206.8233535581985
 20
506.9075303018681
 30
0.0
  0
SEQEND
  5
14CC6
330
14CBE
100
AcDbEntity
  8
DIM
  0
TEXT
  5
14CC7
330
1E
100
AcDbEntity
  8
DIM
100
AcDbText
 10
191.432913101416
 20
501.3962444785026
 30
0.0
 40
4.0
  1
CCW
  7
ROMANS
100
AcDbText
  0
LINE
  5
14CC8
330
1E
100
AcDbEntity
  8
0
100
AcDbLine
 10
215.8180159530416
 20
424.7406553690905
 30
0.0
 11
215.8180159530416
 21
392.9406553690905
 31
0.0
  0
LINE
  5
14CC9
330
1E
100
AcDbEntity
  8
DIM
100
AcDbLine
 10
215.8180159530416
 20
427.6294149317159
 30
0.0
 11
215.8180159530416
 21
434.5406553690905
 31
0.0
  0
SOLID
  5
14CCA
330
1E
100
AcDbEntity
  8
DIM
100
AcDbTrace
 10
218.7724392120417
 20
434.0615999021906
 30
0.0
 11
218.7724392120417
 21
433.0197108359905
 31
0.0
 12
215.8180159530416
 22
433.5406553690904
 32
0.0
 13
215.8180159530416
 23
433.5406553690904
 33
0.0
  0
ARC
  5
14CCB
330
1E
100
AcDbEntity
  8
0
100
AcDbCircle
 10
315.8180159530416
 20
520.5410623745681
 30
0.0
 40
58.5
100
AcDbArc
 50
221.2241894971199
 51
228.7758105028801
  0
LINE
  5
14CCC
330
1E
100
AcDbEntity
  8
DIM
100
AcDbLine
 10
280.8180159530416
 20
473.3595234118667
 30
0.0
 11
280.8180159530416
 21
459.5410623745681
 31
0.0
  0
SOLID
  5
14CCD
330
1E
100
AcDbEntity
  8
DIM
100
AcDbTrace
 10
274.7724392120417
 20
452.0201178414679
 30
0.0
 11
274.7724392120417
 21
453.0620069076681
 31
0.0
 12
271.8180159530415
 22
452.5410623745681
 32
0.0
 13
271.8180159530415
 23
452.5410623745681
 33
0.0
  0
LINE
  5
14CCE
330
1E
100
AcDbEntity
  8
DIM
100
AcDbLine
 10
271.8180159530415
 20
478.9735533433293
 30
0.0
 11
271.8180159530415
 21
451.5410623745681
 31
0.0
  0
LINE
  5
14CCF
330
1E
100
AcDbEntity
  8
CENTER
  6
CENTER
100
AcDbLine
 10
280.8180159530416
 20
475.5410623745681
 30
0.0
 11
280.8180159530416
 21
495.5410623745681
 31
0.0
  0
POLYLINE
  5
14CD0
330
1E
100
AcDbEntity
  8
DIM
100
AcDb2dPolyline
 66
     1
 10
0.0
 20
0.0
 30
0.0
 70
     7
  0
VERTEX
  5
14CD1
330
14CD0
100
AcDbEntity
  8
DIM
100
AcDbVertex
100
AcDb2dVertex
 10
205.4388318799592
 20
534.4846782226695
 30
0.0
 42
-0.0185322085214218
  0
VERTEX
  5
14CD2
330
14CD0
100
AcDbEntity
  8
DIM
100
AcDbVertex
100
AcDb2dVertex
 10
207.4680049498388
 20
538.8857774623507
 30
0.0
  0
VERTEX
  5
14CD3
330
14CD0
100
AcDbEntity
  8
DIM
100
AcDbVertex
100
AcDb2dVertex
 10
206.9328125452393
 20
539.1570136879159
 30
0.0
  0
VERTEX
  5
14CD4
330
14CD0
100
AcDbEntity
  8
DIM
100
AcDbVertex
100
AcDb2dVertex
 10
209.5552973285725
 20
541.1912113267649
 30
0.0
  0
VERTEX
  5
14CD5
330
14CD0
100
AcDbEntity
  8
DIM
100
AcDbVertex
100
AcDb2dVertex
 10
209.341178365938
 20
537.9364506728725
 30
0.0
  0
VERTEX
  5
14CD6
330
14CD0
100
AcDbEntity
  8
DIM
100
AcDbVertex
100
AcDb2dVertex
 10
208.8059859613381
 20
538.2076868984379
 30
0.0
 42
0.018532208521422
  0
VERTEX
  5
14CD7
330
14CD0
100
AcDbEntity
  8
DIM
100
AcDbVertex
100
AcDb2dVertex
 10
206.8233535581985
 20
533.907530301868
 30
0.0
  0
SEQEND
  5
14CD8
330
14CD0
100
AcDbEntity
  8
DIM
  0
TEXT
  5
14CD9
330
1E
100
AcDbEntity
  8
DIM
100
AcDbText
 10
193.5078614171834
 20
536.4591934628995
 30
0.0
 40
4.0
  1
CW
  7
ROMANS
100
AcDbText
  0
POLYLINE
  5
14CDA
330
1E
100
AcDbEntity
  8
0
100
AcDb2dPolyline
 66
     1
 10
0.0
 20
0.0
 30
0.0
  0
VERTEX
  5
14E1D
330
14CDA
100
AcDbEntity
  8
0
100
AcDbVertex
100
AcDb2dVertex
 10
271.8180159530415
 20
559.0929754269707
 30
0.0
  0
VERTEX
  5
14E1E
330
14CDA
100
AcDbEntity
  8
0
100
AcDbVertex
100
AcDb2dVertex
 10
271.8180159530415
 20
536.441062374568
 30
0.0
  0
SEQEND
  5
14E1F
330
14CDA
100
AcDbEntity
  8
0
  0
LINE
  5
14CDB
330
1E
100
AcDbEntity
  8
CENTER
  6
CENTER
100
AcDbLine
 10
280.8180159530416
 20
545.5410623745681
 30
0.0
 11
280.8180159530416
 21
565.5410623745681
 31
0.0
  0
LINE
  5
14CDC
330
1E
100
AcDbEntity
  8
0
100
AcDbLine
 10
215.8180159530416
 20
536.4410623745682
 30
0.0
 11
215.8180159530416
 21
504.641062374568
 31
0.0
  0
ARC
  5
14CDD
330
1E
100
AcDbEntity
  8
0
100
AcDbCircle
 10
315.8180159530416
 20
520.5410623745681
 30
0.0
 40
58.5
100
AcDbArc
 50
131.2241894971198
 51
138.7758105028801
  0
LINE
  5
14CDE
330
1E
100
AcDbEntity
  8
0
  6
PHANTOM
 62
     6
100
AcDbLine
 10
415.8180159530416
 20
394.7406553690905
 30
0.0
 11
415.8180159530416
 21
362.9406553690905
 31
0.0
  0
LINE
  5
14CDF
330
1E
100
AcDbEntity
  8
0
100
AcDbLine
 10
333.3180159530416
 20
390.6406553690906
 30
0.0
 11
332.3180159530416
 21
392.6406553690906
 31
0.0
  0
LINE
  5
14CE0
330
1E
100
AcDbEntity
  8
0
100
AcDbLine
 10
299.3180159530416
 20
392.6406553690906
 30
0.0
 11
298.3180159530416
 21
390.6406553690906
 31
0.0
  0
LINE
  5
14CE1
330
1E
100
AcDbEntity
  8
0
  6
PHANTOM
 62
     6
100
AcDbLine
 10
339.8180159530415
 20
362.9406553690905
 30
0.0
 11
339.8180159530415
 21
394.7406553690905
 31
0.0
  0
LINE
  5
14CE2
330
1E
100
AcDbEntity
  8
0
100
AcDbLine
 10
538.7815907911413
 20
392.6406553690906
 30
0.0
 11
537.7815907911412
 21
390.6406553690906
 31
0.0
  0
SOLID
  5
14CE3
330
1E
100
AcDbEntity
  8
DIM
100
AcDbTrace
 10
432.3389604861417
 20
389.9862321100904
 30
0.0
 11
431.2970714199418
 21
389.9862321100904
 31
0.0
 12
431.8180159530416
 22
392.9406553690905
 32
0.0
 13
431.8180159530416
 23
392.9406553690905
 33
0.0
  0
SOLID
  5
14CE4
330
1E
100
AcDbEntity
  8
DIM
100
AcDbTrace
 10
424.3389604861418
 20
389.9862321100904
 30
0.0
 11
423.2970714199418
 21
389.9862321100904
 31
0.0
 12
423.8180159530416
 22
392.9406553690905
 32
0.0
 13
423.8180159530416
 23
392.9406553690905
 33
0.0
  0
LINE
  5
14CE5
330
1E
100
AcDbEntity
  8
DIM
100
AcDbLine
 10
423.8180159530416
 20
253.9406553690903
 30
0.0
 11
423.8180159530416
 21
408.8406553690904
 31
0.0
  0
LINE
  5
14CE6
330
1E
100
AcDbEntity
  8
DIM
100
AcDbLine
 10
431.8180159530416
 20
253.9406553690903
 30
0.0
 11
431.818015953042
 21
424.7406553690905
 31
0.0
  0
LINE
  5
14CE7
330
1E
100
AcDbEntity
  8
DIM
100
AcDbLine
 10
439.8180159530416
 20
253.9406553690903
 30
0.0
 11
439.8180159530416
 21
424.7406553690905
 31
0.0
  0
LINE
  5
14CE8
330
1E
100
AcDbEntity
  8
CENTER
  6
CENTER
100
AcDbLine
 10
555.2815907911413
 20
250.7029233213891
 30
0.0
 11
555.2815907911413
 21
432.5921961835704
 31
0.0
  0
LINE
  5
14CE9
330
1E
100
AcDbEntity
  8
CENTER
  6
CENTER
100
AcDbLine
 10
315.8180159530416
 20
250.7029233213891
 30
0.0
 11
315.8180159530416
 21
428.71999042365
 31
0.0
  0
TEXT
  5
14CEA
330
1E
100
AcDbEntity
  8
DIM
100
AcDbText
 10
422.8180159530415
 20
374.961681606366
 30
0.0
 40
3.0
  1
30
 50
90.0
  7
ROMANS
100
AcDbText
  0
LINE
  5
14CEB
330
1E
100
AcDbEntity
  8
DIM
100
AcDbLine
 10
417.1229544031789
 20
362.9406553690903
 30
0.0
 11
424.8180159530416
 21
362.9406553690905
 31
0.0
  0
TEXT
  5
14CEC
330
1E
100
AcDbEntity
  8
DIM
100
AcDbText
 10
422.8180159530415
 20
304.1670193126478
 30
0.0
 40
3.0
  1
109
 50
90.0
  7
ROMANS
100
AcDbText
  0
LINE
  5
14CED
330
1E
100
AcDbEntity
  8
DIM
100
AcDbLine
 10
359.8180159530416
 20
253.9406553690903
 30
0.0
 11
440.8180159530416
 21
253.9406553690903
 31
0.0
  0
LINE
  5
14CEE
330
1E
100
AcDbEntity
  8
0
100
AcDbLine
 10
359.8180159530416
 20
286.9406553690905
 30
0.0
 11
359.8180159530416
 21
254.9406553690903
 31
0.0
  0
LINE
  5
14CEF
330
1E
100
AcDbEntity
  8
0
  6
CONTINUOUS
100
AcDbLine
 10
354.3699290054437
 20
286.9406553690905
 30
0.0
 11
354.3699290054437
 21
254.9406553690903
 31
0.0
  0
LINE
  5
14CF0
330
1E
100
AcDbEntity
  8
DIM
100
AcDbLine
 10
407.8180159530416
 20
253.9406553690903
 30
0.0
 11
407.8180159530416
 21
287.9406553690905
 31
0.0
  0
LINE
  5
14CF1
330
1E
100
AcDbEntity
  8
DIM
100
AcDbLine
 10
415.8180159530416
 20
253.9406553690903
 30
0.0
 11
415.8180159530416
 21
358.9406553690903
 31
0.0
  0
LINE
  5
14CF2
330
1E
100
AcDbEntity
  8
CENTER
  6
CENTER
100
AcDbLine
 10
350.8180159530415
 20
250.8646785589089
 30
0.0
 11
350.8180159530415
 21
290.5221946822853
 31
0.0
  0
LINE
  5
14CF3
330
1E
100
AcDbEntity
  8
HIDDEN
  6
HIDDEN
100
AcDbLine
 10
286.3180159530415
 20
253.9406553690903
 30
0.0
 11
286.3180159530415
 21
287.9406553690905
 31
0.0
  0
LINE
  5
14CF4
330
1E
100
AcDbEntity
  8
HIDDEN
  6
HIDDEN
100
AcDbLine
 10
356.3180159530416
 20
253.9406553690903
 30
0.0
 11
356.3180159530416
 21
287.9406553690903
 31
0.0
  0
LINE
  5
14CF5
330
1E
100
AcDbEntity
  8
HIDDEN
  6
HIDDEN
100
AcDbLine
 10
345.3180159530416
 20
253.9406553690903
 30
0.0
 11
345.3180159530416
 21
287.9406553690903
 31
0.0
  0
LINE
  5
14CF6
330
1E
100
AcDbEntity
  8
CENTER
  6
CENTER
100
AcDbLine
 10
362.8758825638596
 20
275.4406553690898
 30
0.0
 11
342.8758825638597
 21
275.4406553690898
 31
0.0
  0
LINE
  5
14CF7
330
1E
100
AcDbEntity
  8
HIDDEN
  6
HIDDEN
100
AcDbLine
 10
359.8180159530416
 20
269.6906553690898
 30
0.0
 11
349.8180159530416
 21
270.2147331619203
 31
0.0
  0
LINE
  5
14CF8
330
1E
100
AcDbEntity
  8
HIDDEN
  6
HIDDEN
100
AcDbLine
 10
359.8180159530416
 20
268.8906553690896
 30
0.0
 11
349.8180159530416
 21
269.4147331619201
 31
0.0
  0
LINE
  5
14CF9
330
1E
100
AcDbEntity
  8
0
100
AcDbLine
 10
358.8180159530415
 20
253.9406553690903
 30
0.0
 11
359.8180159530416
 21
254.9406553690903
 31
0.0
  0
LINE
  5
14CFA
330
1E
100
AcDbEntity
  8
0
100
AcDbLine
 10
354.3699290054437
 20
254.9406553690903
 30
0.0
 11
353.3699290054437
 21
253.9406553690903
 31
0.0
  0
TEXT
  5
14CFB
330
1E
100
AcDbEntity
  8
DIM
100
AcDbText
 10
406.8180159530416
 20
268.000820704711
 30
0.0
 40
3.0
  1
34
 50
90.0
  7
ROMANS
100
AcDbText
  0
SOLID
  5
14CFC
330
1E
100
AcDbEntity
  8
DIM
100
AcDbTrace
 10
407.2970714199418
 20
256.8950786280904
 30
0.0
 11
408.3389604861418
 21
256.8950786280904
 31
0.0
 12
407.8180159530416
 22
253.9406553690903
 32
0.0
 13
407.8180159530416
 23
253.9406553690903
 33
0.0
  0
SOLID
  5
14CFD
330
1E
100
AcDbEntity
  8
DIM
100
AcDbTrace
 10
415.2970714199418
 20
256.8950786280904
 30
0.0
 11
416.3389604861418
 21
256.8950786280904
 31
0.0
 12
415.8180159530416
 22
253.9406553690903
 32
0.0
 13
415.8180159530416
 23
253.9406553690903
 33
0.0
  0
ARC
  5
14CFE
330
1E
100
AcDbEntity
  8
0
100
AcDbCircle
 10
350.8180159530415
 20
353.9406553690905
 30
0.0
 40
5.0
100
AcDbArc
 50
0.0
 51
90.0
  0
LINE
  5
14CFF
330
1E
100
AcDbEntity
  8
CENTER
  6
CENTER
100
AcDbLine
 10
358.8758825638596
 20
343.9406553690898
 30
0.0
 11
338.8758825638597
 21
343.9406553690898
 31
0.0
  0
LINE
  5
14D00
330
1E
100
AcDbEntity
  8
HIDDEN
  6
HIDDEN
100
AcDbLine
 10
355.8180159530416
 20
349.6906553690898
 30
0.0
 11
345.8180159530416
 21
349.1665775762594
 31
0.0
  0
LINE
  5
14D01
330
1E
100
AcDbEntity
  8
HIDDEN
  6
HIDDEN
100
AcDbLine
 10
355.8180159530416
 20
350.4906553690898
 30
0.0
 11
345.8180159530416
 21
349.9665775762596
 31
0.0
  0
LINE
  5
14D02
330
1E
100
AcDbEntity
  8
HIDDEN
  6
HIDDEN
100
AcDbLine
 10
355.8180159530416
 20
338.1906553690898
 30
0.0
 11
345.8180159530416
 21
338.7147331619203
 31
0.0
  0
LINE
  5
14D03
330
1E
100
AcDbEntity
  8
HIDDEN
  6
HIDDEN
100
AcDbLine
 10
355.8180159530416
 20
337.3906553690899
 30
0.0
 11
345.8180159530416
 21
337.9147331619203
 31
0.0
  0
LINE
  5
14D04
330
1E
100
AcDbEntity
  8
HIDDEN
  6
HIDDEN
100
AcDbLine
 10
359.8180159530416
 20
281.1906553690898
 30
0.0
 11
349.8180159530416
 21
280.6665775762594
 31
0.0
  0
LINE
  5
14D05
330
1E
100
AcDbEntity
  8
HIDDEN
  6
HIDDEN
100
AcDbLine
 10
359.8180159530416
 20
281.9906553690898
 30
0.0
 11
349.8180159530416
 21
281.4665775762593
 31
0.0
  0
TEXT
  5
14D06
330
1E
100
AcDbEntity
  8
DIM
100
AcDbText
 10
318.1537503556924
 20
309.2993529497586
 30
0.0
 40
3.0
  1
%%c80
  7
ROMANS
100
AcDbText
  0
LINE
  5
14D07
330
1E
100
AcDbEntity
  8
0
100
AcDbLine
 10
298.3180159530416
 20
390.6406553690906
 30
0.0
 11
333.3180159530416
 21
390.6406553690906
 31
0.0
  0
LINE
  5
14D08
330
1E
100
AcDbEntity
  8
0
100
AcDbLine
 10
298.3180159530416
 20
390.6406553690906
 30
0.0
 11
298.3180159530416
 21
358.9406553690905
 31
0.0
  0
LINE
  5
14D09
330
1E
100
AcDbEntity
  8
0
100
AcDbLine
 10
333.3180159530416
 20
390.6406553690906
 30
0.0
 11
333.3180159530416
 21
358.9406553690905
 31
0.0
  0
LINE
  5
14D0A
330
1E
100
AcDbEntity
  8
0
100
AcDbLine
 10
355.8180159530416
 20
353.9406553690905
 30
0.0
 11
355.8180159530416
 21
287.9406553690903
 31
0.0
  0
TEXT
  5
14D0B
330
1E
100
AcDbEntity
  8
DIM
100
AcDbText
 10
375.4604017710157
 20
334.2053071226741
 30
0.0
 40
3.0
  1
2-PT 1/4
  7
ROMANS
100
AcDbText
  0
LINE
  5
14D0C
330
1E
100
AcDbEntity
  8
DIM
100
AcDbLine
 10
373.0302371478501
 20
333.2053071226741
 30
0.0
 11
355.818015953042
 21
343.9406553690894
 31
0.0
  0
LINE
  5
14D0D
330
1E
100
AcDbEntity
  8
DIM
100
AcDbLine
 10
402.7710607391945
 20
333.2053071226741
 30
0.0
 11
373.0302371478501
 21
333.2053071226741
 31
0.0
  0
LINE
  5
14D0E
330
1E
100
AcDbEntity
  8
DIM
100
AcDbLine
 10
359.8180159530416
 20
287.9406553690903
 30
0.0
 11
408.8180159530415
 21
287.9406553690903
 31
0.0
  0
LINE
  5
14D0F
330
1E
100
AcDbEntity
  8
0
100
AcDbLine
 10
358.8180159530415
 20
287.9406553690905
 30
0.0
 11
359.8180159530416
 21
286.9406553690905
 31
0.0
  0
LINE
  5
14D10
330
1E
100
AcDbEntity
  8
0
100
AcDbLine
 10
353.3699290054437
 20
287.9406553690905
 30
0.0
 11
354.3699290054437
 21
286.9406553690905
 31
0.0
  0
SOLID
  5
14D11
330
1E
100
AcDbEntity
  8
DIM
100
AcDbTrace
 10
352.8635926940414
 20
307.7784084166585
 30
0.0
 11
352.8635926940414
 21
308.8202974828586
 31
0.0
 12
355.8180159530416
 22
308.2993529497587
 32
0.0
 13
355.8180159530416
 23
308.2993529497587
 33
0.0
  0
TEXT
  5
14D12
330
1E
100
AcDbEntity
  8
DIM
100
AcDbText
 10
414.8180159530416
 20
302.3007105815577
 30
0.0
 40
3.0
  1
105
 50
90.0
  7
ROMANS
100
AcDbText
  0
SOLID
  5
14D13
330
1E
100
AcDbEntity
  8
DIM
100
AcDbTrace
 10
408.3389604861418
 20
284.9862321100904
 30
0.0
 11
407.2970714199418
 21
284.9862321100904
 31
0.0
 12
407.8180159530416
 22
287.9406553690903
 32
0.0
 13
407.8180159530416
 23
287.9406553690903
 33
0.0
  0
LINE
  5
14D14
330
1E
100
AcDbEntity
  8
DIM
100
AcDbLine
 10
353.6180159530417
 20
358.9406553690903
 30
0.0
 11
416.8180159530415
 21
358.9406553690903
 31
0.0
  0
SOLID
  5
14D15
330
1E
100
AcDbEntity
  8
DIM
100
AcDbTrace
 10
358.600508110951
 20
342.8191664520413
 30
0.0
 11
358.0491315009376
 21
341.9351321426406
 31
0.0
 12
355.818015953042
 22
343.9406553690896
 32
0.0
 13
355.818015953042
 23
343.9406553690896
 33
0.0
  0
SOLID
  5
14D16
330
1E
100
AcDbEntity
  8
DIM
100
AcDbTrace
 10
416.3389604861418
 20
355.9862321100904
 30
0.0
 11
415.2970714199418
 21
355.9862321100904
 31
0.0
 12
415.8180159530416
 22
358.9406553690903
 32
0.0
 13
415.8180159530416
 23
358.9406553690903
 33
0.0
  0
LINE
  5
14D17
330
1E
100
AcDbEntity
  8
0
100
AcDbLine
 10
511.2815907911413
 20
254.9406553690903
 30
0.0
 11
511.2815907911413
 21
286.9406553690905
 31
0.0
  0
LINE
  5
14D18
330
1E
100
AcDbEntity
  8
0
  6
CONTINUOUS
100
AcDbLine
 10
516.7296777387391
 20
286.9406553690905
 30
0.0
 11
516.7296777387391
 21
254.9406553690903
 31
0.0
  0
CIRCLE
  5
14D19
330
1E
100
AcDbEntity
  8
0
100
AcDbCircle
 10
538.2815907911413
 20
275.4406553690903
 30
0.0
 40
5.75
  0
ARC
  5
14D1A
330
1E
100
AcDbEntity
  8
0
 62
     2
100
AcDbCircle
 10
538.2815907911413
 20
275.4406553690903
 30
0.0
 40
6.5
100
AcDbArc
 50
79.20006184048651
 51
10.81576982730666
  0
LINE
  5
14D1B
330
1E
100
AcDbEntity
  8
CENTER
  6
CENTER
100
AcDbLine
 10
538.2815907911413
 20
265.4406553690903
 30
0.0
 11
538.2815907911413
 21
285.4406553690903
 31
0.0
  0
LINE
  5
14D1C
330
1E
100
AcDbEntity
  8
CENTER
  6
CENTER
100
AcDbLine
 10
520.2815907911412
 20
251.1341697386128
 30
0.0
 11
520.2815907911412
 21
290.5221946822853
 31
0.0
  0
LINE
  5
14D1D
330
1E
100
AcDbEntity
  8
HIDDEN
  6
HIDDEN
100
AcDbLine
 10
525.7815907911413
 20
253.9406553690903
 30
0.0
 11
525.7815907911413
 21
287.9406553690905
 31
0.0
  0
LINE
  5
14D1E
330
1E
100
AcDbEntity
  8
HIDDEN
  6
HIDDEN
100
AcDbLine
 10
514.7815907911413
 20
253.9406553690903
 30
0.0
 11
514.7815907911413
 21
287.9406553690905
 31
0.0
  0
SOLID
  5
14D1F
330
1E
100
AcDbEntity
  8
DIM
100
AcDbTrace
 10
423.2970714199418
 20
256.8950786280904
 30
0.0
 11
424.3389604861418
 21
256.8950786280904
 31
0.0
 12
423.8180159530416
 22
253.9406553690903
 32
0.0
 13
423.8180159530416
 23
253.9406553690903
 33
0.0
  0
SOLID
  5
14D20
330
1E
100
AcDbEntity
  8
DIM
100
AcDbTrace
 10
431.2970714199418
 20
256.8950786280904
 30
0.0
 11
432.3389604861417
 21
256.8950786280904
 31
0.0
 12
431.8180159530416
 22
253.9406553690903
 32
0.0
 13
431.8180159530416
 23
253.9406553690903
 33
0.0
  0
SOLID
  5
14D21
330
1E
100
AcDbEntity
  8
DIM
100
AcDbTrace
 10
439.2970714199418
 20
256.8950786280904
 30
0.0
 11
440.3389604861417
 21
256.8950786280904
 31
0.0
 12
439.8180159530416
 22
253.9406553690903
 32
0.0
 13
439.8180159530416
 23
253.9406553690903
 33
0.0
  0
LINE
  5
14D22
330
1E
100
AcDbEntity
  8
0
100
AcDbLine
 10
516.7296777387391
 20
254.9406553690903
 30
0.0
 11
517.7296777387391
 21
253.9406553690903
 31
0.0
  0
LINE
  5
14D23
330
1E
100
AcDbEntity
  8
0
100
AcDbLine
 10
511.2815907911413
 20
254.9406553690903
 30
0.0
 11
512.2815907911412
 21
253.9406553690903
 31
0.0
  0
LINE
  5
14D24
330
1E
100
AcDbEntity
  8
CENTER
  6
CENTER
100
AcDbLine
 10
528.2815907911412
 20
275.4406553690903
 30
0.0
 11
548.2815907911413
 21
275.4406553690903
 31
0.0
  0
TEXT
  5
14D25
330
1E
100
AcDbEntity
  8
DIM
100
AcDbText
 10
438.8180159530415
 20
334.2874405485427
 30
0.0
 40
3.0
  1
170.8
 50
90.0
  7
ROMANS
100
AcDbText
  0
TEXT
  5
14D26
330
1E
100
AcDbEntity
  8
DIM
100
AcDbText
 10
430.8180159530415
 20
323.1610107192268
 30
0.0
 40
3.0
  1
139
 50
90.0
  7
ROMANS
100
AcDbText
  0
SOLID
  5
14D27
330
1E
100
AcDbEntity
  8
DIM
100
AcDbTrace
 10
424.3389604861418
 20
365.8950786280904
 30
0.0
 11
423.2970714199418
 21
365.8950786280904
 31
0.0
 12
423.8180159530416
 22
362.9406553690905
 32
0.0
 13
423.8180159530416
 23
362.9406553690905
 33
0.0
  0
SOLID
  5
14D28
330
1E
100
AcDbEntity
  8
DIM
100
AcDbTrace
 10
424.3389604861418
 20
359.9862321100904
 30
0.0
 11
423.2970714199418
 21
359.9862321100904
 31
0.0
 12
423.8180159530416
 22
362.9406553690905
 32
0.0
 13
423.8180159530416
 23
362.9406553690905
 33
0.0
  0
LINE
  5
14D29
330
1E
100
AcDbEntity
  8
0
100
AcDbLine
 10
515.2815907911413
 20
353.9406553690905
 30
0.0
 11
515.2815907911413
 21
287.9406553690905
 31
0.0
  0
LINE
  5
14D2A
330
1E
100
AcDbEntity
  8
0
100
AcDbLine
 10
517.7296777387391
 20
287.9406553690905
 30
0.0
 11
516.7296777387391
 21
286.9406553690905
 31
0.0
  0
LINE
  5
14D2B
330
1E
100
AcDbEntity
  8
0
100
AcDbLine
 10
512.2815907911412
 20
287.9406553690905
 30
0.0
 11
511.2815907911413
 21
286.9406553690905
 31
0.0
  0
ARC
  5
14D2C
330
1E
100
AcDbEntity
  8
0
100
AcDbCircle
 10
520.2815907911417
 20
353.9406553690905
 30
0.0
 40
5.0
100
AcDbArc
 50
90.0
 51
180.0
  0
LINE
  5
14D2D
330
1E
100
AcDbEntity
  8
0
100
AcDbLine
 10
537.7815907911412
 20
390.6406553690908
 30
0.0
 11
537.7815907911412
 21
358.9406553690905
 31
0.0
  0
CIRCLE
  5
14D2E
330
1E
100
AcDbEntity
  8
0
100
AcDbCircle
 10
555.2815907911417
 20
343.9406553690905
 30
0.0
 40
5.75
  0
ARC
  5
14D2F
330
1E
100
AcDbEntity
  8
0
 62
     2
100
AcDbCircle
 10
555.2815907911417
 20
343.9406553690905
 30
0.0
 40
6.5
100
AcDbArc
 50
79.20006184048651
 51
10.81576982730666
  0
LINE
  5
14D30
330
1E
100
AcDbEntity
  8
DIM
100
AcDbLine
 10
417.5751117027166
 20
536.441062374568
 30
0.0
 11
427.3487346342672
 21
536.441062374568
 31
0.0
  0
LINE
  5
14D31
330
1E
100
AcDbEntity
  8
DIM
100
AcDbLine
 10
417.5751117027166
 20
504.641062374568
 30
0.0
 11
427.3487346342672
 21
504.641062374568
 31
0.0
  0
LINE
  5
14D32
330
1E
100
AcDbEntity
  8
DIM
100
AcDbLine
 10
417.455938731533
 20
424.7406553690905
 30
0.0
 11
440.8459032585197
 21
424.7406553690905
 31
0.0
  0
TEXT
  5
14D33
330
1E
100
AcDbEntity
  8
DIM
100
AcDbText
 10
422.8180159530415
 20
395.5514363716302
 30
0.0
 40
3.0
  1
15.9
 50
90.0
  7
ROMANS
100
AcDbText
  0
LINE
  5
14D34
330
1E
100
AcDbEntity
  8
DIM
100
AcDbLine
 10
417.455938731533
 20
392.9406553690903
 30
0.0
 11
432.8180159530416
 21
392.9406553690905
 31
0.0
  0
LINE
  5
14D35
330
1E
100
AcDbEntity
  8
DIM
100
AcDbLine
 10
339.5376058967022
 20
408.8406553690904
 30
0.0
 11
425.0593482326676
 21
408.8406553690904
 31
0.0
  0
POLYLINE
  5
14D36
330
1E
100
AcDbEntity
  8
0
100
AcDb2dPolyline
 66
     1
 10
0.0
 20
0.0
 30
0.0
  0
VERTEX
  5
14E20
330
14D36
100
AcDbEntity
  8
0
100
AcDbVertex
100
AcDb2dVertex
 10
359.8180159530416
 20
481.9891493221657
 30
0.0
  0
VERTEX
  5
14E21
330
14D36
100
AcDbEntity
  8
0
100
AcDbVertex
100
AcDb2dVertex
 10
359.8180159530416
 20
504.641062374568
 30
0.0
  0
SEQEND
  5
14E22
330
14D36
100
AcDbEntity
  8
0
  0
LINE
  5
14D37
330
1E
100
AcDbEntity
  8
DIM
100
AcDbLine
 10
339.8180159530411
 20
517.5330497496147
 30
0.0
 11
339.8180159530415
 21
467.5410623745679
 31
0.0
  0
LINE
  5
14D38
330
1E
100
AcDbEntity
  8
DIM
100
AcDbLine
 10
291.818015953042
 20
517.466721306675
 30
0.0
 11
291.8180159530415
 21
467.5410623745679
 31
0.0
  0
LINE
  5
14D39
330
1E
100
AcDbEntity
  8
CENTER
  6
CENTER
100
AcDbLine
 10
315.8180159530416
 20
473.8066975326578
 30
0.0
 11
315.8180159530416
 21
568.0967782175389
 31
0.0
  0
CIRCLE
  5
14D3A
330
1E
100
AcDbEntity
  8
0
100
AcDbCircle
 10
350.8180159530415
 20
485.5410623745681
 30
0.0
 40
5.5
  0
LINE
  5
14D3B
330
1E
100
AcDbEntity
  8
DIM
100
AcDbLine
 10
358.9930967033683
 20
440.1287307949128
 30
0.0
 11
347.1483547810917
 21
440.1287307949128
 31
0.0
  0
TEXT
  5
14D3C
330
1E
100
AcDbEntity
  8
DIM
100
AcDbText
 10
349.2744190072821
 20
441.1287307949128
 30
0.0
 40
3.0
  1
%%c15
  7
ROMANS
100
AcDbText
  0
LINE
  5
14D3D
330
1E
100
AcDbEntity
  8
CENTER
  6
CENTER
100
AcDbLine
 10
340.8180159530416
 20
485.5410623745681
 30
0.0
 11
360.8180159530415
 21
485.5410623745681
 31
0.0
  0
CIRCLE
  5
14D3E
330
1E
100
AcDbEntity
  8
0
  6
CONTINUOUS
100
AcDbCircle
 10
315.8180159530416
 20
408.8406553690904
 30
0.0
 40
7.5
  0
LINE
  5
14D3F
330
1E
100
AcDbEntity
  8
0
100
AcDbLine
 10
299.3180159530416
 20
392.6406553690906
 30
0.0
 11
332.3180159530416
 21
392.6406553690906
 31
0.0
  0
TEXT
  5
14D40
330
1E
100
AcDbEntity
  8
DIM
100
AcDbText
 10
310.7543496269686
 20
434.5406553690905
 30
0.0
 40
3.0
  1
200
  7
ROMANS
100
AcDbText
  0
LINE
  5
14D41
330
1E
100
AcDbEntity
  8
CENTER
  6
CENTER
100
AcDbLine
 10
335.5400200916164
 20
408.8406553690904
 30
0.0
 11
295.5181537833118
 21
408.8406553690904
 31
0.0
  0
LINE
  5
14D42
330
1E
100
AcDbEntity
  8
0
100
AcDbLine
 10
299.3180159530416
 20
392.9406553690905
 30
0.0
 11
299.3180159530416
 21
392.6406553690906
 31
0.0
  0
LINE
  5
14D43
330
1E
100
AcDbEntity
  8
0
100
AcDbLine
 10
332.3180159530416
 20
392.6406553690906
 30
0.0
 11
332.3180159530416
 21
392.9406553690905
 31
0.0
  0
SOLID
  5
14D44
330
1E
100
AcDbEntity
  8
DIM
100
AcDbTrace
 10
323.5835119447151
 20
415.8594459264584
 30
0.0
 11
322.8472825316739
 21
416.5966698257181
 31
0.0
 12
321.1248949901882
 22
414.1403756338871
 32
0.0
 13
321.1248949901882
 23
414.1403756338871
 33
0.0
  0
LINE
  5
14D45
330
1E
100
AcDbEntity
  8
DIM
100
AcDbLine
 10
347.1483547810917
 20
440.1287307949128
 30
0.0
 11
321.1248949901882
 21
414.1403756338872
 31
0.0
  0
TEXT
  5
14D46
330
1E
100
AcDbEntity
  8
DIM
100
AcDbText
 10
312.8647390660326
 20
469.5410623745681
 30
0.0
 40
3.0
  1
48
  7
ROMANS
100
AcDbText
  0
TEXT
  5
14D47
330
1E
100
AcDbEntity
  8
DIM
100
AcDbText
 10
314.3984393470964
 20
461.5410623745681
 30
0.0
 40
3.0
  1
70
  7
ROMANS
100
AcDbText
  0
TEXT
  5
14D48
330
1E
100
AcDbEntity
  8
DIM
100
AcDbText
 10
314.4331942083518
 20
453.5410623745681
 30
0.0
 40
3.0
  1
88
  7
ROMANS
100
AcDbText
  0
LINE
  5
14D49
330
1E
100
AcDbEntity
  8
DIM
100
AcDbLine
 10
291.8180159530415
 20
468.541062374568
 30
0.0
 11
339.8180159530415
 21
468.541062374568
 31
0.0
  0
POLYLINE
  5
14D4A
330
1E
100
AcDbEntity
  8
DIM
100
AcDb2dPolyline
 66
     1
 10
0.0
 20
0.0
 30
0.0
 70
     1
  0
VERTEX
  5
14E23
330
14D4A
100
AcDbEntity
  8
DIM
100
AcDbVertex
100
AcDb2dVertex
 10
314.0576467415876
 20
464.2480109833727
 30
0.0
  0
VERTEX
  5
14E24
330
14D4A
100
AcDbEntity
  8
DIM
100
AcDbVertex
100
AcDb2dVertex
 10
314.0576467415876
 20
461.6995483042487
 30
0.0
  0
VERTEX
  5
14E25
330
14D4A
100
AcDbEntity
  8
DIM
100
AcDbVertex
100
AcDb2dVertex
 10
311.5128081411435
 20
461.6995483042487
 30
0.0
  0
VERTEX
  5
14E26
330
14D4A
100
AcDbEntity
  8
DIM
100
AcDbVertex
100
AcDb2dVertex
 10
311.5128081411435
 20
464.2480109833727
 30
0.0
  0
SEQEND
  5
14E27
330
14D4A
100
AcDbEntity
  8
DIM
  0
POLYLINE
  5
14D4B
330
1E
100
AcDbEntity
  8
DIM
100
AcDb2dPolyline
 66
     1
 10
0.0
 20
0.0
 30
0.0
 70
     1
  0
VERTEX
  5
14E28
330
14D4B
100
AcDbEntity
  8
DIM
100
AcDbVertex
100
AcDb2dVertex
 10
314.0576467415876
 20
456.2480109833727
 30
0.0
  0
VERTEX
  5
14E29
330
14D4B
100
AcDbEntity
  8
DIM
100
AcDbVertex
100
AcDb2dVertex
 10
314.0576467415876
 20
453.6995483042487
 30
0.0
  0
VERTEX
  5
14E2A
330
14D4B
100
AcDbEntity
  8
DIM
100
AcDbVertex
100
AcDb2dVertex
 10
311.5128081411435
 20
453.6995483042487
 30
0.0
  0
VERTEX
  5
14E2B
330
14D4B
100
AcDbEntity
  8
DIM
100
AcDbVertex
100
AcDb2dVertex
 10
311.5128081411435
 20
456.2480109833727
 30
0.0
  0
SEQEND
  5
14E2C
330
14D4B
100
AcDbEntity
  8
DIM
  0
SOLID
  5
14D4C
330
1E
100
AcDbEntity
  8
DIM
100
AcDbTrace
 10
294.7724392120417
 20
468.0201178414679
 30
0.0
 11
294.7724392120417
 21
469.0620069076681
 31
0.0
 12
291.8180159530415
 22
468.5410623745679
 32
0.0
 13
291.8180159530415
 23
468.5410623745679
 33
0.0
  0
SOLID
  5
14D4D
330
1E
100
AcDbEntity
  8
DIM
100
AcDbTrace
 10
347.8635926940414
 20
460.0201178414679
 30
0.0
 11
347.8635926940414
 21
461.0620069076681
 31
0.0
 12
350.8180159530415
 22
460.5410623745681
 32
0.0
 13
350.8180159530415
 23
460.5410623745681
 33
0.0
  0
SOLID
  5
14D4E
330
1E
100
AcDbEntity
  8
DIM
100
AcDbTrace
 10
336.8635926940414
 20
468.0201178414679
 30
0.0
 11
336.8635926940414
 21
469.0620069076681
 31
0.0
 12
339.8180159530415
 22
468.5410623745679
 32
0.0
 13
339.8180159530415
 23
468.5410623745679
 33
0.0
  0
LINE
  5
14D4F
330
1E
100
AcDbEntity
  8
DIM
100
AcDbLine
 10
350.8180159530415
 20
473.3595234118667
 30
0.0
 11
350.8180159530415
 21
459.5410623745681
 31
0.0
  0
LINE
  5
14D50
330
1E
100
AcDbEntity
  8
CENTER
  6
CENTER
100
AcDbLine
 10
350.8180159530415
 20
475.5410623745681
 30
0.0
 11
350.8180159530415
 21
495.5410623745681
 31
0.0
  0
LINE
  5
14D51
330
1E
100
AcDbEntity
  8
0
100
AcDbLine
 10
415.8180159530416
 20
424.7406553690905
 30
0.0
 11
415.8180159530416
 21
392.9406553690905
 31
0.0
  0
LINE
  5
14D52
330
1E
100
AcDbEntity
  8
DIM
100
AcDbLine
 10
415.8180159530416
 20
427.6294149317159
 30
0.0
 11
415.8180159530416
 21
434.5406553690905
 31
0.0
  0
SOLID
  5
14D53
330
1E
100
AcDbEntity
  8
DIM
100
AcDbTrace
 10
412.8635926940415
 20
434.0615999021906
 30
0.0
 11
412.8635926940415
 21
433.0197108359905
 31
0.0
 12
415.8180159530416
 22
433.5406553690904
 32
0.0
 13
415.8180159530416
 23
433.5406553690904
 33
0.0
  0
ARC
  5
14D54
330
1E
100
AcDbEntity
  8
0
100
AcDbCircle
 10
315.8180159530416
 20
520.5410623745681
 30
0.0
 40
58.5
100
AcDbArc
 50
311.2241894971199
 51
318.77581050288
  0
LINE
  5
14D55
330
1E
100
AcDbEntity
  8
DIM
100
AcDbLine
 10
385.6438701975826
 20
467.3569712725822
 30
0.0
 11
369.0266698172281
 21
467.3569712725822
 31
0.0
  0
TEXT
  5
14D56
330
1E
100
AcDbEntity
  8
DIM
100
AcDbText
 10
371.3020617443658
 20
468.3569712725823
 30
0.0
 40
3.0
  1
4-%%c11
  7
ROMANS
100
AcDbText
  0
SOLID
  5
14D57
330
1E
100
AcDbEntity
  8
DIM
100
AcDbTrace
 10
357.1683442014755
 20
479.93553055448
 30
0.0
 11
356.4321147884343
 21
479.19830665522
 31
0.0
 12
354.7097272469491
 22
481.6546008470511
 32
0.0
 13
354.7097272469491
 23
481.6546008470511
 33
0.0
  0
LINE
  5
14D58
330
1E
100
AcDbEntity
  8
DIM
100
AcDbLine
 10
369.0266698172281
 20
467.3569712725822
 30
0.0
 11
354.7097272469491
 21
481.6546008470509
 31
0.0
  0
SOLID
  5
14D59
330
1E
100
AcDbEntity
  8
DIM
100
AcDbTrace
 10
356.8635926940414
 20
452.0201178414679
 30
0.0
 11
356.8635926940414
 21
453.0620069076681
 31
0.0
 12
359.8180159530416
 22
452.5410623745681
 32
0.0
 13
359.8180159530416
 23
452.5410623745681
 33
0.0
  0
LINE
  5
14D5A
330
1E
100
AcDbEntity
  8
DIM
100
AcDbLine
 10
359.8180159530416
 20
478.9735533433293
 30
0.0
 11
359.8180159530416
 21
451.5410623745681
 31
0.0
  0
CIRCLE
  5
14D5B
330
1E
100
AcDbEntity
  8
0
100
AcDbCircle
 10
350.8180159530415
 20
555.5410623745681
 30
0.0
 40
5.5
  0
LINE
  5
14D5C
330
1E
100
AcDbEntity
  8
DIM
100
AcDbLine
 10
336.4641688140745
 20
528.0410623745683
 30
0.0
 11
368.818015953042
 21
528.0410623745683
 31
0.0
  0
LINE
  5
14D5D
330
1E
100
AcDbEntity
  8
DIM
100
AcDbLine
 10
336.4641688140741
 20
513.0410623745683
 30
0.0
 11
368.8180159530416
 21
513.0410623745683
 31
0.0
  0
LINE
  5
14D5E
330
1E
100
AcDbEntity
  8
CENTER
  6
CENTER
100
AcDbLine
 10
340.8180159530416
 20
555.5410623745681
 30
0.0
 11
360.8180159530415
 21
555.5410623745681
 31
0.0
  0
LINE
  5
14D5F
330
1E
100
AcDbEntity
  8
CENTER
  6
CENTER
100
AcDbLine
 10
350.8180159530415
 20
545.5410623745681
 30
0.0
 11
350.8180159530415
 21
565.5410623745681
 31
0.0
  0
LINE
  5
14D60
330
1E
100
AcDbEntity
  8
0
100
AcDbLine
 10
299.3180159530416
 20
528.0410623745678
 30
0.0
 11
332.3180159530416
 21
528.0410623745683
 31
0.0
  0
LINE
  5
14D61
330
1E
100
AcDbEntity
  8
0
100
AcDbLine
 10
299.3180159530416
 20
513.0410623745679
 30
0.0
 11
332.3180159530416
 21
513.0410623745683
 31
0.0
  0
ARC
  5
14D62
330
1E
100
AcDbEntity
  8
0
100
AcDbCircle
 10
299.3180159530416
 20
520.5410623745678
 30
0.0
 40
7.5
100
AcDbArc
 50
90.0
 51
270.0
  0
ARC
  5
14D63
330
1E
100
AcDbEntity
  8
0
100
AcDbCircle
 10
315.8180159530416
 20
520.5410623745681
 30
0.0
 40
17.5
100
AcDbArc
 50
154.6230664748558
 51
205.3769335251441
  0
ARC
  5
14D64
330
1E
100
AcDbEntity
  8
0
100
AcDbCircle
 10
315.8180159530416
 20
520.5410623745681
 30
0.0
 40
16.5
100
AcDbArc
 50
152.9643082105811
 51
207.0356917894188
  0
ARC
  5
14D65
330
1E
100
AcDbEntity
  8
0
100
AcDbCircle
 10
332.3180159530416
 20
520.5410623745684
 30
0.0
 40
7.5
100
AcDbArc
 50
270.0
 51
90.0
  0
ARC
  5
14D66
330
1E
100
AcDbEntity
  8
0
100
AcDbCircle
 10
315.8180159530416
 20
520.5410623745681
 30
0.0
 40
17.5
100
AcDbArc
 50
334.6230664748448
 51
25.37693352514414
  0
ARC
  5
14D67
330
1E
100
AcDbEntity
  8
0
100
AcDbCircle
 10
315.8180159530416
 20
520.5410623745681
 30
0.0
 40
16.5
100
AcDbArc
 50
332.9643082105811
 51
27.03569178941884
  0
POLYLINE
  5
14D68
330
1E
100
AcDbEntity
  8
0
100
AcDb2dPolyline
 66
     1
 10
0.0
 20
0.0
 30
0.0
  0
VERTEX
  5
14E2D
330
14D68
100
AcDbEntity
  8
0
100
AcDbVertex
100
AcDb2dVertex
 10
359.8180159530416
 20
536.441062374568
 30
0.0
  0
VERTEX
  5
14E2E
330
14D68
100
AcDbEntity
  8
0
100
AcDbVertex
100
AcDb2dVertex
 10
359.8180159530416
 20
559.0929754269705
 30
0.0
  0
SEQEND
  5
14E2F
330
14D68
100
AcDbEntity
  8
0
  0
LINE
  5
14D69
330
1E
100
AcDbEntity
  8
CENTER
  6
CENTER
100
AcDbLine
 10
370.0363687895178
 20
520.5410623745681
 30
0.0
 11
419.5920408332495
 21
520.5410623745681
 31
0.0
  0
TEXT
  5
14D6A
330
1E
100
AcDbEntity
  8
DIM
100
AcDbText
 10
366.8180159530415
 20
517.5877854875591
 30
0.0
 40
3.0
  1
15
 50
90.0
  7
ROMANS
100
AcDbText
  0
SOLID
  5
14D6B
330
1E
100
AcDbEntity
  8
DIM
100
AcDbTrace
 10
368.3389604861417
 20
525.0866391155682
 30
0.0
 11
367.2970714199418
 21
525.0866391155682
 31
0.0
 12
367.818015953042
 22
528.0410623745683
 32
0.0
 13
367.818015953042
 23
528.0410623745683
 33
0.0
  0
SOLID
  5
14D6C
330
1E
100
AcDbEntity
  8
DIM
100
AcDbTrace
 10
368.3389604861417
 20
515.9954856335682
 30
0.0
 11
367.2970714199418
 21
515.9954856335682
 31
0.0
 12
367.8180159530416
 22
513.0410623745683
 32
0.0
 13
367.8180159530416
 23
513.0410623745683
 33
0.0
  0
LINE
  5
14D6D
330
1E
100
AcDbEntity
  8
DIM
100
AcDbLine
 10
367.8180159530416
 20
513.0410623745683
 30
0.0
 11
367.8180159530416
 21
528.0410623745683
 31
0.0
  0
LINE
  5
14D6E
330
1E
100
AcDbEntity
  8
0
100
AcDbLine
 10
415.8180159530416
 20
536.4410623745682
 30
0.0
 11
415.8180159530416
 21
504.641062374568
 31
0.0
  0
ARC
  5
14D6F
330
1E
100
AcDbEntity
  8
0
100
AcDbCircle
 10
315.8180159530416
 20
520.5410623745681
 30
0.0
 40
58.5
100
AcDbArc
 50
41.22418949711988
 51
48.77581050288011
  0
SOLID
  5
14D70
330
1E
100
AcDbEntity
  8
DIM
100
AcDbTrace
 10
440.3389604861417
 20
421.7862321100888
 30
0.0
 11
439.2970714199418
 21
421.7862321100888
 31
0.0
 12
439.818015953042
 22
424.7406553690889
 32
0.0
 13
439.818015953042
 23
424.7406553690889
 33
0.0
  0
SOLID
  5
14D71
330
1E
100
AcDbEntity
  8
DIM
100
AcDbTrace
 10
432.3389604861417
 20
421.7862321100904
 30
0.0
 11
431.2970714199418
 21
421.7862321100904
 31
0.0
 12
431.8180159530416
 22
424.7406553690905
 32
0.0
 13
431.8180159530416
 23
424.7406553690905
 33
0.0
  0
TEXT
  5
14D72
330
1E
100
AcDbEntity
  8
DIM
100
AcDbText
 10
430.818015953042
 20
404.1403317645301
 30
0.0
 40
3.0
  1
31.8
 50
90.0
  7
ROMANS
100
AcDbText
  0
SOLID
  5
14D73
330
1E
100
AcDbEntity
  8
DIM
100
AcDbTrace
 10
432.3389604861417
 20
395.8950786280904
 30
0.0
 11
431.2970714199418
 21
395.8950786280904
 31
0.0
 12
431.8180159530416
 22
392.9406553690905
 32
0.0
 13
431.8180159530416
 23
392.9406553690905
 33
0.0
  0
SOLID
  5
14D74
330
1E
100
AcDbEntity
  8
DIM
100
AcDbTrace
 10
424.3389604861418
 20
405.8862321100905
 30
0.0
 11
423.2970714199418
 21
405.8862321100905
 31
0.0
 12
423.8180159530416
 22
408.8406553690906
 32
0.0
 13
423.8180159530416
 23
408.8406553690906
 33
0.0
  0
SOLID
  5
14D75
330
1E
100
AcDbEntity
  8
DIM
100
AcDbTrace
 10
424.3389604861418
 20
395.8950786280891
 30
0.0
 11
423.2970714199418
 21
395.8950786280891
 31
0.0
 12
423.8180159530416
 22
392.9406553690889
 32
0.0
 13
423.8180159530416
 23
392.9406553690889
 33
0.0
  0
LINE
  5
14D76
330
1E
100
AcDbEntity
  8
0
100
AcDbLine
 10
547.7815907911413
 20
392.9406553690905
 30
0.0
 11
547.7815907911413
 21
392.6406553690903
 31
0.0
  0
LINE
  5
14D77
330
1E
100
AcDbEntity
  8
0
100
AcDbLine
 10
539.3815907911411
 20
392.9406553690905
 30
0.0
 11
539.3815907911411
 21
424.7406553690905
 31
0.0
  0
SOLID
  5
14D78
330
1E
100
AcDbEntity
  8
DIM
100
AcDbTrace
 10
426.8696791673674
 20
533.4866391155681
 30
0.0
 11
425.827790101167
 21
533.4866391155681
 31
0.0
 12
426.3487346342672
 22
536.441062374568
 32
0.0
 13
426.3487346342672
 23
536.441062374568
 33
0.0
  0
SOLID
  5
14D79
330
1E
100
AcDbEntity
  8
DIM
100
AcDbTrace
 10
426.8696791673674
 20
507.5954856335679
 30
0.0
 11
425.827790101167
 21
507.5954856335679
 31
0.0
 12
426.3487346342672
 22
504.641062374568
 32
0.0
 13
426.3487346342672
 23
504.641062374568
 33
0.0
  0
TEXT
  5
14D7A
330
1E
100
AcDbEntity
  8
DIM
100
AcDbText
 10
425.3487346342671
 20
515.0723358786615
 30
0.0
 40
3.0
  1
31.8
 50
90.0
  7
ROMANS
100
AcDbText
  0
LINE
  5
14D7B
330
1E
100
AcDbEntity
  8
DIM
100
AcDbLine
 10
426.3487346342672
 20
504.641062374568
 30
0.0
 11
426.3487346342672
 21
536.441062374568
 31
0.0
  0
LINE
  5
14D7C
330
1E
100
AcDbEntity
  8
0
100
AcDbLine
 10
572.7815907911413
 20
390.6406553690906
 30
0.0
 11
571.7815907911413
 21
392.6406553690906
 31
0.0
  0
LINE
  5
14D7D
330
1E
100
AcDbEntity
  8
0
100
AcDbLine
 10
599.2815907911412
 20
286.9406553690905
 30
0.0
 11
599.2815907911412
 21
254.9406553690903
 31
0.0
  0
LINE
  5
14D7E
330
1E
100
AcDbEntity
  8
0
  6
CONTINUOUS
100
AcDbLine
 10
593.8335038435434
 20
286.9406553690905
 30
0.0
 11
593.8335038435439
 21
254.9406553690903
 31
0.0
  0
LINE
  5
14D7F
330
1E
100
AcDbEntity
  8
CENTER
  6
CENTER
100
AcDbLine
 10
590.2815907911413
 20
250.8646785589089
 30
0.0
 11
590.2815907911413
 21
290.5221946822853
 31
0.0
  0
LINE
  5
14D80
330
1E
100
AcDbEntity
  8
HIDDEN
  6
HIDDEN
100
AcDbLine
 10
595.7815907911412
 20
253.9406553690903
 30
0.0
 11
595.7815907911412
 21
287.9406553690903
 31
0.0
  0
LINE
  5
14D81
330
1E
100
AcDbEntity
  8
HIDDEN
  6
HIDDEN
100
AcDbLine
 10
584.7815907911413
 20
253.9406553690903
 30
0.0
 11
584.7815907911413
 21
287.9406553690903
 31
0.0
  0
LINE
  5
14D82
330
1E
100
AcDbEntity
  8
0
100
AcDbLine
 10
593.8335038435434
 20
254.9406553690903
 30
0.0
 11
592.8335038435434
 21
253.9406553690903
 31
0.0
  0
LINE
  5
14D83
330
1E
100
AcDbEntity
  8
0
100
AcDbLine
 10
598.2815907911413
 20
253.9406553690903
 30
0.0
 11
599.2815907911412
 21
254.9406553690903
 31
0.0
  0
LINE
  5
14D84
330
1E
100
AcDbEntity
  8
0
100
AcDbLine
 10
595.2815907911412
 20
353.9406553690905
 30
0.0
 11
595.2815907911412
 21
287.9406553690903
 31
0.0
  0
LINE
  5
14D85
330
1E
100
AcDbEntity
  8
0
100
AcDbLine
 10
592.8335038435439
 20
287.9406553690905
 30
0.0
 11
593.8335038435439
 21
286.9406553690905
 31
0.0
  0
LINE
  5
14D86
330
1E
100
AcDbEntity
  8
0
100
AcDbLine
 10
598.2815907911413
 20
287.9406553690905
 30
0.0
 11
599.2815907911412
 21
286.9406553690905
 31
0.0
  0
LINE
  5
14D87
330
1E
100
AcDbEntity
  8
0
100
AcDbLine
 10
572.7815907911413
 20
390.6406553690903
 30
0.0
 11
572.7815907911413
 21
358.9406553690905
 31
0.0
  0
ARC
  5
14D88
330
1E
100
AcDbEntity
  8
0
100
AcDbCircle
 10
590.2815907911413
 20
353.9406553690905
 30
0.0
 40
5.0
100
AcDbArc
 50
0.0
 51
90.0
  0
LINE
  5
14D89
330
1E
100
AcDbEntity
  8
0
100
AcDbLine
 10
562.7815907911412
 20
392.9406553690905
 30
0.0
 11
562.7815907911418
 21
392.6406553690903
 31
0.0
  0
LINE
  5
14D8A
330
1E
100
AcDbEntity
  8
0
100
AcDbLine
 10
571.1815907911414
 20
392.9406553690905
 30
0.0
 11
571.1815907911414
 21
424.7406553690905
 31
0.0
  0
ENDSEC
  0
SECTION
  2
OBJECTS
  0
DICTIONARY
  5
C
330
0
100
AcDbDictionary
  3
ACAD_GROUP
350
D
  3
ACAD_LAYOUT
350
19
  3
ACAD_MLINESTYLE
350
16
  3
ACAD_PLOTSETTINGS
350
18
1001
ACAD
1000
TREAT_AS_HARD
1070
     0
  0
DICTIONARY
  5
14DFD
330
1E
100
AcDbDictionary
  3
ACAD_LAYOUTSELFREF
350
14DFE
  0
DICTIONARY
  5
14DFB
330
1A
100
AcDbDictionary
  3
ACAD_LAYOUTSELFREF
350
14DFC
  0
DICTIONARY
  5
D
102
{ACAD_REACTORS
330
C
102
}
330
C
100
AcDbDictionary
1001
ACAD
1000
TREAT_AS_HARD
1070
     0
  0
DICTIONARY
  5
19
102
{ACAD_REACTORS
330
C
102
}
330
C
100
AcDbDictionary
1001
ACAD
1000
TREAT_AS_HARD
1070
     0
  0
DICTIONARY
  5
16
102
{ACAD_REACTORS
330
C
102
}
330
C
100
AcDbDictionary
  3
STANDARD
350
17
1001
ACAD
1000
TREAT_AS_HARD
1070
     0
  0
DICTIONARY
  5
18
102
{ACAD_REACTORS
330
C
102
}
330
C
100
AcDbDictionary
1001
ACAD
1000
TREAT_AS_HARD
1070
     0
  0
XRECORD
  5
14DFE
102
{ACAD_REACTORS
330
14DFD
102
}
330
14DFD
100
AcDbXrecord
340
1E
  0
XRECORD
  5
14DFC
102
{ACAD_REACTORS
330
14DFB
102
}
330
14DFB
100
AcDbXrecord
340
1A
  0
MLINESTYLE
  5
17
102
{ACAD_REACTORS
330
16
102
}
330
16
100
AcDbMlineStyle
  2
STANDARD
 70
     0
  3

 62
   256
 51
90.0
 52
90.0
 71
     2
 49
0.5
 62
   256
  6
BYLAYER
 49
-0.5
 62
   256
  6
BYLAYER
  0
ENDSEC
  0
EOF
