  0
SECTION
  2
HEADER
  9
$ACADVER
  1
AC1009
  9
$INSBASE
 10
0.0
 20
0.0
 30
0.0
  9
$EXTMIN
 10
185.86065972067939
 20
176.27746798130389
 30
-0.000000000000013
  9
$EXTMAX
 10
635.96502897884329
 20
587.01049970813392
 30
0.0000000000000023
  9
$LIMMIN
 10
0.0
 20
0.0
  9
$LIMMAX
 10
1188.0
 20
840.0
  9
$ORTHOMODE
 70
     1
  9
$REGENMODE
 70
     1
  9
$FILLMODE
 70
     1
  9
$QTEXTMODE
 70
     0
  9
$MIRRTEXT
 70
     1
  9
$DRAGMODE
 70
     2
  9
$LTSCALE
 40
1.0
  9
$OSMODE
 70
    39
  9
$ATTMODE
 70
     1
  9
$TEXTSIZE
 40
3.0
  9
$TRACEWID
 40
0.05
  9
$TEXTSTYLE
  7
ITALICT
  9
$CLAYER
  8
0
  9
$CELTYPE
  6
CONTINUOUS
  9
$CECOLOR
 62
   256
  9
$DIMSCALE
 40
1.0
  9
$DIMASZ
 40
3.0
  9
$DIMEXO
 40
1.0
  9
$DIMDLI
 40
1.4824161510814720E+016
  9
$DIMRND
 40
0.0
  9
$DIMDLE
 40
0.0
  9
$DIMEXE
 40
1.0
  9
$DIMTP
 40
0.15
  9
$DIMTM
 40
-0.1
  9
$DIMTXT
 40
3.0
  9
$DIMCEN
 40
2.0
  9
$DIMTSZ
 40
0.0
  9
$DIMTOL
 70
     0
  9
$DIMLIM
 70
     0
  9
$DIMTIH
 70
     0
  9
$DIMTOH
 70
     0
  9
$DIMSE1
 70
     0
  9
$DIMSE2
 70
     0
  9
$DIMTAD
 70
     1
  9
$DIMZIN
 70
     0
  9
$DIMBLK
  1

  9
$DIMASO
 70
     0
  9
$DIMSHO
 70
     0
  9
$DIMPOST
  1

  9
$DIMAPOST
  1

  9
$DIMALT
 70
     0
  9
$DIMALTD
 70
     2
  9
$DIMALTF
 40
25.399999999999999
  9
$DIMLFAC
 40
1.0
  9
$DIMTOFL
 70
     1
  9
$DIMTVP
 40
1.0
  9
$DIMTIX
 70
     0
  9
$DIMSOXD
 70
     0
  9
$DIMSAH
 70
     0
  9
$DIMBLK1
  1

  9
$DIMBLK2
  1

  9
$DIMSTYLE
  2
STANDARD
  9
$DIMCLRD
 70
     0
  9
$DIMCLRE
 70
     0
  9
$DIMCLRT
 70
     0
  9
$DIMTFAC
 40
1.0
  9
$DIMGAP
 40
1.0
  9
$LUNITS
 70
     2
  9
$LUPREC
 70
     2
  9
$SKETCHINC
 40
0.1
  9
$FILLETRAD
 40
0.0
  9
$AUNITS
 70
     0
  9
$AUPREC
 70
     2
  9
$MENU
  1
ACAD
  9
$ELEVATION
 40
0.0
  9
$PELEVATION
 40
0.0
  9
$THICKNESS
 40
0.0
  9
$LIMCHECK
 70
     0
  9
$BLIPMODE
 70
     0
  9
$CHAMFERA
 40
0.0
  9
$CHAMFERB
 40
0.0
  9
$SKPOLY
 70
     1
  9
$TDCREATE
 40
2450580.7034460641
  9
$TDUPDATE
 40
2452055.6452354742
  9
$TDINDWG
 40
0.5795478472
  9
$TDUSRTIMER
 40
0.5795478472
  9
$USRTIMER
 70
     1
  9
$ANGBASE
 50
0.0
  9
$ANGDIR
 70
     0
  9
$PDMODE
 70
     0
  9
$PDSIZE
 40
0.0
  9
$PLINEWID
 40
0.0
  9
$COORDS
 70
     2
  9
$SPLFRAME
 70
     0
  9
$SPLINETYPE
 70
     6
  9
$SPLINESEGS
 70
     8
  9
$ATTDIA
 70
     0
  9
$ATTREQ
 70
     1
  9
$HANDLING
 70
 12289
  9
$HANDSEED
  5
15425
  9
$SURFTAB1
 70
     6
  9
$SURFTAB2
 70
     6
  9
$SURFTYPE
 70
     6
  9
$SURFU
 70
     6
  9
$SURFV
 70
     6
  9
$UCSNAME
  2

  9
$UCSORG
 10
0.0
 20
0.0
 30
0.0
  9
$UCSXDIR
 10
1.0
 20
0.0
 30
0.0
  9
$UCSYDIR
 10
0.0
 20
1.0
 30
0.0
  9
$PUCSNAME
  2

  9
$PUCSORG
 10
0.0
 20
0.0
 30
0.0
  9
$PUCSXDIR
 10
1.0
 20
0.0
 30
0.0
  9
$PUCSYDIR
 10
0.0
 20
1.0
 30
0.0
  9
$USERI1
 70
     0
  9
$USERI2
 70
-31485
  9
$USERI3
 70
     0
  9
$USERI4
 70
     0
  9
$USERI5
 70
     0
  9
$USERR1
 40
0.0
  9
$USERR2
 40
0.0
  9
$USERR3
 40
0.0
  9
$USERR4
 40
0.0
  9
$USERR5
 40
0.0
  9
$WORLDVIEW
 70
     1
  9
$SHADEDGE
 70
     3
  9
$SHADEDIF
 70
    70
  9
$TILEMODE
 70
     1
  9
$MAXACTVP
 70
    16
  9
$PLIMCHECK
 70
     0
  9
$PEXTMIN
 10
1.0000000000000000E+020
 20
1.0000000000000000E+020
 30
1.0000000000000000E+020
  9
$PEXTMAX
 10
-1.0000000000000000E+020
 20
-1.0000000000000000E+020
 30
-1.0000000000000000E+020
  9
$PLIMMIN
 10
0.0
 20
0.0
  9
$PLIMMAX
 10
12.0
 20
9.0
  9
$UNITMODE
 70
     0
  9
$VISRETAIN
 70
     0
  9
$PLINEGEN
 70
     0
  9
$PSLTSCALE
 70
     0
  0
ENDSEC
  0
SECTION
  2
TABLES
  0
TABLE
  2
VPORT
 70
     3
  0
VPORT
  2
*ACTIVE
 70
     0
 10
0.0
 20
0.0
 11
1.0
 21
1.0
 12
410.86798247620749
 22
381.57249006886008
 13
0.0
 23
0.0
 14
1.0
 24
1.0
 15
0.0
 25
0.0
 16
0.0
 26
0.0
 36
1.0
 17
0.0
 27
0.0
 37
0.0
 40
415.85544113483871
 41
1.7274401473296499
 42
1.0
 43
0.0
 44
0.0
 50
0.0
 51
0.0
 71
     0
 72
   100
 73
     1
 74
     1
 75
     0
 76
     0
 77
     0
 78
     0
  0
ENDTAB
  0
TABLE
  2
LTYPE
 70
     4
  0
LTYPE
  2
CONTINUOUS
 70
     0
  3
Solid line
 72
    65
 73
     0
 40
0.0
  0
LTYPE
  2
CENTER
 70
     0
  3
____________________ _ ____________________ _ 
 72
    65
 73
     4
 40
34.5
 49
30.0
 49
-1.5
 49
1.5
 49
-1.5
  0
LTYPE
  2
HIDDEN
 70
     0
  3
___ ___ ___ ___ ___ ___ ___ ___ ___ ___ 
 72
    65
 73
     2
 40
6.0
 49
4.5
 49
-1.5
  0
LTYPE
  2
PHANTOM
 70
     0
  3
__________ _ _ __________ _ _ __________ _ _ 
 72
    65
 73
     6
 40
15.0
 49
10.0
 49
-1.0
 49
1.0
 49
-1.0
 49
1.0
 49
-1.0
  0
ENDTAB
  0
TABLE
  2
LAYER
 70
     6
  0
LAYER
  2
0
 70
     0
 62
     7
  6
CONTINUOUS
  0
LAYER
  2
LOGO
 70
     0
 62
     7
  6
CONTINUOUS
  0
LAYER
  2
DIM
 70
     0
 62
     5
  6
CONTINUOUS
  0
LAYER
  2
CENTER
 70
     0
 62
     1
  6
CONTINUOUS
  0
LAYER
  2
HIDDEN
 70
     0
 62
     3
  6
CONTINUOUS
  0
LAYER
  2
UMCL3
 70
     0
 62
     1
  6
CONTINUOUS
  0
ENDTAB
  0
TABLE
  2
STYLE
 70
     7
  0
STYLE
  2
STANDARD
 70
     0
 40
0.0
 41
1.0
 50
0.0
 71
     0
 42
3.0
  3
txt
  4

  0
STYLE
  2
ITALICT
 70
     0
 40
0.0
 41
1.0
 50
0.0
 71
     0
 42
3.0
  3
ITALICT.SHX
  4

  0
STYLE
  2
ROMANSS
 70
     0
 40
0.0
 41
1.0
 50
0.0
 71
     0
 42
3.0
  3
ROMANSS.SHX
  4
LMP
  0
STYLE
  2
CHINESET
 70
     0
 40
0.0
 41
1.0
 50
0.0
 71
     0
 42
5.0
  3
simplex.shx
  4
chineset.shx
  0
STYLE
  2
LOGO
 70
     0
 40
0.0
 41
1.0
 50
0.0
 71
     0
 42
5.0
  3
txt
  4

  0
STYLE
  2
ROMANS
 70
     0
 40
0.0
 41
1.0
 50
0.0
 71
     0
 42
3.0
  3
ROMANS.SHX
  4
LMP
  0
STYLE
  2
ROMANS1
 70
     0
 40
0.0
 41
1.0
 50
0.0
 71
     0
 42
3.0
  3
ROMANS.SHX
  4

  0
ENDTAB
  0
TABLE
  2
VIEW
 70
     0
  0
ENDTAB
  0
TABLE
  2
UCS
 70
     0
  0
ENDTAB
  0
TABLE
  2
APPID
 70
     1
  0
APPID
  2
ACAD
 70
     0
  0
ENDTAB
  0
TABLE
  2
DIMSTYLE
 70
     1
  0
DIMSTYLE
  2
STANDARD
 70
     0
  3

  4

  5

  6

  7

 40
1.0
 41
0.18
 42
0.0625
 43
0.38
 44
0.18
 45
0.0
 46
0.0
 47
0.0
 48
0.0
140
0.18
141
0.09
142
0.0
143
25.399999999999999
144
1.0
145
0.0
146
1.0
147
0.09
 71
     0
 72
     0
 73
     1
 74
     1
 75
     0
 76
     0
 77
     0
 78
     0
170
     0
171
     2
172
     0
173
     0
174
     0
175
     0
176
     0
177
     0
178
     0
  0
ENDTAB
  0
ENDSEC
  0
SECTION
  2
BLOCKS
  0
BLOCK
  8
0
  2
$MODEL_SPACE
 70
     0
 10
0.0
 20
0.0
 30
0.0
  3
$MODEL_SPACE
  1

  0
ENDBLK
  5
3E
  8
0
  0
BLOCK
 67
     1
  8
0
  2
$PAPER_SPACE
 70
     0
 10
0.0
 20
0.0
 30
0.0
  3
$PAPER_SPACE
  1

  0
ENDBLK
  5
3C
 67
     1
  8
0
  0
ENDSEC
  0
SECTION
  2
ENTITIES
  0
LINE
  5
B2B
  8
0
 62
     4
 10
185.86272374947831
 20
232.92671314659441
 30
0.0
 11
185.86272374947831
 21
586.95774538779415
 31
0.0
  0
LINE
  5
B2D
  8
0
 62
     4
 10
635.92834892189944
 20
232.92671314659441
 30
0.0
 11
185.86272374947831
 21
232.92671314659441
 31
0.0
  0
LINE
  5
B2E
  8
0
 62
     4
 10
185.86272374947831
 20
586.95774538779415
 30
0.0
 11
635.92834892189956
 21
586.95774538779358
 31
0.0
  0
LINE
  5
B2F
  8
0
 62
     4
 10
635.92834892189956
 20
586.95774538779381
 30
0.0
 11
635.92834892189944
 21
232.92671314659441
 31
0.0
  0
LINE
  5
D2E
  8
LOGO
 62
     1
 10
635.92834892189944
 20
176.3249335016769
 30
0.0
 11
185.86272374947831
 21
176.3249335016769
 31
0.0
  0
LINE
  5
D2F
  8
LOGO
 62
     1
 10
635.92834892189944
 20
232.92671314659441
 30
0.0
 11
185.86272374947831
 21
232.92671314659441
 31
0.0
  0
TEXT
  5
D35
  8
LOGO
 62
     7
 10
315.01977131281541
 20
218.75491480467591
 30
0.0
 40
11.320355928983499
  1
訂購代號:
  7
CHINESET
  0
TEXT
  5
D36
  8
LOGO
 62
     7
 10
313.66579433335261
 20
208.130436645739
 30
0.0
 40
7.546903952655672
  1
Order example:
 41
0.8
  7
CHINESET
  0
TEXT
  5
D37
  8
LOGO
  6
CONTINUOUS
 62
     5
 10
190.14649593377129
 20
178.95233731999099
 30
0.0
 40
5.660177964491754
  1
MINDMAN INDUSTRIAL CO.,LTD
 41
0.85
  7
CHINESET
  0
TEXT
  5
D38
  8
LOGO
  6
CONTINUOUS
 62
     5
 10
187.7153955643023
 20
187.44426769338759
 30
0.0
 40
8.4902669467376342
  1
金器工業股份有限公司
 41
0.8
  7
LOGO
  0
SOLID
  5
D39
  8
LOGO
 62
     2
 10
206.8410742179997
 20
208.37488556272061
 30
0.0
 11
207.85375522301149
 21
208.37488556272061
 31
0.0
 12
219.49958678063609
 22
231.5821585942218
 32
0.0
 13
220.51226778564791
 23
231.5821585942202
 33
0.0
  0
SOLID
  5
D3A
  8
LOGO
 62
     5
 10
207.85375522301149
 20
208.37488556272061
 30
0.0
 11
210.30106765178729
 21
208.37488556272061
 31
0.0
 12
219.49958678063609
 22
229.72557675170091
 32
0.0
 13
217.05227435185981
 23
220.75209784618681
 33
0.0
  0
SOLID
  5
D3B
  8
LOGO
 62
     5
 10
207.85375522301149
 20
210.2314674052399
 30
0.0
 11
210.30106765178729
 21
219.204946310754
 31
0.0
 12
219.49958678063609
 22
231.5821585942218
 32
0.0
 13
217.05227435185981
 23
231.5821585942218
 33
0.0
  0
LINE
  5
D3C
  8
LOGO
 62
     1
 10
310.38663896829701
 20
198.9656453596439
 30
0.0
 11
185.86272374947819
 21
198.9656453596439
 31
0.0
  0
SOLID
  5
D3D
  8
LOGO
 62
     2
 10
206.8410742179997
 20
231.5821585942202
 30
0.0
 11
207.85375522301149
 21
231.5821585942202
 31
0.0
 12
206.8410742179997
 22
208.37488556272061
 32
0.0
 13
207.85375522301149
 23
208.37488556272061
 33
0.0
  0
SOLID
  5
D3E
  8
LOGO
 62
     2
 10
194.18256165536249
 20
208.37488556271981
 30
0.0
 11
195.1952426603749
 21
208.37488556272061
 31
0.0
 12
206.8410742179997
 22
231.5821585942202
 32
0.0
 13
207.85375522301149
 23
231.5821585942202
 33
0.0
  0
SOLID
  5
D3F
  8
LOGO
 62
     5
 10
207.85375522301149
 20
231.5821585942202
 30
0.0
 11
210.30106765178729
 21
231.5821585942218
 31
0.0
 12
207.85375522301149
 22
210.2314674052399
 32
0.0
 13
210.30106765178729
 23
219.204946310754
 33
0.0
  0
SOLID
  5
D40
  8
LOGO
 62
     5
 10
204.39376178922359
 20
208.37488556272061
 30
0.0
 11
206.8410742179997
 21
208.37488556272061
 31
0.0
 12
204.39376178922359
 22
220.75209784618681
 32
0.0
 13
206.8410742179997
 23
229.72557675170091
 33
0.0
  0
SOLID
  5
D41
  8
LOGO
 62
     5
 10
195.1952426603749
 20
208.37488556272061
 30
0.0
 11
197.64255508915099
 21
208.37488556272061
 31
0.0
 12
206.8410742179997
 22
229.72557675170091
 32
0.0
 13
204.39376178922359
 23
220.75209784618681
 33
0.0
  0
SOLID
  5
D42
  8
LOGO
 62
     5
 10
191.73524922658609
 20
208.37488556272061
 30
0.0
 11
194.18256165536249
 21
208.37488556271981
 31
0.0
 12
204.39376178922359
 22
231.5821585942218
 32
0.0
 13
206.8410742179997
 23
231.5821585942202
 33
0.0
  0
LINE
  5
D43
  8
LOGO
 62
     1
 10
185.86272374947831
 20
176.3249335016769
 30
0.0
 11
185.86272374947831
 21
232.92671314659441
 31
0.0
  0
SOLID
  5
D44
  8
LOGO
 62
     5
 10
196.09526290357729
 20
204.1553813751749
 30
0.0
 11
196.93916374108801
 21
204.1553813751749
 31
0.0
 12
196.09526290357729
 22
199.93587718762831
 32
0.0
 13
196.93916374108801
 23
199.93587718762981
 33
0.0
  0
SOLID
  5
D45
  8
LOGO
 62
     5
 10
196.09526290357729
 20
204.74611196143081
 30
0.0
 11
196.93916374108801
 21
204.74611196143081
 31
0.0
 12
196.09526290357729
 22
205.42123263143901
 32
0.0
 13
196.93916374108801
 23
205.42123263143901
 33
0.0
  0
SOLID
  5
D46
  8
LOGO
 62
     5
 10
194.25238980859049
 20
204.1553813751749
 30
0.0
 11
195.09629064609871
 21
204.1553813751749
 31
0.0
 12
194.25238980859049
 22
199.93587718762981
 32
0.0
 13
195.09629064609871
 23
199.93587718762981
 33
0.0
  0
SOLID
  5
D47
  8
LOGO
 62
     5
 10
191.0319985286624
 20
199.93587718762981
 30
0.0
 11
191.8758993661709
 21
199.93587718762981
 31
0.0
 12
194.25238980859049
 22
204.1553813751749
 32
0.0
 13
195.09629064609871
 23
204.1553813751749
 33
0.0
  0
SOLID
  5
D48
  8
LOGO
 62
     5
 10
191.0319985286624
 20
204.1553813751749
 30
0.0
 11
191.8758993661709
 21
204.1553813751749
 31
0.0
 12
191.0319985286624
 22
199.93587718762981
 32
0.0
 13
191.8758993661709
 23
199.93587718762981
 33
0.0
  0
SOLID
  5
D49
  8
LOGO
 62
     5
 10
187.8116072487355
 20
199.93587718762981
 30
0.0
 11
188.65550808624531
 21
199.93587718762981
 31
0.0
 12
191.0319985286624
 22
204.1553813751749
 32
0.0
 13
191.8758993661709
 23
204.1553813751749
 33
0.0
  0
SOLID
  5
D4A
  8
LOGO
 62
     5
 10
212.5514136250892
 20
202.46757970015651
 30
0.0
 11
213.39531446259741
 21
202.46757970015651
 31
0.0
 12
212.5514136250892
 22
199.93587718762831
 32
0.0
 13
213.39531446259741
 23
199.93587718762831
 33
0.0
  0
SOLID
  5
D4B
  8
LOGO
 62
     5
 10
210.01971111256231
 20
202.46757970015651
 30
0.0
 11
210.8636119500708
 21
202.46757970015651
 31
0.0
 12
210.01971111256231
 22
199.93587718762981
 32
0.0
 13
210.8636119500708
 23
199.93587718762981
 33
0.0
  0
SOLID
  5
D4C
  8
LOGO
 62
     5
 10
207.4880086000357
 20
204.1553813751749
 30
0.0
 11
208.33190943754411
 21
204.1553813751749
 31
0.0
 12
207.4880086000357
 22
199.93587718762981
 32
0.0
 13
208.33190943754411
 23
199.93587718762981
 33
0.0
  0
SOLID
  5
D4D
  8
LOGO
 62
     5
 10
205.65952865540399
 20
205.42123263143901
 30
0.0
 11
206.50342949291229
 21
205.42123263143901
 31
0.0
 12
205.65952865540399
 22
199.93587718762981
 32
0.0
 13
206.50342949291229
 23
199.93587718762981
 33
0.0
  0
POLYLINE
  5
D4E
  8
LOGO
 62
     5
 66
     1
 10
0.0
 20
0.0
 30
0.0
 70
     1
 40
0.8452532426974354
 41
0.8452532426974354
  0
VERTEX
  5
153F4
  8
LOGO
 62
     5
 10
202.70325530382809
 20
202.045629281402
 30
0.0
 42
1.0
  0
VERTEX
  5
153F5
  8
LOGO
 62
     5
 10
206.0842682746179
 20
202.045629281402
 30
0.0
 42
1.0
  0
SEQEND
  5
153F6
  8
LOGO
 62
     5
  0
SOLID
  5
D4F
  8
LOGO
 62
     5
 10
200.45544536073569
 20
202.46757970015651
 30
0.0
 11
201.2993461982457
 21
202.46757970015651
 31
0.0
 12
200.45544536073569
 22
199.93587718762981
 32
0.0
 13
201.2993461982457
 23
199.93587718762981
 33
0.0
  0
SOLID
  5
D50
  8
LOGO
 62
     5
 10
197.923742848209
 20
204.1553813751749
 30
0.0
 11
198.7676436857175
 21
204.1553813751749
 31
0.0
 12
197.923742848209
 22
199.93587718762981
 32
0.0
 13
198.7676436857175
 23
199.93587718762981
 33
0.0
  0
POLYLINE
  5
D51
  8
LOGO
 62
     5
 66
     1
 10
0.0
 20
0.0
 30
0.0
 40
0.8452532426974354
 41
0.8452532426974354
  0
VERTEX
  5
153F7
  8
LOGO
 62
     5
 10
200.87942438727299
 20
202.46757970015639
 30
0.0
 42
1.0
  0
VERTEX
  5
153F8
  8
LOGO
 62
     5
 10
198.3436646591806
 20
202.46757970015639
 30
0.0
 42
1.0
  0
SEQEND
  5
153F9
  8
LOGO
 62
     5
  0
POLYLINE
  5
D52
  8
LOGO
 62
     5
 66
     1
 10
0.0
 20
0.0
 30
0.0
 40
0.8452532426974354
 41
0.8452532426974354
  0
VERTEX
  5
153FA
  8
LOGO
 62
     5
 10
212.97539265162609
 20
202.46757970015639
 30
0.0
 42
1.0
  0
VERTEX
  5
153FB
  8
LOGO
 62
     5
 10
210.43963292353371
 20
202.46757970015639
 30
0.0
 42
1.0
  0
SEQEND
  5
153FC
  8
LOGO
 62
     5
  0
POLYLINE
  5
D53
  8
LOGO
 62
     5
 66
     1
 10
0.0
 20
0.0
 30
0.0
 40
0.8452532426974354
 41
0.8452532426974354
  0
VERTEX
  5
153FD
  8
LOGO
 62
     5
 10
210.44369013909929
 20
202.46757970015639
 30
0.0
 42
1.0
  0
VERTEX
  5
153FE
  8
LOGO
 62
     5
 10
207.9079304110069
 20
202.46757970015639
 30
0.0
 42
1.0
  0
SEQEND
  5
153FF
  8
LOGO
 62
     5
  0
CIRCLE
  5
D54
  8
LOGO
  6
CONTINUOUS
 62
     6
 10
283.13264667014357
 20
215.95828641520529
 30
0.0
 40
1.9255585439152201
  0
CIRCLE
  5
D55
  8
LOGO
  6
CONTINUOUS
 62
     6
 10
283.13264667014357
 20
215.95828641520529
 30
0.0
 40
3.2864325517551518
  0
LINE
  5
D56
  8
LOGO
 62
     1
 10
310.38663896829701
 20
210.2860012886274
 30
0.0
 11
227.37069548908451
 21
210.2860012886274
 31
0.0
  0
LINE
  5
D57
  8
LOGO
 62
     1
 10
310.38663896829701
 20
221.60635721761091
 30
0.0
 11
227.37069548908451
 21
221.60635721761091
 31
0.0
  0
TEXT
  5
D58
  8
LOGO
 62
     6
 10
281.14331944002163
 20
224.4364461998567
 30
0.0
 40
5.660177964491754
  1
1 : 1
  7
CHINESET
 72
     1
 11
291.116013948888
 21
227.26653518210259
 31
0.0
 73
     2
  0
TEXT
  5
D59
  8
LOGO
 62
     6
 10
281.14331944002163
 20
201.7957343418897
 30
0.0
 40
5.660177964491754
  1
m/m
  7
CHINESET
 72
     1
 11
291.116013948888
 21
204.62582332413561
 31
0.0
 73
     2
  0
SOLID
  5
D5A
  8
LOGO
 62
     2
 10
219.49958678063609
 20
231.5821585942218
 30
0.0
 11
220.51226778564791
 21
231.5821585942202
 31
0.0
 12
219.49958678063609
 22
208.37488556271981
 32
0.0
 13
220.51226778564791
 23
208.37488556271981
 33
0.0
  0
SOLID
  5
D5B
  8
LOGO
 62
     5
 10
220.51226778564791
 20
208.37488556271981
 30
0.0
 11
222.95958021442411
 21
208.37488556271981
 31
0.0
 12
220.51226778564791
 22
231.5821585942202
 32
0.0
 13
222.95958021442411
 23
231.5821585942218
 33
0.0
  0
SOLID
  5
D5C
  8
LOGO
 62
     5
 10
219.49958678063609
 20
229.72557675170091
 30
0.0
 11
217.05227435185981
 21
220.75209784618681
 31
0.0
 12
219.49958678063609
 22
208.37488556271981
 32
0.0
 13
217.05227435185981
 23
208.37488556271981
 33
0.0
  0
LINE
  5
D5D
  8
LOGO
 62
     1
 10
227.37069548908451
 20
198.96564535964379
 30
0.0
 11
227.37069548908451
 21
232.92671314659441
 31
0.0
  0
LINE
  5
D5E
  8
LOGO
 62
     1
 10
272.65211920501838
 20
198.96564535964379
 30
0.0
 11
272.65211920501838
 21
232.92671314659441
 31
0.0
  0
TEXT
  5
D5F
  8
LOGO
 62
     6
 10
234.5697343376726
 20
201.7957343418897
 30
0.0
 40
5.660177964491754
  1
單位 Unit:
 41
0.9
  7
CHINESET
 72
     4
 11
250.01140734705169
 21
204.62582332413561
 31
0.0
  0
SOLID
  5
D60
  8
LOGO
 62
     5
 10
222.11567937691569
 20
202.46757970015651
 30
0.0
 11
222.95958021442411
 21
202.46757970015639
 31
0.0
 12
222.11567937691569
 22
199.93587718762981
 32
0.0
 13
222.95958021442411
 23
199.93587718762981
 33
0.0
  0
SOLID
  5
D61
  8
LOGO
 62
     5
 10
219.58397686438749
 20
199.93587718762981
 30
0.0
 11
220.42787770189719
 21
199.93587718762981
 31
0.0
 12
219.58397686438749
 22
204.1553813751749
 32
0.0
 13
220.42787770189719
 23
204.1553813751749
 33
0.0
  0
SOLID
  5
D62
  8
LOGO
 62
     5
 10
217.75549691975809
 20
204.1553813751749
 30
0.0
 11
218.5993977572665
 21
204.1553813751749
 31
0.0
 12
217.75549691975809
 22
199.93587718762981
 32
0.0
 13
218.5993977572665
 23
199.93587718762981
 33
0.0
  0
LINE
  5
D63
  8
LOGO
 62
     5
 10
222.95958021442411
 20
199.93587718762981
 30
0.0
 11
222.95958021442411
 21
202.46757970015651
 31
0.0
  0
POLYLINE
  5
D64
  8
LOGO
 62
     5
 66
     1
 10
0.0
 20
0.0
 30
0.0
 70
     1
 40
0.8452532426974354
 41
0.8452532426974354
  0
VERTEX
  5
15400
  8
LOGO
 62
     5
 10
214.7992235681813
 20
202.045629281402
 30
0.0
 42
1.0
  0
VERTEX
  5
15401
  8
LOGO
 62
     5
 10
218.180236538971
 20
202.045629281402
 30
0.0
 42
1.0
  0
SEQEND
  5
15402
  8
LOGO
 62
     5
  0
CIRCLE
  5
D65
  8
LOGO
 62
     5
 10
216.48973005357661
 20
202.04562928140231
 30
0.0
 40
1.265851256263679
  0
POLYLINE
  5
D66
  8
LOGO
 62
     5
 66
     1
 10
0.0
 20
0.0
 30
0.0
 70
     1
  0
VERTEX
  5
15403
  8
LOGO
 62
     5
 10
215.22387879731281
 20
202.04562928140231
 30
0.0
 42
1.0000000573306349
  0
VERTEX
  5
15404
  8
LOGO
 62
     5
 10
217.75558130984049
 20
202.04562928140231
 30
0.0
 42
1.0000000573306349
  0
SEQEND
  5
15405
  8
LOGO
 62
     5
  0
POLYLINE
  5
D67
  8
LOGO
 62
     5
 66
     1
 10
0.0
 20
0.0
 30
0.0
 40
0.8452532426974354
 41
0.8452532426974354
  0
VERTEX
  5
15406
  8
LOGO
 62
     5
 10
222.53965840345259
 20
202.46757970015639
 30
0.0
 42
1.0
  0
VERTEX
  5
15407
  8
LOGO
 62
     5
 10
220.00389867536029
 20
202.46757970015639
 30
0.0
 42
1.0
  0
SEQEND
  5
15408
  8
LOGO
 62
     5
  0
TEXT
  5
D68
  8
LOGO
 62
     6
 10
234.01635086703709
 20
213.19570973617101
 30
0.0
 40
5.660177964491754
  1
投影 View:
 41
0.9
  7
CHINESET
 72
     4
 11
250.01140734705169
 21
215.94617925311911
 31
0.0
  0
TEXT
  5
D69
  8
LOGO
 62
     6
 10
232.03781544462771
 20
224.43923172050859
 30
0.0
 40
5.660177964491754
  1
比例 Scale:
 41
0.9
  7
CHINESET
 72
     4
 11
250.01140734705169
 21
227.26653518210259
 31
0.0
  0
LINE
  5
D6A
  8
LOGO
 62
     1
 10
310.38663896829701
 20
176.3249335016769
 30
0.0
 11
310.38663896829701
 21
232.92671314659441
 31
0.0
  0
LINE
  5
D6B
  8
LOGO
  6
CONTINUOUS
 62
     6
 10
293.48219276735779
 20
214.03272787129009
 30
0.0
 11
303.78497016688061
 21
212.67185386345031
 31
0.0
  0
LINE
  5
D6C
  8
LOGO
  6
CONTINUOUS
 62
     6
 10
293.48219276735779
 20
217.88384495912061
 30
0.0
 11
303.78497016688061
 21
219.24471896696051
 31
0.0
  0
LINE
  5
D6D
  8
LOGO
 62
     6
 10
293.48219276735779
 20
214.03272787129009
 30
0.0
 11
293.48219276735779
 21
217.88384495912061
 31
0.0
  0
LINE
  5
D6E
  8
LOGO
 62
     6
 10
303.78497016688061
 20
212.67185386345031
 30
0.0
 11
303.78497016688061
 21
219.24471896696051
 31
0.0
  0
LINE
  5
D6F
  8
LOGO
 62
     6
 10
427.15214864533198
 20
181.04174847208671
 30
0.0
 11
389.41762888205352
 21
181.0417484720866
 31
0.0
  0
LINE
  5
D70
  8
LOGO
 62
     6
 10
427.15214864533198
 20
201.79573434188981
 30
0.0
 11
389.41762888205352
 21
201.79573434188981
 31
0.0
  0
LINE
  5
D71
  8
LOGO
 62
     6
 10
430.92560062165978
 20
210.2860012886274
 30
0.0
 11
385.64417690572571
 21
210.2860012886274
 31
0.0
  0
LINE
  5
D72
  8
LOGO
 62
     6
 10
430.92560062165978
 20
227.26653518210259
 30
0.0
 11
385.64417690572571
 21
227.26653518210259
 31
0.0
  0
TEXT
  5
D73
  8
LOGO
  6
CONTINUOUS
 62
     7
 10
390.76529030217051
 20
214.05945326495529
 30
0.0
 40
9.4336299408195892
  1
MTHD
  7
CHINESET
 72
     1
 11
408.28488876369261
 21
218.776268235365
 31
0.0
 73
     2
  0
LINE
  5
D74
  8
LOGO
 62
     6
 10
385.64417690572571
 20
227.26653518210259
 30
0.0
 11
385.64417690572571
 21
210.2860012886274
 31
0.0
  0
LINE
  5
D75
  8
LOGO
 62
     6
 10
389.41762888205352
 20
201.79573434188981
 30
0.0
 11
389.41762888205352
 21
181.0417484720866
 31
0.0
  0
TEXT
  5
D76
  8
LOGO
  6
CONTINUOUS
 62
     6
 10
399.30047929624538
 20
183.40015595729159
 30
0.0
 40
4.7168149704097937
  1
Model
  7
CHINESET
 72
     4
 11
408.28488876369261
 21
185.7585634424965
 31
0.0
  0
TEXT
  5
D77
  8
LOGO
 62
     6
 10
400.73798481103688
 20
191.61187083884749
 30
0.0
 40
7.546903952655672
  1
型式
  7
CHINESET
 72
     4
 11
408.28488876369261
 21
195.19219338331601
 31
0.0
  0
LINE
  5
D78
  8
LOGO
 62
     6
 10
408.28488876369261
 20
210.2860012886274
 30
0.0
 11
408.28488876369261
 21
201.79573434188981
 31
0.0
  0
LINE
  5
D79
  8
LOGO
 62
     6
 10
430.9256006216599
 20
227.26653518210259
 30
0.0
 11
430.9256006216599
 21
210.2860012886274
 31
0.0
  0
LINE
  5
D7A
  8
LOGO
 62
     6
 10
427.15214864533198
 20
201.79573434188981
 30
0.0
 11
427.15214864533198
 21
181.04174847208671
 31
0.0
  0
LINE
  5
D7B
  8
LOGO
  6
CONTINUOUS
 62
     7
 10
433.85109141964767
 20
218.71612050075569
 30
0.0
 11
441.34907559485617
 21
218.71612050075569
 31
0.0
  0
LINE
  5
D82
  8
LOGO
 62
     6
 10
474.57774468566993
 20
227.26653518210281
 30
0.0
 11
474.57774468566993
 21
210.2860012886274
 31
0.0
  0
LINE
  5
D83
  8
LOGO
 62
     6
 10
444.28559667607891
 20
227.26653518210259
 30
0.0
 11
444.28559667607891
 21
210.2860012886274
 31
0.0
  0
LINE
  5
D85
  8
LOGO
 62
     6
 10
474.57774468566993
 20
181.04174847208671
 30
0.0
 11
444.28559667607891
 21
181.0417484720866
 31
0.0
  0
LINE
  5
D86
  8
LOGO
 62
     6
 10
474.57774468566993
 20
210.2860012886274
 30
0.0
 11
444.28559667607891
 21
210.2860012886274
 31
0.0
  0
LINE
  5
D87
  8
LOGO
 62
     6
 10
474.57774468566993
 20
201.79573434188981
 30
0.0
 11
444.28559667607891
 21
201.79573434188981
 31
0.0
  0
LINE
  5
D88
  8
LOGO
 62
     6
 10
444.28559667607891
 20
201.79573434188981
 30
0.0
 11
444.28559667607891
 21
181.04174847208671
 31
0.0
  0
TEXT
  5
D89
  8
LOGO
  6
CONTINUOUS
 62
     6
 10
453.59180452703379
 20
183.40015595729159
 30
0.0
 40
4.7168149704097937
  1
Bore
 41
0.8
  7
CHINESET
 72
     4
 11
459.43167068087439
 21
185.7585634424965
 31
0.0
  0
TEXT
  5
D8A
  8
LOGO
 62
     6
 10
452.21494377614738
 20
191.41874140698809
 30
0.0
 40
7.546903952655672
  1
內徑
 41
0.9
  7
CHINESET
 72
     4
 11
459.43167068087439
 21
195.19219338331601
 31
0.0
  0
LINE
  5
D8B
  8
LOGO
 62
     6
 10
459.43167024582482
 20
210.2860012886274
 30
0.0
 11
459.43167024582482
 21
201.79573434188981
 31
0.0
  0
LINE
  5
D8C
  8
LOGO
 62
     6
 10
474.57774468566993
 20
201.79573434188981
 30
0.0
 11
474.57774468566993
 21
181.04174847208671
 31
0.0
  0
LINE
  5
D8E
  8
LOGO
 62
     6
 10
474.57774468566993
 20
227.26653518210281
 30
0.0
 11
444.28559667607891
 21
227.26653518210259
 31
0.0
  0
TEXT
  5
D8F
  8
LOGO
  6
CONTINUOUS
 62
     7
 10
452.67539500434691
 20
213.95247530698711
 30
0.0
 40
9.4336299408195892
  1
32
  7
CHINESET
 72
     1
 11
460.31214305167703
 21
218.6692902773969
 31
0.0
 73
     2
  0
LINE
  5
D9E
  8
LOGO
 62
     1
 10
635.92834892189944
 20
176.3249335016769
 30
0.0
 11
635.92834892189944
 21
232.92671314659441
 31
0.0
  0
LINE
  5
DAD
  8
LOGO
 62
     6
 10
487.93774074008888
 20
227.26653518210281
 30
0.0
 11
487.93774074008888
 21
210.28600128862749
 31
0.0
  0
LINE
  5
DAE
  8
LOGO
 62
     6
 10
546.35322282718175
 20
227.2665351821029
 30
0.0
 11
546.35322282718175
 21
210.28600128862749
 31
0.0
  0
TEXT
  5
DAF
  8
LOGO
 62
     6
 10
503.84406356707939
 20
191.64684459814259
 30
0.0
 40
7.546903952655672
  1
旋轉方向
 41
0.9
  7
CHINESET
 72
     4
 11
517.14548178363509
 21
195.19219338331609
 31
0.0
  0
TEXT
  5
DB0
  8
LOGO
  6
CONTINUOUS
 62
     6
 10
491.98913527478283
 20
184.18629178569319
 30
0.0
 40
4.7168149704097937
  1
Rotating direction
 41
0.8
  7
CHINESET
 72
     4
 11
517.14548178363509
 21
185.7585634424965
 31
0.0
  0
LINE
  5
DB1
  8
LOGO
 62
     6
 10
546.35322282718175
 20
201.7957343418899
 30
0.0
 11
487.93774074008888
 21
201.7957343418899
 31
0.0
  0
LINE
  5
DB2
  8
LOGO
 62
     6
 10
546.35322282718175
 20
210.28600128862749
 30
0.0
 11
487.93774074008888
 21
210.28600128862749
 31
0.0
  0
LINE
  5
DB3
  8
LOGO
 62
     6
 10
546.35322282718175
 20
181.04174847208679
 30
0.0
 11
487.93774074008888
 21
181.04174847208671
 31
0.0
  0
LINE
  5
DB4
  8
LOGO
 62
     6
 10
487.93774074008888
 20
201.7957343418899
 30
0.0
 11
487.93774074008888
 21
181.04174847208679
 31
0.0
  0
LINE
  5
DB5
  8
LOGO
 62
     6
 10
517.14548178363543
 20
210.28600128862749
 30
0.0
 11
517.14548178363543
 21
201.7957343418899
 31
0.0
  0
LINE
  5
DB6
  8
LOGO
 62
     6
 10
546.35322282718175
 20
201.7957343418899
 30
0.0
 11
546.35322282718175
 21
181.04174847208679
 31
0.0
  0
LINE
  5
DB7
  8
LOGO
 62
     6
 10
546.35322282718175
 20
227.2665351821029
 30
0.0
 11
487.93774074008888
 21
227.26653518210281
 31
0.0
  0
LINE
  5
DB8
  8
LOGO
  6
CONTINUOUS
 62
     7
 10
477.50323548365799
 20
218.71612050075581
 30
0.0
 11
485.00121965886621
 21
218.71612050075581
 31
0.0
  0
TEXT
  5
DCEA
  8
UMCL3
  6
CONTINUOUS
 62
     2
 10
766.23679790982271
 20
285.02499111941353
 30
0.0
 40
2.5
  1

 41
0.8
  7
ROMANS1
 72
     1
 11
766.23679790982271
 21
286.27499111941353
 31
0.0
 73
     2
  0
TEXT
  5
DCED
  8
UMCL3
  6
CONTINUOUS
 62
     2
 10
741.15575056207274
 20
285.02499111941353
 30
0.0
 40
2.5
  1

 41
0.8
  7
ROMANS1
 72
     1
 11
741.15575056207274
 21
286.27499111941353
 31
0.0
 73
     2
  0
TEXT
  5
DCF2
  8
UMCL3
  6
CONTINUOUS
 62
     2
 10
719.57470321432265
 20
285.02499111941353
 30
0.0
 40
2.5
  1

 41
0.8
  7
ROMANS1
 72
     1
 11
719.57470321432265
 21
286.27499111941353
 31
0.0
 73
     2
  0
TEXT
  5
DD0D
  8
UMCL3
 62
     2
 10
716.36931152386535
 20
289.1485161689501
 30
0.0
 40
3.2999999999999998
  1

 41
0.9
  7
ROMANS
  0
TEXT
  5
DD17
  8
UMCL3
 62
     2
 10
734.45035887161544
 20
289.1485161689501
 30
0.0
 40
3.2999999999999998
  1

 41
0.9
  7
ROMANS
  0
TEXT
  5
DD1A
  8
UMCL3
 62
     2
 10
759.53140621936552
 20
289.1485161689501
 30
0.0
 40
3.2999999999999998
  1

 41
0.9
  7
ROMANS
  0
TEXT
  5
14B64
  8
UMCL3
  6
CONTINUOUS
 62
     2
 10
426.05478391879888
 20
150.3638432988582
 30
0.0
 40
2.5
  1

 41
0.8
  7
ROMANS1
 72
     1
 11
426.05478391879888
 21
151.6138432988582
 31
0.0
 73
     2
  0
TEXT
  5
14B68
  8
UMCL3
 62
     2
 10
388.4510203905802
 20
154.33843610509459
 30
0.0
 40
3.2999999999999998
  1

 41
0.9
  7
ROMANS
  0
TEXT
  5
14B6A
  8
UMCL3
  6
CONTINUOUS
 62
     2
 10
394.72373657104862
 20
150.3638432988582
 30
0.0
 40
2.5
  1

 41
0.8
  7
ROMANS1
 72
     1
 11
394.72373657104862
 21
151.6138432988582
 31
0.0
 73
     2
  0
TEXT
  5
14B77
  8
UMCL3
 62
     2
 10
419.7820677383304
 20
154.33843610509459
 30
0.0
 40
3.2999999999999998
  1

 41
0.9
  7
ROMANS
  0
LINE
  5
14B7C
  8
LOGO
 62
     6
 10
618.12870096869358
 20
227.2665351821029
 30
0.0
 11
618.12870096869358
 21
210.2860012886276
 31
0.0
  0
LINE
  5
14B7D
  8
LOGO
 62
     6
 10
559.71321888160082
 20
227.2665351821029
 30
0.0
 11
559.71321888160082
 21
210.2860012886276
 31
0.0
  0
TEXT
  5
14B7E
  8
LOGO
  6
CONTINUOUS
 62
     6
 10
568.34666224469265
 20
184.18629178569319
 30
0.0
 40
4.7168149704097937
  1
Rotating angle
 41
0.8
  7
CHINESET
 72
     4
 11
588.92095992514692
 21
185.7585634424965
 31
0.0
  0
TEXT
  5
14B7F
  8
LOGO
 62
     6
 10
575.40728503492289
 20
191.65427265321409
 30
0.0
 40
7.546903952655672
  1
旋轉角度
 41
0.9
  7
CHINESET
 72
     4
 11
588.92095992514692
 21
195.19219338331621
 31
0.0
  0
LINE
  5
14B80
  8
LOGO
 62
     6
 10
618.12870096869358
 20
210.2860012886276
 30
0.0
 11
559.71321888160082
 21
210.2860012886276
 31
0.0
  0
LINE
  5
14B81
  8
LOGO
 62
     6
 10
618.12870096869358
 20
201.7957343418899
 30
0.0
 11
559.71321888160082
 21
201.7957343418899
 31
0.0
  0
LINE
  5
14B82
  8
LOGO
 62
     6
 10
618.12870096869358
 20
181.04174847208691
 30
0.0
 11
559.71321888160082
 21
181.04174847208679
 31
0.0
  0
LINE
  5
14B83
  8
LOGO
 62
     6
 10
559.71321888160082
 20
201.7957343418899
 30
0.0
 11
559.71321888160082
 21
181.04174847208691
 31
0.0
  0
LINE
  5
14B84
  8
LOGO
 62
     6
 10
588.92095992514726
 20
210.2860012886276
 30
0.0
 11
588.92095992514726
 21
201.7957343418899
 31
0.0
  0
LINE
  5
14B85
  8
LOGO
 62
     6
 10
618.12870096869358
 20
201.7957343418899
 30
0.0
 11
618.12870096869358
 21
181.04174847208691
 31
0.0
  0
LINE
  5
14B86
  8
LOGO
 62
     6
 10
618.12870096869358
 20
227.2665351821029
 30
0.0
 11
559.71321888160082
 21
227.2665351821029
 31
0.0
  0
LINE
  5
14B87
  8
LOGO
  6
CONTINUOUS
 62
     7
 10
549.27871362516976
 20
218.71612050075581
 30
0.0
 11
556.77669780037797
 21
218.71612050075581
 31
0.0
  0
LINE
  5
15281
  8
0
 10
556.53604373220378
 20
376.64157548049383
 30
0.0
 11
514.53604373220355
 21
376.64157548049411
 31
0.0
  0
LINE
  5
15282
  8
0
 62
     4
 10
560.53604373220378
 20
372.64157548049383
 30
0.0
 11
510.53604373220378
 21
372.64157548049383
 31
0.0
  0
LINE
  5
15283
  8
0
 10
508.33604373220351
 20
291.64157548049383
 30
0.0
 11
562.73604373220348
 21
291.641575480494
 31
0.0
  0
LINE
  5
15284
  8
0
 10
508.33604373220351
 20
321.64157548049388
 30
0.0
 11
562.73604373220348
 21
321.64157548049388
 31
0.0
  0
LINE
  5
15285
  8
0
 10
507.53604373220378
 20
320.84157548049387
 30
0.0
 11
563.53604373220367
 21
320.84157548049387
 31
0.0
  0
LINE
  5
15286
  8
0
 10
507.53604373220378
 20
292.44157548049401
 30
0.0
 11
563.53604373220367
 21
292.44157548049401
 31
0.0
  0
LINE
  5
15287
  8
CENTER
  6
CENTER
 10
515.53604373220378
 20
310.64157548049383
 30
0.0
 11
535.53604373220378
 21
310.64157548049383
 31
0.0
  0
LINE
  5
15288
  8
0
 10
414.40815202379139
 20
428.8415754804941
 30
0.0
 11
414.40815202379139
 21
406.64157548049383
 31
0.0
  0
CIRCLE
  5
15289
  8
0
  6
CONTINUOUS
 10
334.40815202379139
 20
417.74157548049402
 30
0.0
 40
4.0
  0
LINE
  5
1528A
  8
0
 10
254.40815202379139
 20
428.8415754804941
 30
0.0
 11
254.40815202379139
 21
406.64157548049383
 31
0.0
  0
TEXT
  5
1528B
  8
DIM
 10
430.20815202379163
 20
412.97491908707968
 30
0.0
 40
3.0
  1
22.2
 50
90.0
  7
ROMANS
  0
LINE
  5
1528C
  8
DIM
 10
431.20815202379163
 20
291.64157548049383
 30
0.0
 11
431.20815202379163
 21
428.84157548049387
 31
0.0
  0
LINE
  5
1528D
  8
DIM
 10
439.20815202379151
 20
291.64157548049383
 30
0.0
 11
439.20815202379151
 21
428.84157548049387
 31
0.0
  0
LINE
  5
1528E
  8
CENTER
  6
CENTER
 10
334.40815202379139
 20
433.641575480494
 30
0.0
 11
334.40815202379139
 21
289.64157548049383
 31
0.0
  0
LINE
  5
1528F
  8
0
 10
254.40815202379139
 20
406.64157548049383
 30
0.0
 11
414.40815202379139
 21
406.64157548049383
 31
0.0
  0
LINE
  5
15290
  8
0
  6
PHANTOM
 62
     6
 10
254.40815202379139
 20
380.64157548049383
 30
0.0
 11
414.40815202379139
 21
380.64157548049383
 31
0.0
  0
LINE
  5
15291
  8
0
  6
PHANTOM
 62
     6
 10
414.40815202379139
 20
402.8415754804941
 30
0.0
 11
254.40815202379139
 21
402.8415754804941
 31
0.0
  0
LINE
  5
15292
  8
DIM
 10
401.48446511651082
 20
352.57051891703799
 30
0.0
 11
375.55529967626848
 21
352.57051891703799
 31
0.0
  0
LINE
  5
15293
  8
DIM
 10
362.60815202379149
 20
321.64157548049388
 30
0.0
 11
408.20815202379129
 21
321.64157548049411
 31
0.0
  0
LINE
  5
15294
  8
DIM
 10
356.40815202379162
 20
376.64157548049383
 30
0.0
 11
416.20815202379163
 21
376.64157548049383
 31
0.0
  0
LINE
  5
15295
  8
DIM
 10
362.60815202379149
 20
291.641575480494
 30
0.0
 11
440.20815202379163
 21
291.64157548049383
 31
0.0
  0
LINE
  5
15296
  8
DIM
 10
346.52570934300388
 20
417.74157548049402
 30
0.0
 11
424.2973020711724
 21
417.74157548049379
 31
0.0
  0
LINE
  5
15297
  8
0
 10
362.40815202379139
 20
292.44157548049401
 30
0.0
 11
362.40815202379139
 21
320.84157548049387
 31
0.0
  0
LINE
  5
15298
  8
0
  6
CONTINUOUS
 10
358.97566105503029
 20
320.84157548049387
 30
0.0
 11
358.97566105503029
 21
292.44157548049401
 31
0.0
  0
LINE
  5
15299
  8
0
 10
306.40815202379139
 20
320.84157548049387
 30
0.0
 11
306.40815202379139
 21
292.44157548049401
 31
0.0
  0
LINE
  5
1529A
  8
0
  6
CONTINUOUS
 10
309.8406429925526
 20
320.84157548049387
 30
0.0
 11
309.8406429925526
 21
292.44157548049401
 31
0.0
  0
LINE
  5
1529B
  8
CENTER
  6
CENTER
 10
356.40815202379139
 20
289.50504476121489
 30
0.0
 11
356.40815202379139
 21
323.88008298086032
 31
0.0
  0
LINE
  5
1529C
  8
CENTER
  6
CENTER
 10
312.40815202379139
 20
289.50504476121489
 30
0.0
 11
312.40815202379139
 21
323.88008298086032
 31
0.0
  0
LINE
  5
1529D
  8
HIDDEN
  6
HIDDEN
 10
353.00815202379152
 20
291.64157548049383
 30
0.0
 11
353.00815202379152
 21
321.64157548049388
 31
0.0
  0
LINE
  5
1529E
  8
HIDDEN
  6
HIDDEN
 10
359.80815202379148
 20
291.64157548049383
 30
0.0
 11
359.80815202379148
 21
321.64157548049388
 31
0.0
  0
LINE
  5
1529F
  8
HIDDEN
  6
HIDDEN
 10
315.80815202379148
 20
291.64157548049383
 30
0.0
 11
315.80815202379148
 21
321.64157548049388
 31
0.0
  0
LINE
  5
152A0
  8
HIDDEN
  6
HIDDEN
 10
309.00815202379152
 20
291.64157548049383
 30
0.0
 11
309.0081520237913
 21
321.64157548049388
 31
0.0
  0
LINE
  5
152A1
  8
0
 10
307.20815202379129
 20
291.64157548049383
 30
0.0
 11
361.60815202379138
 21
291.641575480494
 31
0.0
  0
LINE
  5
152A2
  8
0
 10
306.40815202379139
 20
292.44157548049401
 30
0.0
 11
362.40815202379139
 21
292.44157548049401
 31
0.0
  0
LINE
  5
152A3
  8
0
 10
309.8406429925526
 20
292.44157548049401
 30
0.0
 11
310.64064299255273
 21
291.64157548049383
 31
0.0
  0
LINE
  5
152A4
  8
0
 10
306.40815202379139
 20
292.44157548049401
 30
0.0
 11
307.20815202379129
 21
291.64157548049383
 31
0.0
  0
LINE
  5
152A5
  8
0
 10
361.60815202379138
 20
291.641575480494
 30
0.0
 11
362.40815202379139
 21
292.44157548049401
 31
0.0
  0
LINE
  5
152A6
  8
0
 10
358.97566105503029
 20
292.44157548049401
 30
0.0
 11
358.17566105502999
 21
291.64157548049383
 31
0.0
  0
LINE
  5
152A7
  8
HIDDEN
  6
HIDDEN
 10
362.40815202379139
 20
306.39157548049411
 30
0.0
 11
353.40815202379139
 21
306.86324549404128
 31
0.0
  0
LINE
  5
152A8
  8
HIDDEN
  6
HIDDEN
 10
362.40815202379139
 20
305.64157548049411
 30
0.0
 11
353.40815202379139
 21
306.11324549404128
 31
0.0
  0
LINE
  5
152A9
  8
0
  6
PHANTOM
 62
     6
 10
254.40815202379139
 20
402.8415754804941
 30
0.0
 11
254.40815202379139
 21
380.64157548049383
 31
0.0
  0
LINE
  5
152AA
  8
0
 10
359.40815202379139
 20
372.64157548049383
 30
0.0
 11
359.40815202379139
 21
321.64157548049388
 31
0.0
  0
LINE
  5
152AB
  8
0
 10
309.40815202379139
 20
372.64157548049383
 30
0.0
 11
309.40815202379139
 21
321.64157548049388
 31
0.0
  0
LINE
  5
152AC
  8
0
 10
307.20815202379129
 20
321.64157548049388
 30
0.0
 11
361.60815202379138
 21
321.64157548049388
 31
0.0
  0
LINE
  5
152AD
  8
0
 10
306.40815202379139
 20
320.84157548049387
 30
0.0
 11
362.40815202379139
 21
320.84157548049387
 31
0.0
  0
TEXT
  5
152AE
  8
DIM
 10
336.7438864264422
 20
340.50083877227252
 30
0.0
 40
3.0
  1
%%c50
  7
ROMANS
  0
LINE
  5
152AF
  8
DIM
 10
309.40815202379139
 20
339.50083877227252
 30
0.0
 11
359.40815202379139
 21
339.50083877227252
 31
0.0
  0
LINE
  5
152B0
  8
0
 10
310.64064299255273
 20
321.64157548049388
 30
0.0
 11
309.8406429925526
 21
320.84157548049387
 31
0.0
  0
LINE
  5
152B1
  8
0
 10
307.20815202379129
 20
321.64157548049388
 30
0.0
 11
306.40815202379139
 21
320.84157548049387
 31
0.0
  0
SOLID
  5
152B2
  8
DIM
 10
312.36257528279151
 20
340.02178330537248
 30
0.0
 11
312.36257528279151
 21
338.97989423917261
 31
0.0
 12
309.40815202379139
 22
339.50083877227252
 32
0.0
 13
309.40815202379139
 23
339.50083877227252
 33
0.0
  0
LINE
  5
152B3
  8
0
 10
362.40815202379139
 20
320.84157548049387
 30
0.0
 11
361.60815202379138
 21
321.64157548049388
 31
0.0
  0
LINE
  5
152B4
  8
0
 10
358.17566105502999
 20
321.64157548049388
 30
0.0
 11
358.97566105503029
 21
320.84157548049387
 31
0.0
  0
SOLID
  5
152B5
  8
DIM
 10
362.19064418170041
 20
361.52008656344577
 30
0.0
 11
361.63926757168701
 21
360.6360522540453
 31
0.0
 12
359.40815202379139
 22
362.64157548049411
 32
0.0
 13
359.40815202379139
 23
362.64157548049411
 33
0.0
  0
SOLID
  5
152B6
  8
DIM
 10
356.45372876479149
 20
338.97989423917261
 30
0.0
 11
356.45372876479149
 21
340.02178330537248
 31
0.0
 12
359.40815202379139
 22
339.50083877227252
 32
0.0
 13
359.40815202379139
 23
339.50083877227252
 33
0.0
  0
LINE
  5
152B7
  8
DIM
 10
375.55529967626848
 20
352.57051891703799
 30
0.0
 11
359.40815202379139
 21
362.64157548049383
 31
0.0
  0
LINE
  5
152B8
  8
CENTER
  6
CENTER
 10
362.18286050817068
 20
362.64157548049411
 30
0.0
 11
345.28891501681301
 21
362.64157548049383
 31
0.0
  0
LINE
  5
152B9
  8
CENTER
  6
CENTER
 10
365.18286050817068
 20
310.64157548049383
 30
0.0
 11
348.28891501681301
 21
310.64157548049383
 31
0.0
  0
LINE
  5
152BA
  8
HIDDEN
  6
HIDDEN
 10
359.40815202379162
 20
358.39157548049411
 30
0.0
 11
350.40815202379139
 21
358.86324549404128
 31
0.0
  0
LINE
  5
152BB
  8
HIDDEN
  6
HIDDEN
 10
359.40815202379162
 20
357.64157548049411
 30
0.0
 11
350.40815202379139
 21
358.11324549404128
 31
0.0
  0
LINE
  5
152BC
  8
HIDDEN
  6
HIDDEN
 10
362.40815202379139
 20
314.89157548049388
 30
0.0
 11
353.40815202379139
 21
314.4199054669466
 31
0.0
  0
LINE
  5
152BD
  8
HIDDEN
  6
HIDDEN
 10
362.40815202379139
 20
315.64157548049383
 30
0.0
 11
353.40815202379139
 21
315.1699054669466
 31
0.0
  0
LINE
  5
152BE
  8
0
 10
324.40815202379139
 20
404.34157548049382
 30
0.0
 11
344.40815202379139
 21
404.34157548049382
 31
0.0
  0
LINE
  5
152BF
  8
0
 10
325.15815202379162
 20
406.3415754804941
 30
0.0
 11
343.65815202379162
 21
406.3415754804941
 31
0.0
  0
LINE
  5
152C0
  8
0
 10
355.40815202379162
 20
376.64157548049383
 30
0.0
 11
313.40815202379139
 21
376.64157548049411
 31
0.0
  0
LINE
  5
152C1
  8
0
 62
     4
 10
359.40815202379139
 20
372.64157548049383
 30
0.0
 11
309.40815202379139
 21
372.64157548049383
 31
0.0
  0
LINE
  5
152C2
  8
CENTER
  6
CENTER
 10
324.31738376942531
 20
417.74157548049402
 30
0.0
 11
343.93932510931148
 21
417.74157548049402
 31
0.0
  0
LINE
  5
152C3
  8
0
 10
325.15815202379162
 20
406.64157548049411
 30
0.0
 11
325.15815202379162
 21
406.3415754804941
 31
0.0
  0
LINE
  5
152C4
  8
0
 10
325.15815202379162
 20
406.3415754804941
 30
0.0
 11
324.40815202379139
 21
404.34157548049382
 31
0.0
  0
ARC
  5
152C5
  8
0
 10
313.40815202379139
 20
372.64157548049383
 30
0.0
 40
4.0
 50
90.0
 51
180.0
  0
LINE
  5
152C6
  8
0
 10
324.40815202379139
 20
404.34157548049382
 30
0.0
 11
324.40815202379139
 21
376.64157548049383
 31
0.0
  0
LINE
  5
152C7
  8
0
 10
344.40815202379139
 20
404.34157548049382
 30
0.0
 11
343.65815202379139
 21
406.3415754804941
 31
0.0
  0
LINE
  5
152C8
  8
0
 10
343.65815202379139
 20
406.3415754804941
 30
0.0
 11
343.65815202379139
 21
406.64157548049411
 31
0.0
  0
ARC
  5
152C9
  8
0
 10
355.40815202379139
 20
372.64157548049383
 30
0.0
 40
4.0
 50
0.0
 51
90.0
  0
LINE
  5
152CA
  8
0
 10
344.40815202379139
 20
404.34157548049382
 30
0.0
 11
344.40815202379139
 21
376.64157548049383
 31
0.0
  0
LINE
  5
152CB
  8
HIDDEN
  6
HIDDEN
 10
359.40815202379162
 20
366.89157548049383
 30
0.0
 11
350.40815202379139
 21
366.4199054669466
 31
0.0
  0
LINE
  5
152CC
  8
HIDDEN
  6
HIDDEN
 10
359.40815202379162
 20
367.64157548049383
 30
0.0
 11
350.40815202379139
 21
367.1699054669466
 31
0.0
  0
LINE
  5
152CD
  8
0
 10
507.53604373220378
 20
320.84157548049387
 30
0.0
 11
507.53604373220378
 21
292.44157548049401
 31
0.0
  0
LINE
  5
152CE
  8
0
  6
CONTINUOUS
 10
510.96853470096488
 20
320.84157548049387
 30
0.0
 11
510.96853470096488
 21
292.44157548049401
 31
0.0
  0
LINE
  5
152CF
  8
DIM
 10
415.20815202379163
 20
291.64157548049383
 30
0.0
 11
415.20815202379163
 21
376.64157548049383
 31
0.0
  0
LINE
  5
152D0
  8
DIM
 10
423.20815202379163
 20
291.64157548049383
 30
0.0
 11
423.20815202379163
 21
417.74157548049379
 31
0.0
  0
TEXT
  5
152D1
  8
DIM
 10
406.2081520237914
 20
303.54388796398501
 30
0.0
 40
3.0
  1
30
 50
90.0
  7
ROMANS
  0
LINE
  5
152D2
  8
DIM
 10
407.20815202379129
 20
291.641575480494
 30
0.0
 11
407.20815202379129
 21
321.64157548049411
 31
0.0
  0
LINE
  5
152D3
  8
CENTER
  6
CENTER
 10
513.53604373220367
 20
289.50504476121489
 30
0.0
 11
513.53604373220367
 21
323.88008298086032
 31
0.0
  0
LINE
  5
152D4
  8
HIDDEN
  6
HIDDEN
 10
510.13604373220358
 20
291.64157548049383
 30
0.0
 11
510.13604373220358
 21
321.64157548049388
 31
0.0
  0
SOLID
  5
152D5
  8
DIM
 10
406.68720749069138
 20
294.59599873949418
 30
0.0
 11
407.72909655689131
 21
294.59599873949418
 31
0.0
 12
407.20815202379129
 22
291.641575480494
 32
0.0
 13
407.20815202379129
 23
291.641575480494
 33
0.0
  0
SOLID
  5
152D6
  8
DIM
 10
438.68720749069138
 20
294.59599873949401
 30
0.0
 11
439.72909655689159
 21
294.59599873949401
 31
0.0
 12
439.20815202379151
 22
291.64157548049383
 32
0.0
 13
439.20815202379151
 23
291.64157548049383
 33
0.0
  0
SOLID
  5
152D7
  8
DIM
 10
430.68720749069161
 20
294.59599873949401
 30
0.0
 11
431.72909655689159
 21
294.59599873949401
 31
0.0
 12
431.20815202379163
 22
291.64157548049383
 32
0.0
 13
431.20815202379163
 23
291.64157548049383
 33
0.0
  0
SOLID
  5
152D8
  8
DIM
 10
422.68720749069138
 20
294.59599873949401
 30
0.0
 11
423.72909655689159
 21
294.59599873949401
 31
0.0
 12
423.20815202379163
 22
291.64157548049383
 32
0.0
 13
423.20815202379163
 23
291.64157548049383
 33
0.0
  0
SOLID
  5
152D9
  8
DIM
 10
414.68720749069138
 20
294.59599873949401
 30
0.0
 11
415.72909655689159
 21
294.59599873949401
 31
0.0
 12
415.20815202379163
 22
291.64157548049383
 32
0.0
 13
415.20815202379163
 23
291.64157548049383
 33
0.0
  0
LINE
  5
152DA
  8
0
 10
507.53604373220378
 20
292.44157548049401
 30
0.0
 11
508.33604373220351
 21
291.64157548049383
 31
0.0
  0
LINE
  5
152DB
  8
0
 10
510.96853470096488
 20
292.44157548049401
 30
0.0
 11
511.76853470096489
 21
291.64157548049383
 31
0.0
  0
TEXT
  5
152DC
  8
DIM
 10
438.20815202379163
 20
353.10304624216718
 30
0.0
 40
3.0
  1
137.2
 50
90.0
  7
ROMANS
  0
TEXT
  5
152DD
  8
DIM
 10
377.66564019103151
 20
353.57051891703799
 30
0.0
 40
3.0
  1
2-PT 1/8
  7
ROMANS
  0
SOLID
  5
152DE
  8
DIM
 10
407.72909655689131
 20
318.68715222149422
 30
0.0
 11
406.68720749069138
 21
318.68715222149422
 31
0.0
 12
407.20815202379129
 22
321.64157548049411
 32
0.0
 13
407.20815202379129
 23
321.64157548049411
 33
0.0
  0
TEXT
  5
152DF
  8
DIM
 10
430.20815202379163
 20
344.58550178711869
 30
0.0
 40
3.0
  1
115
 50
90.0
  7
ROMANS
  0
TEXT
  5
152E0
  8
DIM
 10
422.20815202379163
 20
333.52861263955168
 30
0.0
 40
3.0
  1
89
 50
90.0
  7
ROMANS
  0
TEXT
  5
152E1
  8
DIM
 10
414.20815202379151
 20
331.95890137695818
 30
0.0
 40
3.0
  1
85
 50
90.0
  7
ROMANS
  0
LINE
  5
152E2
  8
0
  6
PHANTOM
 62
     6
 10
414.40815202379139
 20
402.8415754804941
 30
0.0
 11
414.40815202379139
 21
380.64157548049383
 31
0.0
  0
SOLID
  5
152E3
  8
DIM
 10
431.72909655689159
 20
403.68715222149399
 30
0.0
 11
430.68720749069161
 21
403.68715222149399
 31
0.0
 12
431.20815202379163
 22
406.64157548049383
 32
0.0
 13
431.20815202379163
 23
406.64157548049383
 33
0.0
  0
SOLID
  5
152E4
  8
DIM
 10
431.72909655689159
 20
409.59599873949389
 30
0.0
 11
430.68720749069161
 21
409.59599873949389
 31
0.0
 12
431.20815202379163
 22
406.64157548049383
 32
0.0
 13
431.20815202379163
 23
406.64157548049383
 33
0.0
  0
SOLID
  5
152E5
  8
DIM
 10
423.72909655689159
 20
414.78715222149339
 30
0.0
 11
422.68720749069161
 21
414.78715222149339
 31
0.0
 12
423.20815202379163
 22
417.74157548049328
 32
0.0
 13
423.20815202379163
 23
417.74157548049328
 33
0.0
  0
SOLID
  5
152E6
  8
DIM
 10
423.72909655689159
 20
403.68715222149399
 30
0.0
 11
422.68720749069161
 21
403.68715222149399
 31
0.0
 12
423.20815202379163
 22
406.64157548049383
 32
0.0
 13
423.20815202379163
 23
406.64157548049383
 33
0.0
  0
SOLID
  5
152E7
  8
DIM
 10
423.72909655689159
 20
409.59599873949372
 30
0.0
 11
422.68720749069161
 21
409.59599873949372
 31
0.0
 12
423.20815202379163
 22
406.64157548049383
 32
0.0
 13
423.20815202379163
 23
406.64157548049383
 33
0.0
  0
TEXT
  5
152E8
  8
DIM
 10
422.20815202379163
 20
407.04228928571911
 30
0.0
 40
3.0
  1
11.1
 50
90.0
  7
ROMANS
  0
LINE
  5
152E9
  8
DIM
 10
416.11377349836351
 20
406.64157548049411
 30
0.0
 11
432.20815202379163
 21
406.64157548049383
 31
0.0
  0
TEXT
  5
152EA
  8
DIM
 10
422.20815202379163
 20
390.66260171776952
 30
0.0
 40
3.0
  1
26
 50
90.0
  7
ROMANS
  0
SOLID
  5
152EB
  8
DIM
 10
423.72909655689159
 20
377.6871522214937
 30
0.0
 11
422.68720749069138
 21
377.6871522214937
 31
0.0
 12
423.20815202379163
 22
380.64157548049383
 32
0.0
 13
423.20815202379163
 23
380.64157548049383
 33
0.0
  0
SOLID
  5
152EC
  8
DIM
 10
423.72909655689159
 20
383.59599873949372
 30
0.0
 11
422.68720749069138
 21
383.59599873949372
 31
0.0
 12
423.20815202379163
 22
380.64157548049383
 32
0.0
 13
423.20815202379163
 23
380.64157548049383
 33
0.0
  0
SOLID
  5
152ED
  8
DIM
 10
415.72909655689159
 20
373.6871522214937
 30
0.0
 11
414.68720749069138
 21
373.6871522214937
 31
0.0
 12
415.20815202379163
 22
376.64157548049383
 32
0.0
 13
415.20815202379163
 23
376.64157548049383
 33
0.0
  0
LINE
  5
152EE
  8
DIM
 10
416.11377349836351
 20
380.64157548049383
 30
0.0
 11
424.20815202379163
 21
380.64157548049383
 31
0.0
  0
LINE
  5
152EF
  8
0
 10
510.53604373220378
 20
372.64157548049383
 30
0.0
 11
510.53604373220378
 21
321.64157548049388
 31
0.0
  0
LINE
  5
152F0
  8
0
 10
508.33604373220351
 20
321.64157548049388
 30
0.0
 11
507.53604373220378
 21
320.84157548049387
 31
0.0
  0
LINE
  5
152F1
  8
0
 10
511.76853470096489
 20
321.64157548049388
 30
0.0
 11
510.96853470096488
 21
320.84157548049387
 31
0.0
  0
ARC
  5
152F2
  8
0
 10
514.53604373220355
 20
372.64157548049383
 30
0.0
 40
4.0
 50
90.0
 51
180.0
  0
LINE
  5
152F3
  8
0
 10
414.40815202379139
 20
428.8415754804941
 30
0.0
 11
254.40815202379139
 21
428.8415754804941
 31
0.0
  0
LINE
  5
152F4
  8
0
 10
254.40815202379139
 20
508.62372492764592
 30
0.0
 11
414.40815202379139
 21
508.62372492764592
 31
0.0
  0
LINE
  5
152F5
  8
0
 10
414.40815202379139
 20
530.82372492764603
 30
0.0
 11
254.40815202379139
 21
530.8237249276458
 31
0.0
  0
LINE
  5
152F6
  8
DIM
 10
392.14208755859647
 20
481.02355549980251
 30
0.0
 11
373.13087975757679
 21
481.02355549980251
 31
0.0
  0
TEXT
  5
152F7
  8
DIM
 10
375.40627168471468
 20
482.02355549980251
 30
0.0
 40
3.0
  1
4-%%c6.8
  7
ROMANS
  0
LINE
  5
152F8
  8
DIM
 10
254.40815202379139
 20
436.84157548049387
 30
0.0
 11
414.40815202379139
 21
436.84157548049387
 31
0.0
  0
LINE
  5
152F9
  8
CENTER
  6
CENTER
 10
370.40453193970927
 20
519.72372492764589
 30
0.0
 11
417.05821595322732
 21
519.72372492764589
 31
0.0
  0
POLYLINE
  5
152FA
  8
0
 66
     1
 10
0.0
 20
0.0
 30
0.0
  0
VERTEX
  5
15409
  8
0
 10
306.40815202379139
 20
544.29123395888473
 30
0.0
  0
VERTEX
  5
1540A
  8
0
 10
306.40815202379139
 20
530.8237249276458
 30
0.0
  0
SEQEND
  5
1540B
  8
0
  0
POLYLINE
  5
152FB
  8
0
 66
     1
 10
0.0
 20
0.0
 30
0.0
  0
VERTEX
  5
1540C
  8
0
 10
362.40815202379139
 20
530.82372492764603
 30
0.0
  0
VERTEX
  5
1540D
  8
0
 10
362.40815202379139
 20
544.29123395888473
 30
0.0
  0
SEQEND
  5
1540E
  8
0
  0
ARC
  5
152FC
  8
0
 10
334.40815202379139
 20
519.72372492764589
 30
0.0
 40
25.0
 50
26.35937679066048
 51
153.64062320933951
  0
LINE
  5
152FD
  8
CENTER
  6
CENTER
 10
334.40815202379139
 20
487.76214331671252
 30
0.0
 11
334.40815202379139
 21
551.01592732792551
 31
0.0
  0
LINE
  5
152FE
  8
CENTER
  6
CENTER
 10
312.40815202379139
 20
531.72372492764578
 30
0.0
 11
312.40815202379139
 21
551.72372492764578
 31
0.0
  0
LINE
  5
152FF
  8
CENTER
  6
CENTER
 10
356.40815202379139
 20
551.72372492764578
 30
0.0
 11
356.40815202379139
 21
531.72372492764578
 31
0.0
  0
ARC
  5
15300
  8
0
 10
334.40815202379139
 20
519.72372492764589
 30
0.0
 40
37.25
 50
221.2640715936156
 51
228.7359284063854
  0
LINE
  5
15301
  8
DIM
 10
313.51323900727601
 20
446.1696332290332
 30
0.0
 11
304.83034250977079
 21
446.1696332290332
 31
0.0
  0
LINE
  5
15302
  8
CENTER
  6
CENTER
 10
251.0784071331818
 20
519.72372492764589
 30
0.0
 11
363.37844109344258
 21
519.72372492764589
 31
0.0
  0
LINE
  5
15303
  8
CENTER
  6
CENTER
 10
322.40815202379139
 20
497.72372492764578
 30
0.0
 11
302.40815202379139
 21
497.72372492764578
 31
0.0
  0
SOLID
  5
15304
  8
DIM
 10
257.36257528279128
 20
437.36252001359412
 30
0.0
 11
257.36257528279128
 21
436.32063094739391
 31
0.0
 12
254.40815202379139
 22
436.84157548049387
 32
0.0
 13
254.40815202379139
 23
436.84157548049387
 33
0.0
  0
LINE
  5
15305
  8
DIM
 10
254.40815202379139
 20
429.8415754804941
 30
0.0
 11
254.40815202379139
 21
437.84157548049387
 31
0.0
  0
LINE
  5
15306
  8
0
 10
254.40815202379139
 20
530.82372492764603
 30
0.0
 11
254.40815202379139
 21
508.62372492764592
 31
0.0
  0
TEXT
  5
15307
  8
DIM
 10
239.0177115670092
 20
501.46798431463731
 30
0.0
 40
4.0
  1
CCW
  7
ROMANS
  0
POLYLINE
  5
15308
  8
DIM
 66
     1
 10
0.0
 20
0.0
 30
0.0
 70
     7
  0
VERTEX
  5
15309
  8
DIM
 10
253.02363034555191
 20
506.40212221720179
 30
0.0
 42
0.0185322085214218
  0
VERTEX
  5
1530A
  8
DIM
 10
255.0528034154315
 20
502.00102297752068
 30
0.0
  0
VERTEX
  5
1530B
  8
DIM
 10
254.51761101083181
 20
501.72978675195549
 30
0.0
  0
VERTEX
  5
1530C
  8
DIM
 10
257.14009579416518
 20
499.69558911310622
 30
0.0
  0
VERTEX
  5
1530D
  8
DIM
 10
256.9259768315307
 20
502.95034976699878
 30
0.0
  0
VERTEX
  5
1530E
  8
DIM
 10
256.39078442693079
 20
502.6791135414332
 30
0.0
 42
-0.018532208521422
  0
VERTEX
  5
1530F
  8
DIM
 10
254.40815202379159
 20
506.97927013800239
 30
0.0
  0
SEQEND
  5
15310
  8
DIM
  0
SOLID
  5
15311
  8
DIM
 10
353.45372876479149
 20
475.20278039454558
 30
0.0
 11
353.45372876479149
 21
476.2446694607458
 31
0.0
 12
356.40815202379139
 22
475.72372492764578
 32
0.0
 13
356.40815202379139
 23
475.72372492764578
 33
0.0
  0
LINE
  5
15312
  8
DIM
 10
356.40815202379139
 20
486.72372492764589
 30
0.0
 11
356.40815202379139
 21
474.72372492764589
 31
0.0
  0
LINE
  5
15313
  8
DIM
 10
362.40815202379139
 20
494.15621589640699
 30
0.0
 11
362.40815202379139
 21
466.72372492764589
 31
0.0
  0
SOLID
  5
15314
  8
DIM
 10
315.36257528279151
 20
476.2446694607458
 30
0.0
 11
315.36257528279151
 21
475.20278039454558
 31
0.0
 12
312.40815202379139
 22
475.72372492764578
 32
0.0
 13
312.40815202379139
 23
475.72372492764578
 33
0.0
  0
LINE
  5
15315
  8
DIM
 10
312.40815202379139
 20
486.72372492764589
 30
0.0
 11
312.40815202379139
 21
474.72372492764589
 31
0.0
  0
LINE
  5
15316
  8
DIM
 10
306.40815202379139
 20
494.15621589640699
 30
0.0
 11
306.40815202379139
 21
466.72372492764589
 31
0.0
  0
LINE
  5
15317
  8
DIM
 10
312.40815202379139
 20
475.72372492764578
 30
0.0
 11
356.40815202379139
 21
475.72372492764578
 31
0.0
  0
LINE
  5
15318
  8
DIM
 10
306.40815202379139
 20
467.72372492764578
 30
0.0
 11
362.40815202379139
 21
467.72372492764578
 31
0.0
  0
TEXT
  5
15319
  8
DIM
 10
333.02333027910157
 20
468.72372492764578
 30
0.0
 40
3.0
  1
56
  7
ROMANS
  0
POLYLINE
  5
1531A
  8
DIM
 66
     1
 10
0.0
 20
0.0
 30
0.0
 70
     1
  0
VERTEX
  5
1540F
  8
DIM
 10
332.6477828123372
 20
471.43067353645068
 30
0.0
  0
VERTEX
  5
15410
  8
DIM
 10
332.6477828123372
 20
468.88221085732653
 30
0.0
  0
VERTEX
  5
15411
  8
DIM
 10
330.10294421189332
 20
468.88221085732653
 30
0.0
  0
VERTEX
  5
15412
  8
DIM
 10
330.10294421189332
 20
471.43067353645068
 30
0.0
  0
SEQEND
  5
15413
  8
DIM
  0
TEXT
  5
1531B
  8
DIM
 10
329.70643715735099
 20
437.84157548049387
 30
0.0
 40
3.0
  1
160
  7
ROMANS
  0
SOLID
  5
1531C
  8
DIM
 10
330.70920709656502
 20
423.65369798406482
 30
0.0
 11
329.86969438200271
 21
423.03664755796069
 31
0.0
 12
332.03918417060407
 22
420.96461617377759
 32
0.0
 13
332.03918417060407
 23
420.96461617377759
 33
0.0
  0
TEXT
  5
1531D
  8
DIM
 10
306.2708458035213
 20
447.1696332290332
 30
0.0
 40
3.0
  1
%%c8
  7
ROMANS
  0
SOLID
  5
1531E
  8
DIM
 10
309.36257528279151
 20
468.2446694607458
 30
0.0
 11
309.36257528279151
 21
467.20278039454558
 31
0.0
 12
306.40815202379139
 22
467.72372492764578
 32
0.0
 13
306.40815202379139
 23
467.72372492764578
 33
0.0
  0
LINE
  5
1531F
  8
DIM
 10
313.51323900727601
 20
446.1696332290332
 30
0.0
 11
332.03918417060379
 21
420.96461617377781
 31
0.0
  0
SOLID
  5
15320
  8
DIM
 10
359.45372876479149
 20
467.20278039454558
 30
0.0
 11
359.45372876479149
 21
468.2446694607458
 31
0.0
 12
362.40815202379139
 22
467.72372492764578
 32
0.0
 13
362.40815202379139
 23
467.72372492764578
 33
0.0
  0
LINE
  5
15321
  8
0
  6
CONTINUOUS
 10
324.90815202379139
 20
514.72372492764578
 30
0.0
 11
343.90815202379162
 21
514.72372492764578
 31
0.0
  0
LINE
  5
15322
  8
0
  6
CONTINUOUS
 10
324.90815202379139
 20
524.72372492764589
 30
0.0
 11
343.90815202379162
 21
524.72372492764589
 31
0.0
  0
POLYLINE
  5
15323
  8
0
 66
     1
 10
0.0
 20
0.0
 30
0.0
  0
VERTEX
  5
15414
  8
0
 10
309.8406429925526
 20
491.72372492764589
 30
0.0
  0
VERTEX
  5
15415
  8
0
 10
358.97566105503029
 20
491.72372492764589
 30
0.0
  0
SEQEND
  5
15416
  8
0
  0
ARC
  5
15324
  8
0
 10
334.40815202379139
 20
519.72372492764589
 30
0.0
 40
25.0
 50
206.35937679066041
 51
333.64062320933948
  0
LINE
  5
15325
  8
DIM
 10
319.90815202379139
 20
483.72372492764589
 30
0.0
 11
348.90815202379139
 21
483.72372492764561
 31
0.0
  0
ARC
  5
15326
  8
0
  6
CONTINUOUS
 10
324.90815202379139
 20
519.72372492764589
 30
0.0
 40
5.0
 50
90.0
 51
270.0
  0
ARC
  5
15327
  8
0
  6
CONTINUOUS
 10
334.40815202379139
 20
519.72372492764589
 30
0.0
 40
9.0
 50
146.25101140410791
 51
213.748988595892
  0
ARC
  5
15328
  8
0
  6
CONTINUOUS
 10
334.40815202379139
 20
519.72372492764589
 30
0.0
 40
10.0
 50
150.0000000000031
 51
209.99999999999611
  0
POLYLINE
  5
15329
  8
0
 66
     1
 10
0.0
 20
0.0
 30
0.0
  0
VERTEX
  5
15417
  8
0
 10
306.40815202379139
 20
508.6237249276457
 30
0.0
  0
VERTEX
  5
15418
  8
0
 10
306.40815202379139
 20
495.15621589640699
 30
0.0
  0
SEQEND
  5
15419
  8
0
  0
CIRCLE
  5
1532A
  8
0
 10
312.40815202379139
 20
497.72372492764578
 30
0.0
 40
3.3999999999999999
  0
TEXT
  5
1532B
  8
DIM
 10
331.45487513678239
 20
484.72372492764578
 30
0.0
 40
3.0
  1
29
  7
ROMANS
  0
TEXT
  5
1532C
  8
DIM
 10
332.98857541784599
 20
476.72372492764578
 30
0.0
 40
3.0
  1
44
  7
ROMANS
  0
POLYLINE
  5
1532D
  8
DIM
 66
     1
 10
0.0
 20
0.0
 30
0.0
 70
     1
  0
VERTEX
  5
1541A
  8
DIM
 10
332.6477828123372
 20
479.43067353645051
 30
0.0
  0
VERTEX
  5
1541B
  8
DIM
 10
332.6477828123372
 20
476.88221085732653
 30
0.0
  0
VERTEX
  5
1541C
  8
DIM
 10
330.10294421189332
 20
476.88221085732653
 30
0.0
  0
VERTEX
  5
1541D
  8
DIM
 10
330.10294421189332
 20
479.43067353645051
 30
0.0
  0
SEQEND
  5
1541E
  8
DIM
  0
SOLID
  5
1532E
  8
DIM
 10
322.86257528279151
 20
484.2446694607458
 30
0.0
 11
322.86257528279151
 21
483.20278039454593
 31
0.0
 12
319.90815202379139
 22
483.72372492764589
 32
0.0
 13
319.90815202379139
 23
483.72372492764589
 33
0.0
  0
LINE
  5
1532F
  8
DIM
 10
319.90815202379139
 20
518.05903486054308
 30
0.0
 11
319.90815202379139
 21
482.29239888901719
 31
0.0
  0
LINE
  5
15330
  8
CENTER
  6
CENTER
 10
312.40815202379139
 20
487.72372492764589
 30
0.0
 11
312.40815202379139
 21
507.72372492764589
 31
0.0
  0
ARC
  5
15331
  8
0
  6
CONTINUOUS
 10
343.90815202379139
 20
519.72372492764589
 30
0.0
 40
5.0
 50
270.0
 51
90.0
  0
ARC
  5
15332
  8
0
  6
CONTINUOUS
 10
334.40815202379139
 20
519.72372492764589
 30
0.0
 40
10.0
 50
330.00000000000392
 51
29.999999999996088
  0
ARC
  5
15333
  8
0
  6
CONTINUOUS
 10
334.40815202379139
 20
519.72372492764589
 30
0.0
 40
9.0
 50
326.25101140410789
 51
33.74898859589203
  0
ARC
  5
15334
  8
0
 10
334.40815202379139
 20
519.72372492764589
 30
0.0
 40
37.25
 50
311.26407159361452
 51
318.73592840638429
  0
CIRCLE
  5
15335
  8
0
 10
356.40815202379139
 20
497.72372492764578
 30
0.0
 40
3.3999999999999999
  0
POLYLINE
  5
15336
  8
0
 66
     1
 10
0.0
 20
0.0
 30
0.0
  0
VERTEX
  5
1541F
  8
0
 10
362.40815202379139
 20
495.15621589640699
 30
0.0
  0
VERTEX
  5
15420
  8
0
 10
362.40815202379139
 20
508.6237249276457
 30
0.0
  0
SEQEND
  5
15421
  8
0
  0
SOLID
  5
15337
  8
DIM
 10
369.40994177932038
 20
521.76930166864588
 30
0.0
 11
368.36805271312022
 21
521.76930166864588
 31
0.0
 12
368.88899724622019
 22
524.72372492764589
 32
0.0
 13
368.88899724622019
 23
524.72372492764589
 33
0.0
  0
SOLID
  5
15338
  8
DIM
 10
368.36805271312051
 20
517.67814818664567
 30
0.0
 11
369.40994177932038
 21
517.67814818664567
 31
0.0
 12
368.88899724622019
 22
514.72372492764578
 32
0.0
 13
368.88899724622019
 23
514.72372492764578
 33
0.0
  0
LINE
  5
15339
  8
DIM
 10
368.88899724622019
 20
514.72372492764578
 30
0.0
 11
368.88899724622019
 21
524.72372492764589
 31
0.0
  0
SOLID
  5
1533A
  8
DIM
 10
361.27255414182463
 20
493.60211478170021
 30
0.0
 11
360.5363247287832
 21
492.86489088244042
 31
0.0
 12
358.813937187298
 22
495.3211850742714
 32
0.0
 13
358.813937187298
 23
495.3211850742714
 33
0.0
  0
SOLID
  5
1533B
  8
DIM
 10
345.95372876479132
 20
484.2446694607458
 30
0.0
 11
345.95372876479132
 21
483.20278039454593
 31
0.0
 12
348.90815202379139
 22
483.72372492764589
 32
0.0
 13
348.90815202379139
 23
483.72372492764589
 33
0.0
  0
LINE
  5
1533C
  8
DIM
 10
348.90815202379139
 20
518.05903486054308
 30
0.0
 11
348.90815202379139
 21
482.29239888901719
 31
0.0
  0
TEXT
  5
1533D
  8
DIM
 10
367.88899724622019
 20
516.77044804063655
 30
0.0
 40
3.0
  1
10
 50
90.0
  7
ROMANS
  0
LINE
  5
1533E
  8
DIM
 10
345.88899724622019
 20
514.72372492764578
 30
0.0
 11
369.88899724622019
 21
514.72372492764578
 31
0.0
  0
LINE
  5
1533F
  8
DIM
 10
345.88899724622041
 20
524.72372492764589
 30
0.0
 11
369.88899724622019
 21
524.72372492764589
 31
0.0
  0
LINE
  5
15340
  8
DIM
 10
373.13087975757679
 20
481.02355549980251
 30
0.0
 11
358.813937187298
 21
495.3211850742714
 31
0.0
  0
LINE
  5
15341
  8
CENTER
  6
CENTER
 10
356.40815202379139
 20
507.72372492764589
 30
0.0
 11
356.40815202379139
 21
487.72372492764589
 31
0.0
  0
LINE
  5
15342
  8
CENTER
  6
CENTER
 10
366.40815202379139
 20
497.72372492764578
 30
0.0
 11
346.40815202379139
 21
497.72372492764578
 31
0.0
  0
ARC
  5
15343
  8
0
 10
334.40815202379139
 20
519.72372492764589
 30
0.0
 40
37.25
 50
131.26407159361449
 51
138.73592840638429
  0
LINE
  5
15344
  8
CENTER
  6
CENTER
 10
302.40815202379139
 20
541.72372492764589
 30
0.0
 11
322.40815202379139
 21
541.72372492764589
 31
0.0
  0
POLYLINE
  5
15345
  8
DIM
 66
     1
 10
0.0
 20
0.0
 30
0.0
 70
     7
  0
VERTEX
  5
15346
  8
DIM
 10
253.02363034555239
 20
534.55641805880396
 30
0.0
 42
-0.0185322085214218
  0
VERTEX
  5
15347
  8
DIM
 10
255.0528034154319
 20
538.95751729848507
 30
0.0
  0
VERTEX
  5
15348
  8
DIM
 10
254.5176110108323
 20
539.22875352405026
 30
0.0
  0
VERTEX
  5
15349
  8
DIM
 10
257.14009579416552
 20
541.26295116289953
 30
0.0
  0
VERTEX
  5
1534A
  8
DIM
 10
256.9259768315311
 20
538.00819050900714
 30
0.0
  0
VERTEX
  5
1534B
  8
DIM
 10
256.39078442693102
 20
538.27942673457255
 30
0.0
 42
0.018532208521422
  0
VERTEX
  5
1534C
  8
DIM
 10
254.40815202379159
 20
533.97927013800245
 30
0.0
  0
SEQEND
  5
1534D
  8
DIM
  0
TEXT
  5
1534E
  8
DIM
 10
241.0926598827763
 20
536.53093329903413
 30
0.0
 40
4.0
  1
CW
  7
ROMANS
  0
POLYLINE
  5
1534F
  8
0
 66
     1
 10
0.0
 20
0.0
 30
0.0
  0
VERTEX
  5
15422
  8
0
 10
358.97566105503029
 20
547.72372492764578
 30
0.0
  0
VERTEX
  5
15423
  8
0
 10
309.8406429925526
 20
547.72372492764578
 30
0.0
  0
SEQEND
  5
15424
  8
0
  0
CIRCLE
  5
15350
  8
0
 10
312.40815202379139
 20
541.72372492764589
 30
0.0
 40
3.3999999999999999
  0
ARC
  5
15351
  8
0
 10
334.40815202379139
 20
519.72372492764589
 30
0.0
 40
37.25
 50
41.264071593615611
 51
48.735928406385462
  0
CIRCLE
  5
15352
  8
0
 10
356.40815202379139
 20
541.72372492764589
 30
0.0
 40
3.3999999999999999
  0
LINE
  5
15353
  8
CENTER
  6
CENTER
 10
346.40815202379139
 20
541.72372492764589
 30
0.0
 11
366.40815202379139
 21
541.72372492764589
 31
0.0
  0
SOLID
  5
15354
  8
DIM
 10
439.72909655689159
 20
425.88715222149398
 30
0.0
 11
438.68720749069138
 21
425.88715222149398
 31
0.0
 12
439.20815202379151
 22
428.84157548049387
 32
0.0
 13
439.20815202379151
 23
428.84157548049387
 33
0.0
  0
SOLID
  5
15355
  8
DIM
 10
431.72909655689159
 20
425.8871522214942
 30
0.0
 11
430.68720749069161
 21
425.8871522214942
 31
0.0
 12
431.20815202379163
 22
428.8415754804941
 32
0.0
 13
431.20815202379163
 23
428.8415754804941
 33
0.0
  0
LINE
  5
15356
  8
DIM
 10
416.99453625748401
 20
428.8415754804941
 30
0.0
 11
440.4607259867775
 21
428.84157548049387
 31
0.0
  0
LINE
  5
15357
  8
DIM
 10
414.40815202379139
 20
429.8415754804941
 30
0.0
 11
414.40815202379139
 21
437.84157548049387
 31
0.0
  0
SOLID
  5
15358
  8
DIM
 10
411.45372876479149
 20
437.36252001359412
 30
0.0
 11
411.45372876479149
 21
436.32063094739391
 31
0.0
 12
414.40815202379139
 22
436.84157548049387
 32
0.0
 13
414.40815202379139
 23
436.84157548049387
 33
0.0
  0
LINE
  5
15359
  8
0
 10
414.40815202379139
 20
530.82372492764603
 30
0.0
 11
414.40815202379139
 21
508.62372492764592
 31
0.0
  0
SOLID
  5
1535A
  8
DIM
 10
422.92909655689158
 20
527.86930166864624
 30
0.0
 11
421.88720749069142
 21
527.86930166864624
 31
0.0
 12
422.40815202379139
 22
530.82372492764625
 32
0.0
 13
422.40815202379139
 23
530.82372492764625
 33
0.0
  0
LINE
  5
1535B
  8
DIM
 10
416.99453625748401
 20
530.8237249276458
 30
0.0
 11
423.4173915443925
 21
530.82372492764603
 31
0.0
  0
LINE
  5
1535C
  8
DIM
 10
416.11377349836351
 20
508.62372492764592
 30
0.0
 11
423.40815202379139
 21
508.62372492764592
 31
0.0
  0
SOLID
  5
1535D
  8
DIM
 10
422.92909655689158
 20
511.57814818664582
 30
0.0
 11
421.88720749069142
 21
511.57814818664582
 31
0.0
 12
422.40815202379139
 22
508.62372492764592
 32
0.0
 13
422.40815202379139
 23
508.62372492764592
 33
0.0
  0
TEXT
  5
1535E
  8
DIM
 10
421.40815202379139
 20
514.95706853423178
 30
0.0
 40
3.0
  1
22.2
 50
90.0
  7
ROMANS
  0
LINE
  5
1535F
  8
DIM
 10
422.40815202379139
 20
508.62372492764592
 30
0.0
 11
422.40815202379139
 21
530.82372492764603
 31
0.0
  0
LINE
  5
15360
  8
0
 10
546.63604373220369
 20
406.64157548049383
 30
0.0
 11
546.63604373220369
 21
428.8415754804941
 31
0.0
  0
LINE
  5
15361
  8
0
 10
524.43604373220364
 20
406.64157548049383
 30
0.0
 11
524.43604373220364
 21
428.8415754804941
 31
0.0
  0
LINE
  5
15362
  8
CENTER
  6
CENTER
 10
535.53604373220378
 20
433.641575480494
 30
0.0
 11
535.53604373220378
 21
289.64157548049383
 31
0.0
  0
LINE
  5
15363
  8
0
 10
563.53604373220367
 20
292.44157548049401
 30
0.0
 11
563.53604373220367
 21
320.84157548049387
 31
0.0
  0
LINE
  5
15364
  8
0
  6
CONTINUOUS
 10
560.10355276344228
 20
320.84157548049387
 30
0.0
 11
560.10355276344228
 21
292.44157548049401
 31
0.0
  0
CIRCLE
  5
15365
  8
0
 10
525.53604373220367
 20
310.64157548049383
 30
0.0
 40
4.25
  0
ARC
  5
15366
  8
0
 62
     2
 10
525.53604373220367
 20
310.64157548049383
 30
0.0
 40
5.0
 50
76.381240030106014
 51
12.829634465477641
  0
LINE
  5
15367
  8
CENTER
  6
CENTER
 10
557.53604373220378
 20
289.50504476121489
 30
0.0
 11
557.53604373220378
 21
323.88008298086032
 31
0.0
  0
LINE
  5
15368
  8
CENTER
  6
CENTER
 10
525.53604373220367
 20
300.64157548049388
 30
0.0
 11
525.53604373220367
 21
320.64157548049383
 31
0.0
  0
LINE
  5
15369
  8
HIDDEN
  6
HIDDEN
 10
554.13604373220369
 20
291.64157548049383
 30
0.0
 11
554.13604373220369
 21
321.64157548049388
 31
0.0
  0
LINE
  5
1536A
  8
HIDDEN
  6
HIDDEN
 10
560.93604373220364
 20
291.64157548049383
 30
0.0
 11
560.93604373220376
 21
321.64157548049388
 31
0.0
  0
LINE
  5
1536B
  8
HIDDEN
  6
HIDDEN
 10
516.93604373220364
 20
291.64157548049383
 30
0.0
 11
516.93604373220364
 21
321.64157548049388
 31
0.0
  0
LINE
  5
1536C
  8
0
 10
560.10355276344228
 20
292.44157548049401
 30
0.0
 11
559.30355276344244
 21
291.64157548049383
 31
0.0
  0
LINE
  5
1536D
  8
0
 10
562.73604373220348
 20
291.641575480494
 30
0.0
 11
563.53604373220367
 21
292.44157548049401
 31
0.0
  0
CIRCLE
  5
1536E
  8
0
 10
535.53604373220378
 20
362.64157548049383
 30
0.0
 40
4.25
  0
ARC
  5
1536F
  8
0
 62
     2
 10
535.53604373220378
 20
362.64157548049383
 30
0.0
 40
5.0
 50
76.381240030106014
 51
12.829634465477641
  0
LINE
  5
15370
  8
0
 10
560.53604373220378
 20
372.64157548049383
 30
0.0
 11
560.53604373220378
 21
321.64157548049388
 31
0.0
  0
LINE
  5
15371
  8
CENTER
  6
CENTER
 10
525.53604373220367
 20
362.64157548049383
 30
0.0
 11
545.53604373220367
 21
362.64157548049383
 31
0.0
  0
LINE
  5
15372
  8
0
 10
559.30355276344244
 20
321.64157548049388
 30
0.0
 11
560.10355276344228
 21
320.84157548049387
 31
0.0
  0
LINE
  5
15373
  8
0
 10
563.53604373220367
 20
320.84157548049387
 30
0.0
 11
562.73604373220348
 21
321.64157548049388
 31
0.0
  0
LINE
  5
15374
  8
0
 10
545.53604373220355
 20
404.3415754804941
 30
0.0
 11
544.78604373220367
 21
406.3415754804941
 31
0.0
  0
LINE
  5
15375
  8
0
 10
540.53604373220332
 20
406.64157548049383
 30
0.0
 11
540.53604373220332
 21
406.3415754804941
 31
0.0
  0
LINE
  5
15376
  8
0
 10
530.53604373220367
 20
406.64157548049383
 30
0.0
 11
530.53604373220367
 21
406.3415754804941
 31
0.0
  0
LINE
  5
15377
  8
0
 10
526.28604373220378
 20
406.3415754804941
 30
0.0
 11
525.53604373220367
 21
404.3415754804941
 31
0.0
  0
LINE
  5
15378
  8
0
 10
524.43604373220364
 20
406.64157548049383
 30
0.0
 11
546.63604373220369
 21
406.64157548049383
 31
0.0
  0
LINE
  5
15379
  8
0
 10
525.53604373220367
 20
404.3415754804941
 30
0.0
 11
545.53604373220355
 21
404.3415754804941
 31
0.0
  0
LINE
  5
1537A
  8
0
 10
526.28604373220378
 20
406.3415754804941
 30
0.0
 11
544.78604373220367
 21
406.3415754804941
 31
0.0
  0
LINE
  5
1537B
  8
0
 10
525.53604373220367
 20
404.3415754804941
 30
0.0
 11
525.53604373220367
 21
376.64157548049383
 31
0.0
  0
LINE
  5
1537C
  8
0
 10
545.53604373220355
 20
404.3415754804941
 30
0.0
 11
545.53604373220367
 21
376.64157548049383
 31
0.0
  0
LINE
  5
1537D
  8
CENTER
  6
CENTER
 10
520.38482225010603
 20
417.74157548049402
 30
0.0
 11
550.53891156377119
 21
417.74157548049402
 31
0.0
  0
ARC
  5
1537E
  8
0
 10
556.53604373220378
 20
372.64157548049383
 30
0.0
 40
4.0
 50
0.0
 51
90.0
  0
LINE
  5
1537F
  8
0
 10
546.63604373220369
 20
428.8415754804941
 30
0.0
 11
524.43604373220364
 21
428.8415754804941
 31
0.0
  0
ENDSEC
  0
EOF
