  0
SECTION
  2
HEADER
  9
$ACADVER
  1
AC1009
  9
$INSBASE
 10
0.0
 20
0.0
 30
0.0
  9
$EXTMIN
 10
226.91931455363419
 20
-33.350828161173013
 30
-0.0015258207003583
  9
$EXTMAX
 10
1107.0065944686139
 20
765.0439471810173
 30
0.0000000349246037
  9
$LIMMIN
 10
0.0
 20
0.0
  9
$LIMMAX
 10
1188.0
 20
840.0
  9
$ORTHOMODE
 70
     1
  9
$REGENMODE
 70
     1
  9
$FILLMODE
 70
     1
  9
$QTEXTMODE
 70
     0
  9
$MIRRTEXT
 70
     1
  9
$DRAGMODE
 70
     2
  9
$LTSCALE
 40
1.0
  9
$OSMODE
 70
    39
  9
$ATTMODE
 70
     1
  9
$TEXTSIZE
 40
3.0
  9
$TRACEWID
 40
0.05
  9
$TEXTSTYLE
  7
ITALICT
  9
$CLAYER
  8
0
  9
$CELTYPE
  6
CONTINUOUS
  9
$CECOLOR
 62
   256
  9
$DIMSCALE
 40
1.0
  9
$DIMASZ
 40
3.0
  9
$DIMEXO
 40
1.0
  9
$DIMDLI
 40
1.4824161510814720E+016
  9
$DIMRND
 40
0.0
  9
$DIMDLE
 40
0.0
  9
$DIMEXE
 40
1.0
  9
$DIMTP
 40
0.15
  9
$DIMTM
 40
-0.1
  9
$DIMTXT
 40
3.0
  9
$DIMCEN
 40
2.0
  9
$DIMTSZ
 40
0.0
  9
$DIMTOL
 70
     0
  9
$DIMLIM
 70
     0
  9
$DIMTIH
 70
     0
  9
$DIMTOH
 70
     0
  9
$DIMSE1
 70
     0
  9
$DIMSE2
 70
     0
  9
$DIMTAD
 70
     1
  9
$DIMZIN
 70
     0
  9
$DIMBLK
  1

  9
$DIMASO
 70
     0
  9
$DIMSHO
 70
     0
  9
$DIMPOST
  1

  9
$DIMAPOST
  1

  9
$DIMALT
 70
     0
  9
$DIMALTD
 70
     2
  9
$DIMALTF
 40
25.399999999999999
  9
$DIMLFAC
 40
1.0
  9
$DIMTOFL
 70
     1
  9
$DIMTVP
 40
1.0
  9
$DIMTIX
 70
     0
  9
$DIMSOXD
 70
     0
  9
$DIMSAH
 70
     0
  9
$DIMBLK1
  1

  9
$DIMBLK2
  1

  9
$DIMSTYLE
  2
STANDARD
  9
$DIMCLRD
 70
     0
  9
$DIMCLRE
 70
     0
  9
$DIMCLRT
 70
     0
  9
$DIMTFAC
 40
1.0
  9
$DIMGAP
 40
0.09
  9
$LUNITS
 70
     2
  9
$LUPREC
 70
     2
  9
$SKETCHINC
 40
0.1
  9
$FILLETRAD
 40
0.75
  9
$AUNITS
 70
     0
  9
$AUPREC
 70
     2
  9
$MENU
  1
ACAD
  9
$ELEVATION
 40
0.0
  9
$PELEVATION
 40
0.0
  9
$THICKNESS
 40
0.0
  9
$LIMCHECK
 70
     0
  9
$BLIPMODE
 70
     0
  9
$CHAMFERA
 40
0.0
  9
$CHAMFERB
 40
0.0
  9
$SKPOLY
 70
     1
  9
$TDCREATE
 40
2450580.7034460641
  9
$TDUPDATE
 40
2451939.4434578698
  9
$TDINDWG
 40
0.0933824653
  9
$TDUSRTIMER
 40
0.0933824653
  9
$USRTIMER
 70
     1
  9
$ANGBASE
 50
0.0
  9
$ANGDIR
 70
     0
  9
$PDMODE
 70
     0
  9
$PDSIZE
 40
0.0
  9
$PLINEWID
 40
0.0
  9
$COORDS
 70
     2
  9
$SPLFRAME
 70
     0
  9
$SPLINETYPE
 70
     6
  9
$SPLINESEGS
 70
     8
  9
$ATTDIA
 70
     0
  9
$ATTREQ
 70
     1
  9
$HANDLING
 70
 12289
  9
$HANDSEED
  5
14AB
  9
$SURFTAB1
 70
     6
  9
$SURFTAB2
 70
     6
  9
$SURFTYPE
 70
     6
  9
$SURFU
 70
     6
  9
$SURFV
 70
     6
  9
$UCSNAME
  2

  9
$UCSORG
 10
0.0
 20
0.0
 30
0.0
  9
$UCSXDIR
 10
1.0
 20
0.0
 30
0.0
  9
$UCSYDIR
 10
0.0
 20
1.0
 30
0.0
  9
$PUCSNAME
  2

  9
$PUCSORG
 10
0.0
 20
0.0
 30
0.0
  9
$PUCSXDIR
 10
1.0
 20
0.0
 30
0.0
  9
$PUCSYDIR
 10
0.0
 20
1.0
 30
0.0
  9
$USERI1
 70
     0
  9
$USERI2
 70
-31485
  9
$USERI3
 70
     0
  9
$USERI4
 70
     0
  9
$USERI5
 70
     0
  9
$USERR1
 40
0.0
  9
$USERR2
 40
0.0
  9
$USERR3
 40
0.0
  9
$USERR4
 40
0.0
  9
$USERR5
 40
0.0
  9
$WORLDVIEW
 70
     1
  9
$SHADEDGE
 70
     3
  9
$SHADEDIF
 70
    70
  9
$TILEMODE
 70
     1
  9
$MAXACTVP
 70
    64
  9
$PLIMCHECK
 70
     0
  9
$PEXTMIN
 10
1.0000000000000000E+020
 20
1.0000000000000000E+020
 30
1.0000000000000000E+020
  9
$PEXTMAX
 10
-1.0000000000000000E+020
 20
-1.0000000000000000E+020
 30
-1.0000000000000000E+020
  9
$PLIMMIN
 10
0.0
 20
0.0
  9
$PLIMMAX
 10
12.0
 20
9.0
  9
$UNITMODE
 70
     0
  9
$VISRETAIN
 70
     1
  9
$PLINEGEN
 70
     0
  9
$PSLTSCALE
 70
     0
  0
ENDSEC
  0
SECTION
  2
TABLES
  0
TABLE
  2
VPORT
 70
     2
  0
VPORT
  2
*ACTIVE
 70
     0
 10
0.0
 20
0.0
 11
1.0
 21
1.0
 12
666.96295451112417
 22
365.84655950992209
 13
0.0
 23
0.0
 14
1.0
 24
1.0
 15
0.0
 25
0.0
 16
0.0
 26
0.0
 36
1.0
 17
0.0
 27
0.0
 37
0.0
 40
807.20060007022926
 41
1.7274401473296499
 42
1.0
 43
0.0
 44
0.0
 50
0.0
 51
0.0
 71
     0
 72
   100
 73
     1
 74
     1
 75
     0
 76
     0
 77
     0
 78
     0
  0
ENDTAB
  0
TABLE
  2
LTYPE
 70
     3
  0
LTYPE
  2
CONTINUOUS
 70
     0
  3
Solid line
 72
    65
 73
     0
 40
0.0
  0
LTYPE
  2
CENTER
 70
     0
  3
_______________ _ _______________ _ ___________
 72
    65
 73
     4
 40
18.0
 49
15.0
 49
-1.0
 49
1.0
 49
-1.0
  0
LTYPE
  2
HIDDEN
 70
     0
  3
___ ___ ___ ___ ___ ___ ___ ___ ___ ___ 
 72
    65
 73
     2
 40
4.0
 49
3.0
 49
-1.0
  0
ENDTAB
  0
TABLE
  2
LAYER
 70
     5
  0
LAYER
  2
0
 70
     0
 62
     7
  6
CONTINUOUS
  0
LAYER
  2
DIM
 70
     0
 62
     5
  6
CONTINUOUS
  0
LAYER
  2
HIDDEN
 70
     0
 62
     6
  6
CONTINUOUS
  0
LAYER
  2
CENTER
 70
     0
 62
     1
  6
CENTER
  0
LAYER
  2
LOGO
 70
     0
 62
     7
  6
CONTINUOUS
  0
ENDTAB
  0
TABLE
  2
STYLE
 70
     8
  0
STYLE
  2
STANDARD
 70
     0
 40
0.0
 41
1.0
 50
0.0
 71
     0
 42
3.0
  3
txt
  4

  0
STYLE
  2
ITALICT
 70
     0
 40
0.0
 41
1.0
 50
0.0
 71
     0
 42
3.0
  3
ITALICT.SHX
  4

  0
STYLE
  2
ROMANSS
 70
     0
 40
0.0
 41
1.0
 50
0.0
 71
     0
 42
3.0
  3
ROMANSS.SHX
  4
LMP
  0
STYLE
  2
CHINESET
 70
     0
 40
0.0
 41
1.0
 50
0.0
 71
     0
 42
4.0
  3
C:\r13\com\fonts\simplex.shx
  4
C:\r13\com\fonts\chineset.shx
  0
STYLE
  2
LOGO
 70
     0
 40
0.0
 41
1.0
 50
0.0
 71
     0
 42
5.0
  3
txt
  4

  0
ENDTAB
  0
TABLE
  2
VIEW
 70
     0
  0
ENDTAB
  0
TABLE
  2
UCS
 70
     0
  0
ENDTAB
  0
TABLE
  2
APPID
 70
     2
  0
APPID
  2
ACAD
 70
     0
  0
APPID
  2
TCAD
 70
     0
  0
ENDTAB
  0
TABLE
  2
DIMSTYLE
 70
     1
  0
DIMSTYLE
  2
STANDARD
 70
     0
  3

  4

  5

  6

  7

 40
1.0
 41
0.18
 42
0.0625
 43
0.38
 44
0.18
 45
0.0
 46
0.0
 47
0.0
 48
0.0
140
0.18
141
0.09
142
0.0
143
25.399999999999999
144
1.0
145
0.0
146
1.0
147
0.09
 71
     0
 72
     0
 73
     1
 74
     1
 75
     0
 76
     0
 77
     0
 78
     0
170
     0
171
     2
172
     0
173
     0
174
     0
175
     0
176
     0
177
     0
178
     0
  0
ENDTAB
  0
ENDSEC
  0
SECTION
  2
BLOCKS
  0
BLOCK
  8
0
  2
$MODEL_SPACE
 70
     0
 10
0.0
 20
0.0
 30
0.0
  3
$MODEL_SPACE
  1

  0
ENDBLK
  5
3F
  8
0
  0
BLOCK
 67
     1
  8
0
  2
$PAPER_SPACE
 70
     0
 10
0.0
 20
0.0
 30
0.0
  3
$PAPER_SPACE
  1

  0
ENDBLK
  5
3D
 67
     1
  8
0
  0
ENDSEC
  0
SECTION
  2
ENTITIES
  0
LINE
  5
B29
  8
0
 62
     4
 10
227.0
 20
109.0
 30
0.0
 11
227.0
 21
765.00000000000023
 31
0.0
  0
LINE
  5
B2A
  8
0
 62
     4
 10
1107.0
 20
109.0
 30
0.0
 11
227.0
 21
109.0
 31
0.0
  0
LINE
  5
B2E
  8
0
 62
     4
 10
227.0
 20
765.00000000000023
 30
0.0
 11
1107.0
 21
764.99999999999977
 31
0.0
  0
LINE
  5
B2F
  8
0
 62
     4
 10
1107.0
 20
764.99999999999977
 30
0.0
 11
1107.0
 21
109.0
 31
0.0
  0
CIRCLE
  5
B32
  8
0
  6
CONTINUOUS
 10
668.88154535456874
 20
202.16549170834909
 30
0.0
 40
46.999999999999829
  0
CIRCLE
  5
B33
  8
0
  6
CONTINUOUS
 10
668.88154535456874
 20
662.28425325470403
 30
0.0
 40
46.999999999999829
  0
POLYLINE
  5
B34
  8
0
  6
CONTINUOUS
 66
     1
 10
0.0
 20
0.0
 30
0.0
  0
VERTEX
  5
13CF
  8
0
  6
CONTINUOUS
 10
729.38154535456874
 20
177.1654917083489
 30
0.0
 42
0.0851703918331015
  0
VERTEX
  5
13D0
  8
0
  6
CONTINUOUS
 10
728.3495453545695
 20
183.1654917083489
 30
0.0
 42
0.3910851735909245
  0
VERTEX
  5
13D1
  8
0
  6
CONTINUOUS
 10
728.81861232916538
 20
187.1404917083492
 30
0.0
  0
SEQEND
  5
13D2
  8
0
  6
CONTINUOUS
  0
LINE
  5
B39
  8
0
  6
CONTINUOUS
 10
729.38154535456874
 20
168.16549170834881
 30
0.0
 11
729.38154535456874
 21
186.1654917083489
 31
0.0
  0
LINE
  5
B3A
  8
0
  6
CONTINUOUS
 10
729.38154535456863
 20
696.28425325470403
 30
0.0
 11
729.38154535456863
 21
678.28425325470403
 31
0.0
  0
POLYLINE
  5
B3B
  8
0
  6
CONTINUOUS
 66
     1
 10
0.0
 20
0.0
 30
0.0
  0
VERTEX
  5
13D3
  8
0
  6
CONTINUOUS
 10
729.38154535456863
 20
687.28425325470403
 30
0.0
 42
-0.0851703918331015
  0
VERTEX
  5
13D4
  8
0
  6
CONTINUOUS
 10
728.34954535456927
 20
681.28425325470403
 30
0.0
 42
-0.3910851735909245
  0
VERTEX
  5
13D5
  8
0
  6
CONTINUOUS
 10
728.81861232916526
 20
677.30925325470355
 30
0.0
  0
SEQEND
  5
13D6
  8
0
  6
CONTINUOUS
  0
LINE
  5
B40
  8
CENTER
  6
CENTER
 10
1010.3831482243839
 20
383.79026524222462
 30
0.0
 11
1041.383148224385
 21
383.79026524222462
 31
0.0
  0
CIRCLE
  5
B41
  8
0
  6
CONTINUOUS
 10
1025.8831482243841
 20
383.79026524222462
 30
0.0
 40
9.5
  0
POLYLINE
  5
B42
  8
0
  6
CONTINUOUS
 66
     1
 10
0.0
 20
0.0
 30
0.0
 70
     1
  0
VERTEX
  5
13D7
  8
0
  6
CONTINUOUS
 10
1020.398320667083
 20
393.29026524222462
 30
0.0
  0
VERTEX
  5
13D8
  8
0
  6
CONTINUOUS
 10
1014.9134931097821
 20
383.79026524222462
 30
0.0
  0
VERTEX
  5
13D9
  8
0
  6
CONTINUOUS
 10
1020.398320667083
 20
374.29026524222462
 30
0.0
  0
VERTEX
  5
13DA
  8
0
  6
CONTINUOUS
 10
1031.367975781686
 20
374.29026524222462
 30
0.0
  0
VERTEX
  5
13DB
  8
0
  6
CONTINUOUS
 10
1036.8528033389871
 20
383.79026524222462
 30
0.0
  0
VERTEX
  5
13DC
  8
0
  6
CONTINUOUS
 10
1031.367975781686
 20
393.29026524222462
 30
0.0
  0
SEQEND
  5
13DD
  8
0
  6
CONTINUOUS
  0
LINE
  5
B4A
  8
DIM
  6
CONTINUOUS
 10
483.36423189075049
 20
323.29026524222468
 30
0.0
 11
856.3888043142988
 21
323.29026524222468
 31
0.0
  0
LINE
  5
B4B
  8
DIM
  6
CONTINUOUS
 10
619.38154535456874
 20
331.29026524222462
 30
0.0
 11
718.38154535456874
 21
331.29026524222462
 31
0.0
  0
LINE
  5
B4C
  8
DIM
  6
CONTINUOUS
 10
623.88154535456874
 20
339.29026524222462
 30
0.0
 11
713.88154535456874
 21
339.29026524222462
 31
0.0
  0
LINE
  5
B4D
  8
DIM
  6
CONTINUOUS
 10
675.49242997862621
 20
664.46538739345135
 30
0.0
 11
753.80929484939884
 21
680.12189364726339
 31
0.0
  0
LINE
  5
B4E
  8
DIM
  6
CONTINUOUS
 10
630.88154535456874
 20
721.78425325470403
 30
0.0
 11
706.88154535456874
 21
721.78425325470403
 31
0.0
  0
CIRCLE
  5
B4F
  8
CENTER
  6
CENTER
 10
668.88154535456874
 20
202.16549170834909
 30
0.0
 40
39.0
  0
LINE
  5
B50
  8
CENTER
  6
CENTER
 10
488.3815453545688
 20
238.16549170834901
 30
0.0
 11
849.38154535456874
 21
238.16549170834901
 31
0.0
  0
LINE
  5
B51
  8
CENTER
  6
CENTER
 10
494.3815453545688
 20
202.16549170834901
 30
0.0
 11
843.38154535456886
 21
202.16549170834909
 31
0.0
  0
LINE
  5
B52
  8
0
 10
616.38154535456874
 20
150.66549170834901
 30
0.0
 11
721.38154535456874
 21
150.66549170834909
 31
0.0
  0
LINE
  5
B53
  8
0
 10
616.38154535456874
 20
285.66549170834901
 30
0.0
 11
721.38154535456874
 21
285.66549170834901
 31
0.0
  0
CIRCLE
  5
B54
  8
0
  6
CONTINUOUS
 10
668.88154535456874
 20
202.16549170834909
 30
0.0
 40
47.999999999999822
  0
CIRCLE
  5
B55
  8
CENTER
  6
CENTER
 10
668.88154535456874
 20
662.28425325470403
 30
0.0
 40
39.0
  0
CIRCLE
  5
B56
  8
0
  6
CONTINUOUS
 10
668.88154535456874
 20
662.28425325470403
 30
0.0
 40
47.999999999999822
  0
LINE
  5
B57
  8
0
 10
616.38154535456874
 20
578.78425325470403
 30
0.0
 11
721.38154535456874
 21
578.78425325470403
 31
0.0
  0
LINE
  5
B58
  8
0
 10
616.38154535456874
 20
713.78425325470403
 30
0.0
 11
721.38154535456874
 21
713.78425325470391
 31
0.0
  0
LINE
  5
B59
  8
0
 10
620.88154535456874
 20
465.29026524222462
 30
0.0
 11
716.88154535456874
 21
465.29026524222462
 31
0.0
  0
LINE
  5
B5A
  8
0
 10
620.88154535456874
 20
348.29026524222451
 30
0.0
 11
716.88154535456874
 21
348.29026524222451
 31
0.0
  0
LINE
  5
B5B
  8
0
 10
621.88154535456874
 20
347.29026524222462
 30
0.0
 11
715.88154535456874
 21
347.29026524222451
 31
0.0
  0
LINE
  5
B5C
  8
0
 10
621.88154535456874
 20
466.29026524222462
 30
0.0
 11
715.88154535456874
 21
466.29026524222462
 31
0.0
  0
LINE
  5
B5D
  8
0
 10
616.38154535456874
 20
359.29026524222451
 30
0.0
 11
721.38154535456874
 21
359.29026524222451
 31
0.0
  0
LINE
  5
B5E
  8
0
 10
616.38154535456874
 20
454.29026524222451
 30
0.0
 11
721.38154535456874
 21
454.29026524222451
 31
0.0
  0
LINE
  5
B5F
  8
CENTER
  6
CENTER
 10
488.38154535456869
 20
406.79026524222462
 30
0.0
 11
849.38154535456874
 21
406.79026524222462
 31
0.0
  0
LINE
  5
B60
  8
CENTER
  6
CENTER
 10
488.3815453545688
 20
626.28425325470403
 30
0.0
 11
849.38154535456874
 21
626.28425325470403
 31
0.0
  0
LINE
  5
B61
  8
CENTER
  6
CENTER
 10
494.3815453545688
 20
662.28425325470403
 30
0.0
 11
843.38154535456886
 21
662.28425325470403
 31
0.0
  0
LINE
  5
B62
  8
0
 10
535.38154535456874
 20
359.29026524222451
 30
0.0
 11
535.38154535456874
 21
454.29026524222451
 31
0.0
  0
LINE
  5
B63
  8
0
 10
497.38154535456869
 20
359.54026524222451
 30
0.0
 11
497.38154535456869
 21
454.04026524222451
 31
0.0
  0
LINE
  5
B64
  8
0
 10
616.38154535456874
 20
454.29026524222451
 30
0.0
 11
616.38154535456874
 21
359.29026524222451
 31
0.0
  0
LINE
  5
B65
  8
CENTER
  6
CENTER
 10
668.88154535456874
 20
520.29026524222445
 30
0.0
 11
668.88154535456874
 21
344.29026524222451
 31
0.0
  0
LINE
  5
B66
  8
CENTER
  6
CENTER
 10
627.88154535456874
 20
233.16549170834909
 30
0.0
 11
627.88154535456874
 21
253.16549170834901
 31
0.0
  0
LINE
  5
B67
  8
CENTER
  6
CENTER
 10
668.88154535456874
 20
147.66549170834901
 30
0.0
 11
668.88154535456874
 21
288.66549170834901
 31
0.0
  0
LINE
  5
B68
  8
0
 10
535.38154535456874
 20
190.66549170834909
 30
0.0
 11
535.38154535456874
 21
285.6654917083489
 31
0.0
  0
LINE
  5
B69
  8
0
 10
497.38154535456891
 20
190.91549170834909
 30
0.0
 11
497.38154535456891
 21
285.4154917083489
 31
0.0
  0
LINE
  5
B6A
  8
0
 10
491.3815453545688
 20
216.66549170834909
 30
0.0
 11
491.3815453545688
 21
259.6654917083489
 31
0.0
  0
LINE
  5
B6B
  8
0
 10
616.38154535456874
 20
150.66549170834901
 30
0.0
 11
616.38154535456874
 21
285.66549170834901
 31
0.0
  0
CIRCLE
  5
B6C
  8
0
  6
CONTINUOUS
 10
627.88154535456874
 20
243.16549170834901
 30
0.0
 40
4.25
  0
ARC
  5
B6D
  8
0
  6
CONTINUOUS
 62
     2
 10
627.88154535456874
 20
243.16549170834901
 30
0.0
 40
5.0
 50
244.7996045918776
 51
198.70934735560601
  0
LINE
  5
B6E
  8
0
 62
     7
 10
616.38154535456874
 20
213.52927019296831
 30
0.0
 11
535.38154535456874
 21
213.52927019296831
 31
0.0
  0
LINE
  5
B6F
  8
0
 10
616.38154535456874
 20
194.66549170834909
 30
0.0
 11
535.38154535456874
 21
194.66549170834909
 31
0.0
  0
LINE
  5
B70
  8
0
 10
535.38154535456874
 20
190.66549170834909
 30
0.0
 11
497.38154535456891
 21
190.91549170834909
 31
0.0
  0
LINE
  5
B71
  8
HIDDEN
  6
HIDDEN
 10
503.38154535456891
 20
197.16549170834909
 30
0.0
 11
503.38154535456891
 21
207.16549170834909
 31
0.0
  0
LINE
  5
B72
  8
HIDDEN
  6
HIDDEN
 10
519.38154535456886
 20
197.16549170834909
 30
0.0
 11
519.38154535456886
 21
207.16549170834909
 31
0.0
  0
LINE
  5
B73
  8
HIDDEN
  6
HIDDEN
 10
497.38154535456891
 20
197.16549170834909
 30
0.0
 11
519.38154535456886
 21
197.16549170834909
 31
0.0
  0
LINE
  5
B74
  8
HIDDEN
  6
HIDDEN
 10
497.38154535456891
 20
207.16549170834909
 30
0.0
 11
519.38154535456886
 21
207.16549170834909
 31
0.0
  0
ARC
  5
B75
  8
0
 10
492.3815453545688
 20
216.66549170834909
 30
0.0
 40
1.0
 50
180.0
 51
270.0
  0
LINE
  5
B76
  8
0
 10
492.3815453545688
 20
215.66549170834909
 30
0.0
 11
497.38154535456891
 21
215.66549170834909
 31
0.0
  0
LINE
  5
B77
  8
HIDDEN
  6
HIDDEN
 10
503.38154535456891
 20
206.41549170834909
 30
0.0
 11
522.38154535456886
 21
206.41549170834909
 31
0.0
  0
LINE
  5
B78
  8
HIDDEN
  6
HIDDEN
 10
503.38154535456891
 20
197.91549170834909
 30
0.0
 11
522.38154535456886
 21
197.91549170834909
 31
0.0
  0
LINE
  5
B79
  8
HIDDEN
  6
HIDDEN
 10
522.38154535456886
 20
197.91549170834901
 30
0.0
 11
524.83528399862473
 21
202.16549170834909
 31
0.0
  0
LINE
  5
B7A
  8
HIDDEN
  6
HIDDEN
 10
522.38154535456886
 20
206.41549170834909
 30
0.0
 11
524.83528399862485
 21
202.16549170834909
 31
0.0
  0
LINE
  5
B7B
  8
HIDDEN
  6
HIDDEN
 10
522.38154535456886
 20
197.91549170834909
 30
0.0
 11
522.38154535456886
 21
206.41549170834909
 31
0.0
  0
LINE
  5
B7C
  8
CENTER
  6
CENTER
 10
617.88154535456874
 20
161.16549170834901
 30
0.0
 11
637.88154535456874
 21
161.16549170834901
 31
0.0
  0
LINE
  5
B7D
  8
CENTER
  6
CENTER
 10
617.88154535456874
 20
243.16549170834901
 30
0.0
 11
637.88154535456874
 21
243.16549170834901
 31
0.0
  0
LINE
  5
B7E
  8
CENTER
  6
CENTER
 10
635.64752663880097
 20
168.93147299258121
 30
0.0
 11
646.96123513778571
 21
180.245181491566
 31
0.0
  0
ARC
  5
B7F
  8
0
  6
CONTINUOUS
 62
     2
 10
641.30438088829339
 20
174.5883272420736
 30
0.0
 40
4.0
 50
202.52441221510509
 51
149.4972103453143
  0
CIRCLE
  5
B80
  8
0
  6
CONTINUOUS
 10
641.30438088829339
 20
174.5883272420736
 30
0.0
 40
3.399999999999999
  0
LINE
  5
B81
  8
CENTER
  6
CENTER
 10
627.88154535456874
 20
151.16549170834901
 30
0.0
 11
627.88154535456874
 21
171.16549170834901
 31
0.0
  0
ARC
  5
B82
  8
0
  6
CONTINUOUS
 62
     2
 10
627.88154535456874
 20
161.16549170834901
 30
0.0
 40
5.0
 50
244.7996045918789
 51
198.70934735560601
  0
CIRCLE
  5
B83
  8
0
  6
CONTINUOUS
 10
627.88154535456874
 20
161.16549170834901
 30
0.0
 40
4.25
  0
LINE
  5
B84
  8
0
 10
616.38154535456874
 20
281.66549170834901
 30
0.0
 11
535.38154535456874
 21
281.66549170834901
 31
0.0
  0
LINE
  5
B85
  8
0
 62
     7
 10
616.38154535456874
 20
262.80171322372962
 30
0.0
 11
535.38154535456874
 21
262.80171322372962
 31
0.0
  0
LINE
  5
B86
  8
CENTER
  6
CENTER
 10
494.3815453545688
 20
274.16549170834878
 30
0.0
 11
616.38154535456874
 21
274.1654917083489
 31
0.0
  0
LINE
  5
B87
  8
0
 10
616.38154535456874
 20
363.29026524222451
 30
0.0
 11
535.38154535456874
 21
363.29026524222451
 31
0.0
  0
LINE
  5
B88
  8
0
 62
     7
 10
616.38154535456874
 20
382.15404372684372
 30
0.0
 11
535.38154535456874
 21
382.15404372684378
 31
0.0
  0
LINE
  5
B89
  8
0
 62
     7
 10
616.38154535456874
 20
431.42648675760529
 30
0.0
 11
535.38154535456874
 21
431.42648675760529
 31
0.0
  0
LINE
  5
B8A
  8
CENTER
  6
CENTER
 10
494.38154535456869
 20
442.79026524222451
 30
0.0
 11
616.38154535456874
 21
442.79026524222451
 31
0.0
  0
LINE
  5
B8B
  8
CENTER
  6
CENTER
 10
494.38154535456869
 20
370.79026524222451
 30
0.0
 11
616.38154535456874
 21
370.79026524222451
 31
0.0
  0
LINE
  5
B8C
  8
DIM
  6
CONTINUOUS
 10
491.38154535456869
 20
383.01387047740849
 30
0.0
 11
491.38154535456869
 21
322.29026524222462
 31
0.0
  0
LINE
  5
B8D
  8
DIM
  6
CONTINUOUS
 10
497.38154535456869
 20
358.54026524222451
 30
0.0
 11
497.38154535456869
 21
322.29026524222462
 31
0.0
  0
LINE
  5
B8E
  8
0
 10
535.38154535456874
 20
285.6654917083489
 30
0.0
 11
497.38154535456891
 21
285.4154917083489
 31
0.0
  0
LINE
  5
B8F
  8
CENTER
  6
CENTER
 10
528.38154535456874
 20
270.60933825470431
 30
0.0
 11
528.38154535456874
 21
290.78024769757519
 31
0.0
  0
LINE
  5
B90
  8
CENTER
  6
CENTER
 10
516.38154535456874
 20
271.13882371320989
 30
0.0
 11
516.38154535456874
 21
290.1767576678111
 31
0.0
  0
LINE
  5
B91
  8
HIDDEN
  6
HIDDEN
 10
497.38154535456891
 20
279.1654917083489
 30
0.0
 11
519.38154535456886
 21
279.16549170834901
 31
0.0
  0
LINE
  5
B92
  8
HIDDEN
  6
HIDDEN
 10
497.38154535456891
 20
269.16549170834901
 30
0.0
 11
519.38154535456886
 21
269.1654917083489
 31
0.0
  0
ARC
  5
B93
  8
0
 10
492.3815453545688
 20
259.6654917083489
 30
0.0
 40
1.0
 50
90.0
 51
180.0
  0
LINE
  5
B94
  8
0
 10
492.3815453545688
 20
260.6654917083489
 30
0.0
 11
497.38154535456891
 21
260.6654917083489
 31
0.0
  0
LINE
  5
B95
  8
HIDDEN
  6
HIDDEN
 10
503.38154535456891
 20
278.4154917083489
 30
0.0
 11
522.38154535456886
 21
278.41549170834901
 31
0.0
  0
LINE
  5
B96
  8
HIDDEN
  6
HIDDEN
 10
503.38154535456891
 20
269.9154917083489
 30
0.0
 11
522.38154535456886
 21
269.9154917083489
 31
0.0
  0
LINE
  5
B97
  8
HIDDEN
  6
HIDDEN
 10
503.38154535456891
 20
279.1654917083489
 30
0.0
 11
503.38154535456891
 21
269.16549170834901
 31
0.0
  0
LINE
  5
B98
  8
HIDDEN
  6
HIDDEN
 10
519.38154535456886
 20
279.16549170834901
 30
0.0
 11
519.38154535456886
 21
269.16549170834901
 31
0.0
  0
LINE
  5
B99
  8
HIDDEN
  6
HIDDEN
 10
522.38154535456886
 20
278.41549170834912
 30
0.0
 11
524.83528399862473
 21
274.16549170834901
 31
0.0
  0
LINE
  5
B9A
  8
HIDDEN
  6
HIDDEN
 10
522.38154535456886
 20
278.41549170834901
 30
0.0
 11
522.38154535456886
 21
269.9154917083489
 31
0.0
  0
LINE
  5
B9B
  8
HIDDEN
  6
HIDDEN
 10
522.38154535456886
 20
269.9154917083489
 30
0.0
 11
524.83528399862485
 21
274.16549170834901
 31
0.0
  0
SOLID
  5
B9C
  8
DIM
  6
CONTINUOUS
 10
500.38154535456869
 20
323.79026524222462
 30
0.0
 11
500.38154535456869
 21
322.79026524222462
 31
0.0
 12
497.38154535456869
 22
323.29026524222468
 32
0.0
 13
497.38154535456869
 23
323.29026524222468
 33
0.0
  0
SOLID
  5
B9D
  8
DIM
  6
CONTINUOUS
 10
488.38154535456869
 20
323.79026524222462
 30
0.0
 11
488.38154535456869
 21
322.79026524222462
 31
0.0
 12
491.38154535456869
 22
323.29026524222468
 32
0.0
 13
491.38154535456869
 23
323.29026524222468
 33
0.0
  0
TEXT
  5
B9E
  8
DIM
  6
CONTINUOUS
 10
484.75315245079412
 20
324.79026524222462
 30
0.0
 40
3.0
  1
6
  7
ROMANSS
 72
     1
 11
485.68172387936551
 21
326.29026524222462
 31
0.0
 73
     2
  0
LINE
  5
BA0
  8
0
 10
535.38154535456874
 20
359.29026524222451
 30
0.0
 11
497.38154535456869
 21
359.54026524222451
 31
0.0
  0
LINE
  5
BA1
  8
0
  6
CONTINUOUS
 10
532.93996733947222
 20
418.84472113309891
 30
0.0
 11
531.63154535456874
 21
418.08930334790119
 31
0.0
  0
LINE
  5
BA2
  8
0
  6
CONTINUOUS
 10
531.63154535456874
 20
415.49122713654782
 30
0.0
 11
532.93996733947222
 21
414.73580935135021
 31
0.0
  0
LINE
  5
BA3
  8
CENTER
  6
CENTER
 10
535.38154535456874
 20
416.79026524222451
 30
0.0
 11
521.38154535456874
 21
416.79026524222451
 31
0.0
  0
CIRCLE
  5
BA4
  8
0
 10
528.38154535456874
 20
416.79026524222451
 30
0.0
 40
5.0
  0
CIRCLE
  5
BA5
  8
0
 10
528.38154535456874
 20
416.79026524222451
 30
0.0
 40
5.2999999999999989
  0
CIRCLE
  5
BA6
  8
0
 10
516.38154535456874
 20
399.79026524222451
 30
0.0
 40
5.5
  0
CIRCLE
  5
BA7
  8
0
 10
516.38154535456874
 20
399.79026524222451
 30
0.0
 40
7.5
  0
ARC
  5
BA8
  8
0
 62
     2
 10
516.38154535456874
 20
399.79026524222451
 30
0.0
 40
8.3000000000000007
 50
77.189608741317514
 51
29.609685868556721
  0
LINE
  5
BA9
  8
0
 10
491.38154535456869
 20
385.29026524222451
 30
0.0
 11
491.38154535456869
 21
428.29026524222451
 31
0.0
  0
LINE
  5
BAA
  8
CENTER
  6
CENTER
 10
516.38154535456874
 20
385.29026524222451
 30
0.0
 11
516.38154535456874
 21
414.29026524222451
 31
0.0
  0
CIRCLE
  5
BAB
  8
0
 10
516.38154535456874
 20
399.79026524222451
 30
0.0
 40
11.5
  0
LINE
  5
BAC
  8
HIDDEN
  6
HIDDEN
 10
497.38154535456869
 20
365.79026524222451
 30
0.0
 11
519.38154535456874
 21
365.79026524222451
 31
0.0
  0
LINE
  5
BAD
  8
HIDDEN
  6
HIDDEN
 10
497.38154535456869
 20
375.79026524222451
 30
0.0
 11
519.38154535456874
 21
375.79026524222451
 31
0.0
  0
ARC
  5
BAE
  8
0
 10
492.38154535456869
 20
385.29026524222451
 30
0.0
 40
1.0
 50
180.0
 51
270.0
  0
LINE
  5
BAF
  8
0
 10
492.38154535456869
 20
384.29026524222451
 30
0.0
 11
497.38154535456869
 21
384.29026524222451
 31
0.0
  0
LINE
  5
BB0
  8
HIDDEN
  6
HIDDEN
 10
503.38154535456869
 20
375.04026524222451
 30
0.0
 11
522.38154535456874
 21
375.04026524222451
 31
0.0
  0
LINE
  5
BB1
  8
HIDDEN
  6
HIDDEN
 10
503.38154535456869
 20
366.54026524222451
 30
0.0
 11
522.38154535456874
 21
366.54026524222451
 31
0.0
  0
LINE
  5
BB2
  8
HIDDEN
  6
HIDDEN
 10
503.38154535456869
 20
365.79026524222451
 30
0.0
 11
503.38154535456869
 21
375.79026524222451
 31
0.0
  0
LINE
  5
BB3
  8
HIDDEN
  6
HIDDEN
 10
519.38154535456874
 20
365.79026524222451
 30
0.0
 11
519.38154535456874
 21
375.79026524222451
 31
0.0
  0
LINE
  5
BB4
  8
HIDDEN
  6
HIDDEN
 10
522.38154535456874
 20
366.54026524222439
 30
0.0
 11
524.83528399862462
 21
370.79026524222451
 31
0.0
  0
LINE
  5
BB5
  8
HIDDEN
  6
HIDDEN
 10
522.38154535456874
 20
366.54026524222451
 30
0.0
 11
522.38154535456874
 21
375.04026524222451
 31
0.0
  0
LINE
  5
BB6
  8
HIDDEN
  6
HIDDEN
 10
522.38154535456874
 20
375.04026524222451
 30
0.0
 11
524.83528399862485
 21
370.79026524222439
 31
0.0
  0
LINE
  5
BB7
  8
CENTER
  6
CENTER
 10
530.88154535456874
 20
399.79026524222451
 30
0.0
 11
501.88154535456869
 21
399.79026524222451
 31
0.0
  0
LINE
  5
BB8
  8
HIDDEN
  6
HIDDEN
 10
497.38154535456869
 20
447.79026524222451
 30
0.0
 11
519.38154535456874
 21
447.79026524222451
 31
0.0
  0
LINE
  5
BB9
  8
HIDDEN
  6
HIDDEN
 10
497.38154535456869
 20
437.79026524222451
 30
0.0
 11
519.38154535456874
 21
437.79026524222451
 31
0.0
  0
ARC
  5
BBA
  8
0
 10
492.38154535456869
 20
428.29026524222451
 30
0.0
 40
1.0
 50
90.0
 51
180.0
  0
LINE
  5
BBB
  8
0
 10
492.38154535456869
 20
429.29026524222451
 30
0.0
 11
497.38154535456869
 21
429.29026524222451
 31
0.0
  0
ARC
  5
BBC
  8
0
  6
CONTINUOUS
 10
528.38154535456874
 20
416.79026524222451
 30
0.0
 40
3.5
 50
218.21321070173829
 51
261.78678929826179
  0
ARC
  5
BBD
  8
0
  6
CONTINUOUS
 10
528.38154535456874
 20
416.79026524222451
 30
0.0
 40
3.5
 50
278.21321070173809
 51
321.78678929826242
  0
LINE
  5
BBE
  8
CENTER
  6
CENTER
 10
528.38154535456874
 20
409.79026524222451
 30
0.0
 11
528.38154535456874
 21
423.79026524222462
 31
0.0
  0
LINE
  5
BBF
  8
0
  6
CONTINUOUS
 10
527.88154535456874
 20
411.81532805669138
 30
0.0
 11
527.88154535456874
 21
413.32616362708683
 31
0.0
  0
LINE
  5
BC0
  8
0
  6
CONTINUOUS
 10
528.88154535456874
 20
411.81532805669138
 30
0.0
 11
528.88154535456874
 21
413.32616362708683
 31
0.0
  0
LINE
  5
BC1
  8
0
  6
CONTINUOUS
 10
523.82312336966515
 20
418.84472113309891
 30
0.0
 11
525.13154535456874
 21
418.08930334790119
 31
0.0
  0
LINE
  5
BC2
  8
0
  6
CONTINUOUS
 10
525.13154535456874
 20
415.49122713654782
 30
0.0
 11
523.82312336966515
 21
414.73580935135021
 31
0.0
  0
LINE
  5
BC3
  8
0
  6
CONTINUOUS
 10
524.32312336966515
 20
419.71074653688328
 30
0.0
 11
525.63154535456874
 21
418.95532875168561
 31
0.0
  0
LINE
  5
BC4
  8
0
  6
CONTINUOUS
 10
525.63154535456874
 20
414.6252017327634
 30
0.0
 11
524.32312336966515
 21
413.86978394756579
 31
0.0
  0
ARC
  5
BC5
  8
0
  6
CONTINUOUS
 10
528.38154535456874
 20
416.79026524222451
 30
0.0
 40
3.5
 50
158.2132107017386
 51
201.78678929826131
  0
LINE
  5
BC6
  8
0
  6
CONTINUOUS
 10
532.43996733947233
 20
419.71074653688328
 30
0.0
 11
531.13154535456874
 21
418.95532875168561
 31
0.0
  0
ARC
  5
BC7
  8
0
  6
CONTINUOUS
 10
528.38154535456874
 20
416.79026524222451
 30
0.0
 40
3.5
 50
338.21321070173769
 51
21.786789298262239
  0
LINE
  5
BC8
  8
0
  6
CONTINUOUS
 10
531.13154535456874
 20
414.6252017327634
 30
0.0
 11
532.43996733947233
 21
413.86978394756579
 31
0.0
  0
CIRCLE
  5
BC9
  8
0
  6
CONTINUOUS
 10
528.38154535456874
 20
416.79026524222451
 30
0.0
 40
2.5
  0
POLYLINE
  5
BCA
  8
0
  6
CONTINUOUS
 66
     1
 10
0.0
 20
0.0
 30
0.0
 70
     1
  0
VERTEX
  5
13DE
  8
0
  6
CONTINUOUS
 10
529.24757075835305
 20
415.29026524222462
 30
0.0
  0
VERTEX
  5
13DF
  8
0
  6
CONTINUOUS
 10
530.11359616213747
 20
416.79026524222451
 30
0.0
  0
VERTEX
  5
13E0
  8
0
  6
CONTINUOUS
 10
529.24757075835305
 20
418.29026524222451
 30
0.0
  0
VERTEX
  5
13E1
  8
0
  6
CONTINUOUS
 10
527.51551995078421
 20
418.29026524222451
 30
0.0
  0
VERTEX
  5
13E2
  8
0
  6
CONTINUOUS
 10
526.64949454699979
 20
416.79026524222451
 30
0.0
  0
VERTEX
  5
13E3
  8
0
  6
CONTINUOUS
 10
527.51551995078421
 20
415.29026524222462
 30
0.0
  0
SEQEND
  5
13E4
  8
0
  6
CONTINUOUS
  0
LINE
  5
BD2
  8
0
  6
CONTINUOUS
 10
527.88154535456874
 20
420.2543668573623
 30
0.0
 11
527.88154535456874
 21
421.76520242775757
 31
0.0
  0
LINE
  5
BD3
  8
0
  6
CONTINUOUS
 10
528.88154535456874
 20
420.2543668573623
 30
0.0
 11
528.88154535456874
 21
421.76520242775757
 31
0.0
  0
ARC
  5
BD4
  8
0
  6
CONTINUOUS
 10
528.38154535456874
 20
416.79026524222451
 30
0.0
 40
3.5
 50
38.213210701738312
 51
81.786789298261766
  0
ARC
  5
BD5
  8
0
  6
CONTINUOUS
 10
528.38154535456874
 20
416.79026524222451
 30
0.0
 40
3.5
 50
98.213210701738234
 51
141.7867892982616
  0
LINE
  5
BD6
  8
HIDDEN
  6
HIDDEN
 10
503.38154535456869
 20
447.04026524222451
 30
0.0
 11
522.38154535456874
 21
447.04026524222451
 31
0.0
  0
LINE
  5
BD7
  8
HIDDEN
  6
HIDDEN
 10
503.38154535456869
 20
438.54026524222462
 30
0.0
 11
522.38154535456874
 21
438.54026524222462
 31
0.0
  0
LINE
  5
BD8
  8
HIDDEN
  6
HIDDEN
 10
503.38154535456869
 20
447.79026524222451
 30
0.0
 11
503.38154535456869
 21
437.79026524222451
 31
0.0
  0
LINE
  5
BD9
  8
HIDDEN
  6
HIDDEN
 10
522.38154535456874
 20
438.54026524222462
 30
0.0
 11
524.83528399862485
 21
442.79026524222462
 31
0.0
  0
LINE
  5
BDA
  8
HIDDEN
  6
HIDDEN
 10
522.38154535456874
 20
447.04026524222462
 30
0.0
 11
524.83528399862462
 21
442.79026524222451
 31
0.0
  0
LINE
  5
BDB
  8
HIDDEN
  6
HIDDEN
 10
519.38154535456874
 20
447.79026524222451
 30
0.0
 11
519.38154535456874
 21
437.79026524222451
 31
0.0
  0
LINE
  5
BDC
  8
HIDDEN
  6
HIDDEN
 10
522.38154535456874
 20
447.04026524222451
 30
0.0
 11
522.38154535456874
 21
438.54026524222462
 31
0.0
  0
LINE
  5
BDD
  8
DIM
  6
CONTINUOUS
 10
616.38154535456874
 20
358.29026524222451
 30
0.0
 11
616.38154535456874
 21
330.29026524222462
 31
0.0
  0
LINE
  5
BDE
  8
0
 10
620.88154535456874
 20
359.29026524222451
 30
0.0
 11
620.88154535456874
 21
348.29026524222468
 31
0.0
  0
SOLID
  5
BDF
  8
DIM
  6
CONTINUOUS
 10
623.88154535456874
 20
339.79026524222462
 30
0.0
 11
623.88154535456874
 21
338.79026524222462
 31
0.0
 12
620.88154535456874
 22
339.29026524222462
 32
0.0
 13
620.88154535456874
 23
339.29026524222462
 33
0.0
  0
LINE
  5
BE0
  8
0
 10
620.88154535456874
 20
348.29026524222468
 30
0.0
 11
621.88154535456874
 21
347.29026524222462
 31
0.0
  0
SOLID
  5
BE1
  8
DIM
  6
CONTINUOUS
 10
619.38154535456874
 20
331.79026524222468
 30
0.0
 11
619.38154535456874
 21
330.79026524222462
 31
0.0
 12
616.38154535456874
 22
331.29026524222462
 32
0.0
 13
616.38154535456874
 23
331.29026524222462
 33
0.0
  0
LINE
  5
BE2
  8
DIM
  6
CONTINUOUS
 10
620.88154535456874
 20
347.29026524222462
 30
0.0
 11
620.88154535456874
 21
338.29026524222462
 31
0.0
  0
LINE
  5
BE3
  8
0
  6
CONTINUOUS
 10
721.38154535456874
 20
188.11549170834959
 30
0.0
 11
728.25567930376042
 21
188.11549170834959
 31
0.0
  0
LINE
  5
BE4
  8
CENTER
  6
CENTER
 10
643.88154535456874
 20
271.09778343163401
 30
0.0
 11
643.88154535456874
 21
299.66549170834901
 31
0.0
  0
LINE
  5
BE5
  8
0
  6
CONTINUOUS
 10
632.93154535456802
 20
285.66549170834901
 30
0.0
 11
632.93154535456802
 21
292.53962565754068
 31
0.0
  0
LINE
  5
BE6
  8
0
  6
CONTINUOUS
 10
654.83154535456936
 20
285.66549170834901
 30
0.0
 11
654.83154535456936
 21
292.53962565754068
 31
0.0
  0
LINE
  5
BE7
  8
0
  6
CONTINUOUS
 10
637.88154535456874
 20
285.66549170834901
 30
0.0
 11
637.88154535456874
 21
292.63349170834982
 31
0.0
  0
LINE
  5
BE8
  8
0
  6
CONTINUOUS
 10
649.88154535456874
 20
285.66549170834901
 30
0.0
 11
649.88154535456874
 21
292.63349170834982
 31
0.0
  0
LINE
  5
BE9
  8
0
  6
CONTINUOUS
 10
654.83154535456936
 20
292.53962565754068
 30
0.0
 11
652.88154535456874
 21
293.66549170834901
 31
0.0
  0
LINE
  5
BEA
  8
0
  6
CONTINUOUS
 10
634.88154535456874
 20
293.66549170834901
 30
0.0
 11
652.88154535456874
 21
293.66549170834901
 31
0.0
  0
POLYLINE
  5
BEB
  8
0
  6
CONTINUOUS
 66
     1
 10
0.0
 20
0.0
 30
0.0
  0
VERTEX
  5
13E5
  8
0
  6
CONTINUOUS
 10
643.88154535456874
 20
293.66549170834901
 30
0.0
 42
0.0851703918331015
  0
VERTEX
  5
13E6
  8
0
  6
CONTINUOUS
 10
637.88154535456874
 20
292.63349170834982
 30
0.0
 42
0.3910851735909245
  0
VERTEX
  5
13E7
  8
0
  6
CONTINUOUS
 10
633.90654535456838
 20
293.10255868294581
 30
0.0
  0
SEQEND
  5
13E8
  8
0
  6
CONTINUOUS
  0
LINE
  5
BF0
  8
0
  6
CONTINUOUS
 10
632.93154535456802
 20
292.53962565754068
 30
0.0
 11
634.88154535456874
 21
293.66549170834901
 31
0.0
  0
LINE
  5
BF1
  8
0
  6
CONTINUOUS
 10
637.88154535456874
 20
294.66549170834901
 30
0.0
 11
649.88154535456874
 21
294.66549170834918
 31
0.0
  0
LINE
  5
BF2
  8
0
  6
CONTINUOUS
 10
639.88154535456874
 20
296.66549170834901
 30
0.0
 11
647.88154535456874
 21
296.66549170834901
 31
0.0
  0
POLYLINE
  5
BF3
  8
0
  6
CONTINUOUS
 66
     1
 10
0.0
 20
0.0
 30
0.0
  0
VERTEX
  5
13E9
  8
0
  6
CONTINUOUS
 10
643.88154535456874
 20
293.66549170834901
 30
0.0
 42
-0.0851703918331015
  0
VERTEX
  5
13EA
  8
0
  6
CONTINUOUS
 10
649.88154535456874
 20
292.63349170834982
 30
0.0
 42
-0.3910851735909245
  0
VERTEX
  5
13EB
  8
0
  6
CONTINUOUS
 10
653.85654535456899
 20
293.10255868294581
 30
0.0
  0
SEQEND
  5
13EC
  8
0
  6
CONTINUOUS
  0
LINE
  5
BF8
  8
0
  6
CONTINUOUS
 62
     2
 10
639.08154535456947
 20
293.66549170834912
 30
0.0
 11
639.08154535456947
 21
295.86549170834979
 31
0.0
  0
LINE
  5
BF9
  8
0
  6
CONTINUOUS
 10
637.88154535456874
 20
293.66549170834901
 30
0.0
 11
637.88154535456874
 21
294.66549170834901
 31
0.0
  0
LINE
  5
BFA
  8
0
  6
CONTINUOUS
 10
637.88154535456874
 20
294.66549170834901
 30
0.0
 11
639.88154535456874
 21
296.66549170834901
 31
0.0
  0
LINE
  5
BFB
  8
0
  6
CONTINUOUS
 10
649.88154535456874
 20
293.66549170834901
 30
0.0
 11
649.88154535456874
 21
294.66549170834901
 31
0.0
  0
LINE
  5
BFC
  8
0
  6
CONTINUOUS
 62
     2
 10
648.68154535456802
 20
293.66549170834912
 30
0.0
 11
648.68154535456802
 21
295.86549170834979
 31
0.0
  0
LINE
  5
BFD
  8
0
  6
CONTINUOUS
 10
649.88154535456874
 20
294.66549170834901
 30
0.0
 11
647.88154535456874
 21
296.66549170834901
 31
0.0
  0
TEXT
  5
BFE
  8
DIM
  6
CONTINUOUS
 10
665.02440249742585
 20
324.79026524222462
 30
0.0
 40
3.0
  1
343
  7
ROMANSS
 72
     1
 11
668.88154535456874
 21
326.29026524222462
 31
0.0
 73
     2
  0
LINE
  5
BFF
  8
0
  6
CONTINUOUS
 10
728.25567930376042
 20
188.11549170834959
 30
0.0
 11
729.38154535456874
 21
186.1654917083489
 31
0.0
  0
TEXT
  5
C00
  8
DIM
  6
CONTINUOUS
 10
665.31011678314007
 20
332.79026524222462
 30
0.0
 40
3.0
  1
105
  7
ROMANSS
 72
     1
 11
668.88154535456874
 21
334.29026524222462
 31
0.0
 73
     2
  0
TEXT
  5
C01
  8
DIM
  6
CONTINUOUS
 10
665.16725964028296
 20
340.79026524222462
 30
0.0
 40
3.0
  1
%%c96
  7
ROMANSS
 72
     1
 11
668.88154535456874
 21
342.29026524222468
 31
0.0
 73
     2
  0
POLYLINE
  5
C02
  8
0
  6
CONTINUOUS
 66
     1
 10
0.0
 20
0.0
 30
0.0
 70
     1
  0
VERTEX
  5
13ED
  8
0
  6
CONTINUOUS
 10
638.39671779726723
 20
393.29026524222451
 30
0.0
  0
VERTEX
  5
13EE
  8
0
  6
CONTINUOUS
 10
632.91189023996583
 20
383.79026524222451
 30
0.0
  0
VERTEX
  5
13EF
  8
0
  6
CONTINUOUS
 10
638.39671779726723
 20
374.29026524222451
 30
0.0
  0
VERTEX
  5
13F0
  8
0
  6
CONTINUOUS
 10
649.36637291187014
 20
374.29026524222451
 30
0.0
  0
VERTEX
  5
13F1
  8
0
  6
CONTINUOUS
 10
654.85120046917154
 20
383.79026524222451
 30
0.0
  0
VERTEX
  5
13F2
  8
0
  6
CONTINUOUS
 10
649.36637291187014
 20
393.29026524222451
 30
0.0
  0
SEQEND
  5
13F3
  8
0
  6
CONTINUOUS
  0
LINE
  5
C0A
  8
CENTER
  6
CENTER
 10
628.38154535456874
 20
383.79026524222451
 30
0.0
 11
659.38154535456874
 21
383.79026524222451
 31
0.0
  0
ARC
  5
C0B
  8
0
  6
CONTINUOUS
 62
     2
 10
643.88154535456874
 20
383.79026524222451
 30
0.0
 40
5.0999999999999988
 50
162.22254855360339
 51
111.813746502519
  0
CIRCLE
  5
C0C
  8
0
  6
CONTINUOUS
 10
643.88154535456874
 20
383.79026524222451
 30
0.0
 40
6.0
  0
CIRCLE
  5
C0D
  8
0
  6
CONTINUOUS
 10
643.88154535456874
 20
383.79026524222451
 30
0.0
 40
9.5
  0
LINE
  5
C0E
  8
CENTER
  6
CENTER
 10
643.88154535456874
 20
399.29026524222451
 30
0.0
 11
643.88154535456874
 21
368.29026524222451
 31
0.0
  0
POLYLINE
  5
C0F
  8
0
  6
CONTINUOUS
 66
     1
 10
0.0
 20
0.0
 30
0.0
 70
     1
  0
VERTEX
  5
13F4
  8
0
  6
CONTINUOUS
 10
642.14949454700059
 20
386.79026524222451
 30
0.0
  0
VERTEX
  5
13F5
  8
0
  6
CONTINUOUS
 10
640.4174437394305
 20
383.79026524222451
 30
0.0
  0
VERTEX
  5
13F6
  8
0
  6
CONTINUOUS
 10
642.14949454700059
 20
380.79026524222451
 30
0.0
  0
VERTEX
  5
13F7
  8
0
  6
CONTINUOUS
 10
645.61359616213679
 20
380.79026524222451
 30
0.0
  0
VERTEX
  5
13F8
  8
0
  6
CONTINUOUS
 10
647.34564696970688
 20
383.79026524222451
 30
0.0
  0
VERTEX
  5
13F9
  8
0
  6
CONTINUOUS
 10
645.61359616213679
 20
386.79026524222451
 30
0.0
  0
SEQEND
  5
13FA
  8
0
  6
CONTINUOUS
  0
CIRCLE
  5
C17
  8
0
  6
CONTINUOUS
 10
668.88154535456874
 20
406.79026524222462
 30
0.0
 40
4.0
  0
POLYLINE
  5
C18
  8
0
  6
CONTINUOUS
 66
     1
 10
0.0
 20
0.0
 30
0.0
 70
     1
 40
1.0
 41
1.0
  0
VERTEX
  5
13FB
  8
0
  6
CONTINUOUS
 10
669.38154535456874
 20
406.79026524222462
 30
0.0
 42
1.0
  0
VERTEX
  5
13FC
  8
0
  6
CONTINUOUS
 10
668.38154535456874
 20
406.79026524222462
 30
0.0
 42
1.0
  0
SEQEND
  5
13FD
  8
0
  6
CONTINUOUS
  0
CIRCLE
  5
C1C
  8
0
  6
CONTINUOUS
 10
668.88154535456874
 20
662.28425325470403
 30
0.0
 40
13.00000000000005
  0
SOLID
  5
C1D
  8
DIM
  6
CONTINUOUS
 10
643.38154535456886
 20
655.28425325470403
 30
0.0
 11
644.38154535456874
 21
655.28425325470403
 31
0.0
 12
643.88154535456874
 22
658.28425325470403
 32
0.0
 13
643.88154535456874
 23
658.28425325470403
 33
0.0
  0
LINE
  5
C1E
  8
0
 10
497.38154535456891
 20
673.53425325470403
 30
0.0
 11
497.38154535456891
 21
579.03425325470414
 31
0.0
  0
LINE
  5
C1F
  8
0
 10
535.38154535456874
 20
673.78425325470403
 30
0.0
 11
535.38154535456874
 21
578.78425325470414
 31
0.0
  0
CIRCLE
  5
C20
  8
0
  6
CONTINUOUS
 10
668.88154535456874
 20
662.28425325470403
 30
0.0
 40
17.5
  0
CIRCLE
  5
C21
  8
0
  6
CONTINUOUS
 10
668.88154535456874
 20
662.28425325470403
 30
0.0
 40
14.00000000000005
  0
LINE
  5
C22
  8
0
 10
616.38154535456874
 20
713.78425325470403
 30
0.0
 11
616.38154535456874
 21
578.78425325470403
 31
0.0
  0
LINE
  5
C23
  8
CENTER
  6
CENTER
 10
668.88154535456874
 20
719.24472595733573
 30
0.0
 11
668.88154535456874
 21
575.78425325470403
 31
0.0
  0
LINE
  5
C24
  8
0
 10
616.38154535456874
 20
582.78425325470403
 30
0.0
 11
535.38154535456874
 21
582.78425325470403
 31
0.0
  0
LINE
  5
C25
  8
0
 62
     7
 10
616.38154535456874
 20
601.6480317393233
 30
0.0
 11
535.38154535456874
 21
601.6480317393233
 31
0.0
  0
LINE
  5
C26
  8
0
 62
     7
 10
616.38154535456874
 20
650.92047477008475
 30
0.0
 11
535.38154535456874
 21
650.92047477008475
 31
0.0
  0
LINE
  5
C27
  8
0
 10
616.38154535456874
 20
450.29026524222462
 30
0.0
 11
535.38154535456874
 21
450.29026524222462
 31
0.0
  0
LINE
  5
C28
  8
CENTER
  6
CENTER
 10
494.3815453545688
 20
590.28425325470425
 30
0.0
 11
616.38154535456874
 21
590.28425325470414
 31
0.0
  0
LINE
  5
C29
  8
0
 10
535.38154535456874
 20
454.29026524222451
 30
0.0
 11
497.38154535456869
 21
454.04026524222451
 31
0.0
  0
LINE
  5
C2A
  8
0
 10
535.38154535456874
 20
578.78425325470414
 30
0.0
 11
497.38154535456891
 21
579.03425325470414
 31
0.0
  0
LINE
  5
C2B
  8
0
 10
491.3815453545688
 20
647.78425325470403
 30
0.0
 11
491.3815453545688
 21
604.78425325470414
 31
0.0
  0
LINE
  5
C2C
  8
HIDDEN
  6
HIDDEN
 10
497.38154535456891
 20
585.28425325470414
 30
0.0
 11
519.38154535456886
 21
585.28425325470403
 31
0.0
  0
LINE
  5
C2D
  8
HIDDEN
  6
HIDDEN
 10
497.38154535456891
 20
595.28425325470403
 30
0.0
 11
519.38154535456886
 21
595.28425325470414
 31
0.0
  0
ARC
  5
C2E
  8
0
 10
492.3815453545688
 20
604.78425325470414
 30
0.0
 40
1.0
 50
180.0
 51
270.0
  0
LINE
  5
C2F
  8
0
 10
492.3815453545688
 20
603.78425325470414
 30
0.0
 11
497.38154535456891
 21
603.78425325470414
 31
0.0
  0
LINE
  5
C30
  8
HIDDEN
  6
HIDDEN
 10
503.38154535456891
 20
585.28425325470414
 30
0.0
 11
503.38154535456891
 21
595.28425325470403
 31
0.0
  0
LINE
  5
C31
  8
CENTER
  6
CENTER
 10
516.38154535456874
 20
592.77619406179701
 30
0.0
 11
516.38154535456886
 21
573.45747845894505
 31
0.0
  0
LINE
  5
C32
  8
CENTER
  6
CENTER
 10
528.38154535456874
 20
592.76398937518582
 30
0.0
 11
528.38154535456874
 21
573.66949726547784
 31
0.0
  0
LINE
  5
C33
  8
HIDDEN
  6
HIDDEN
 10
519.38154535456886
 20
585.28425325470403
 30
0.0
 11
519.38154535456886
 21
595.28425325470403
 31
0.0
  0
LINE
  5
C34
  8
HIDDEN
  6
HIDDEN
 10
522.38154535456886
 20
586.03425325470391
 30
0.0
 11
524.83528399862473
 21
590.28425325470391
 31
0.0
  0
LINE
  5
C35
  8
HIDDEN
  6
HIDDEN
 10
522.38154535456886
 20
586.03425325470403
 30
0.0
 11
522.38154535456886
 21
594.53425325470414
 31
0.0
  0
LINE
  5
C36
  8
HIDDEN
  6
HIDDEN
 10
503.38154535456891
 20
586.03425325470414
 30
0.0
 11
522.38154535456886
 21
586.03425325470403
 31
0.0
  0
LINE
  5
C37
  8
HIDDEN
  6
HIDDEN
 10
503.38154535456891
 20
594.53425325470414
 30
0.0
 11
522.38154535456886
 21
594.53425325470414
 31
0.0
  0
LINE
  5
C38
  8
HIDDEN
  6
HIDDEN
 10
522.38154535456886
 20
594.53425325470414
 30
0.0
 11
524.83528399862485
 21
590.28425325470391
 31
0.0
  0
ARC
  5
C39
  8
0
 10
492.3815453545688
 20
647.78425325470403
 30
0.0
 40
1.0
 50
90.0
 51
180.0
  0
LINE
  5
C3A
  8
0
 10
492.3815453545688
 20
648.78425325470403
 30
0.0
 11
497.38154535456891
 21
648.78425325470403
 31
0.0
  0
LINE
  5
C3B
  8
DIM
  6
CONTINUOUS
 10
650.38154535456874
 20
467.29026524222462
 30
0.0
 11
599.38154535456874
 21
467.29026524222462
 31
0.0
  0
LINE
  5
C3C
  8
DIM
  6
CONTINUOUS
 10
654.88154535456874
 20
517.29026524222445
 30
0.0
 11
599.38154535456874
 21
517.29026524222445
 31
0.0
  0
LINE
  5
C3D
  8
DIM
  6
CONTINUOUS
 10
650.88154535456874
 20
469.79026524222462
 30
0.0
 11
607.38154535456874
 21
469.79026524222462
 31
0.0
  0
LINE
  5
C3E
  8
DIM
  6
CONTINUOUS
 10
650.88154535456874
 20
514.79026524222445
 30
0.0
 11
607.38154535456874
 21
514.79026524222445
 31
0.0
  0
LINE
  5
C3F
  8
0
 10
621.88154535456874
 20
466.29026524222462
 30
0.0
 11
620.88154535456874
 21
465.29026524222462
 31
0.0
  0
LINE
  5
C40
  8
DIM
  6
CONTINUOUS
 10
600.38154535456874
 20
514.29026524222445
 30
0.0
 11
600.38154535456874
 21
459.35729908476361
 31
0.0
  0
LINE
  5
C41
  8
DIM
  6
CONTINUOUS
 10
608.38154535456874
 20
511.79026524222451
 30
0.0
 11
608.38154535456874
 21
472.79026524222451
 31
0.0
  0
SOLID
  5
C42
  8
DIM
  6
CONTINUOUS
 10
607.88154535456874
 20
472.79026524222451
 30
0.0
 11
608.88154535456874
 21
472.79026524222451
 31
0.0
 12
608.38154535456874
 22
469.79026524222462
 32
0.0
 13
608.38154535456874
 23
469.79026524222462
 33
0.0
  0
LINE
  5
C43
  8
DIM
  6
CONTINUOUS
 10
620.82467853335515
 20
466.29026524222462
 30
0.0
 11
599.38154535456874
 21
466.29026524222462
 31
0.0
  0
TEXT
  5
C44
  8
DIM
  6
CONTINUOUS
 10
598.88154535456874
 20
460.98114012589951
 30
0.0
 40
3.0
  1
1
 50
90.0
  7
ROMANSS
 72
     1
 11
597.38154535456874
 21
461.3382829830424
 31
0.0
 73
     2
  0
SOLID
  5
C45
  8
DIM
  6
CONTINUOUS
 10
599.88154535456874
 20
463.29026524222462
 30
0.0
 11
600.88154535456874
 21
463.29026524222462
 31
0.0
 12
600.38154535456874
 22
466.29026524222462
 32
0.0
 13
600.38154535456874
 23
466.29026524222462
 33
0.0
  0
SOLID
  5
C46
  8
DIM
  6
CONTINUOUS
 10
599.88154535456874
 20
470.29026524222462
 30
0.0
 11
600.88154535456874
 21
470.29026524222462
 31
0.0
 12
600.38154535456874
 22
467.29026524222462
 32
0.0
 13
600.38154535456874
 23
467.29026524222462
 33
0.0
  0
LINE
  5
C47
  8
0
 10
620.88154535456874
 20
465.29026524222462
 30
0.0
 11
620.88154535456874
 21
454.29026524222451
 31
0.0
  0
TEXT
  5
C48
  8
DIM
  6
CONTINUOUS
 10
606.88154535456874
 20
489.86169381365312
 30
0.0
 40
3.0
  1
45
 50
90.0
  7
ROMANSS
 72
     1
 11
605.38154535456874
 21
492.29026524222451
 31
0.0
 73
     2
  0
TEXT
  5
C49
  8
DIM
  6
CONTINUOUS
 10
598.88154535456874
 20
489.86169381365318
 30
0.0
 40
3.0
  1
50
 50
90.0
  7
ROMANSS
 72
     1
 11
597.38154535456874
 21
492.29026524222462
 31
0.0
 73
     2
  0
SOLID
  5
C4A
  8
DIM
  6
CONTINUOUS
 10
599.88154535456874
 20
514.29026524222445
 30
0.0
 11
600.88154535456874
 21
514.29026524222445
 31
0.0
 12
600.38154535456874
 22
517.29026524222445
 32
0.0
 13
600.38154535456874
 23
517.29026524222445
 33
0.0
  0
SOLID
  5
C4B
  8
DIM
  6
CONTINUOUS
 10
607.88154535456874
 20
511.79026524222451
 30
0.0
 11
608.88154535456874
 21
511.79026524222451
 31
0.0
 12
608.38154535456874
 22
514.79026524222445
 32
0.0
 13
608.38154535456874
 23
514.79026524222445
 33
0.0
  0
LINE
  5
C4C
  8
0
 10
651.88154535456874
 20
514.79026524222445
 30
0.0
 11
651.88154535456874
 21
469.79026524222462
 31
0.0
  0
LINE
  5
C4D
  8
0
 10
654.88154535456874
 20
516.29026524222445
 30
0.0
 11
654.88154535456874
 21
467.29026524222462
 31
0.0
  0
LINE
  5
C4E
  8
0
 10
682.88154535456874
 20
516.29026524222445
 30
0.0
 11
682.88154535456874
 21
467.29026524222462
 31
0.0
  0
LINE
  5
C4F
  8
0
 10
651.88154535456874
 20
469.79026524222462
 30
0.0
 11
654.88154535456874
 21
469.79026524222462
 31
0.0
  0
LINE
  5
C50
  8
0
 10
651.38154535456874
 20
467.29026524222462
 30
0.0
 11
686.38154535456874
 21
467.29026524222462
 31
0.0
  0
LINE
  5
C51
  8
0
 10
651.38154535456874
 20
467.29026524222462
 30
0.0
 11
651.38154535456874
 21
466.29026524222462
 31
0.0
  0
LINE
  5
C52
  8
0
 10
686.38154535456874
 20
467.29026524222462
 30
0.0
 11
686.38154535456874
 21
466.29026524222462
 31
0.0
  0
SOLID
  5
C53
  8
DIM
  6
CONTINUOUS
 10
654.88154535456874
 20
533.79026524222445
 30
0.0
 11
654.88154535456874
 21
532.79026524222445
 31
0.0
 12
651.88154535456874
 22
533.29026524222445
 32
0.0
 13
651.88154535456874
 23
533.29026524222445
 33
0.0
  0
LINE
  5
C54
  8
0
 10
651.88154535456874
 20
514.79026524222445
 30
0.0
 11
654.88154535456874
 21
514.79026524222445
 31
0.0
  0
LINE
  5
C55
  8
DIM
  6
CONTINUOUS
 10
651.88154535456874
 20
515.79026524222445
 30
0.0
 11
651.88154535456874
 21
534.29026524222445
 31
0.0
  0
LINE
  5
C56
  8
DIM
  6
CONTINUOUS
 10
682.88154535456874
 20
517.29026524222445
 30
0.0
 11
682.88154535456874
 21
534.29026524222445
 31
0.0
  0
LINE
  5
C57
  8
DIM
  6
CONTINUOUS
 10
654.88154535456874
 20
517.29026524222445
 30
0.0
 11
654.88154535456874
 21
526.29026524222445
 31
0.0
  0
LINE
  5
C58
  8
DIM
  6
CONTINUOUS
 10
682.88154535456874
 20
517.29026524222445
 30
0.0
 11
682.88154535456874
 21
526.29026524222445
 31
0.0
  0
LINE
  5
C59
  8
0
 10
654.88154535456874
 20
516.29026524222456
 30
0.0
 11
682.88154535456874
 21
516.29026524222445
 31
0.0
  0
LINE
  5
C5A
  8
0
 10
655.88154535456874
 20
517.29026524222445
 30
0.0
 11
681.88154535456874
 21
517.29026524222445
 31
0.0
  0
LINE
  5
C5B
  8
0
 10
655.88154535456874
 20
517.29026524222445
 30
0.0
 11
654.88154535456874
 21
516.29026524222445
 31
0.0
  0
LINE
  5
C5C
  8
0
 10
681.88154535456874
 20
517.29026524222445
 30
0.0
 11
682.88154535456874
 21
516.29026524222445
 31
0.0
  0
LINE
  5
C5D
  8
DIM
  6
CONTINUOUS
 10
679.88154535456874
 20
533.29026524222445
 30
0.0
 11
654.88154535456874
 21
533.29026524222445
 31
0.0
  0
TEXT
  5
C5E
  8
DIM
  6
CONTINUOUS
 10
662.38154535456874
 20
526.79026524222445
 30
0.0
 40
3.0
  1
%%c28h6
  7
ROMANSS
 72
     1
 11
668.88154535456874
 21
528.29026524222445
 31
0.0
 73
     2
  0
LINE
  5
C5F
  8
DIM
  6
CONTINUOUS
 10
679.88154535456874
 20
525.29026524222445
 30
0.0
 11
657.88154535456874
 21
525.29026524222445
 31
0.0
  0
SOLID
  5
C60
  8
DIM
  6
CONTINUOUS
 10
657.88154535456874
 20
525.79026524222445
 30
0.0
 11
657.88154535456874
 21
524.79026524222445
 31
0.0
 12
654.88154535456874
 22
525.29026524222445
 32
0.0
 13
654.88154535456874
 23
525.29026524222445
 33
0.0
  0
TEXT
  5
C61
  8
DIM
  6
CONTINUOUS
 10
665.59583106885441
 20
534.79026524222445
 30
0.0
 40
3.0
  1
31
  7
ROMANSS
 72
     1
 11
667.38154535456874
 21
536.29026524222456
 31
0.0
 73
     2
  0
SOLID
  5
C62
  8
DIM
  6
CONTINUOUS
 10
679.88154535456874
 20
525.79026524222445
 30
0.0
 11
679.88154535456874
 21
524.79026524222445
 31
0.0
 12
682.88154535456874
 22
525.29026524222445
 32
0.0
 13
682.88154535456874
 23
525.29026524222445
 33
0.0
  0
SOLID
  5
C63
  8
DIM
  6
CONTINUOUS
 10
679.88154535456874
 20
533.79026524222445
 30
0.0
 11
679.88154535456874
 21
532.79026524222445
 31
0.0
 12
682.88154535456874
 22
533.29026524222445
 32
0.0
 13
682.88154535456874
 23
533.29026524222445
 33
0.0
  0
LINE
  5
C64
  8
CENTER
  6
CENTER
 10
617.88154535456874
 20
621.28425325470403
 30
0.0
 11
637.88154535456874
 21
621.28425325470403
 31
0.0
  0
LINE
  5
C65
  8
0
  6
CONTINUOUS
 10
654.83154535456936
 20
571.91011930551235
 30
0.0
 11
652.88154535456874
 21
570.78425325470403
 31
0.0
  0
LINE
  5
C66
  8
CENTER
  6
CENTER
 10
643.88154535456874
 20
593.35196153141908
 30
0.0
 11
643.88154535456874
 21
564.78425325470403
 31
0.0
  0
LINE
  5
C67
  8
0
  6
CONTINUOUS
 10
634.88154535456874
 20
570.78425325470403
 30
0.0
 11
652.88154535456874
 21
570.78425325470403
 31
0.0
  0
POLYLINE
  5
C68
  8
0
  6
CONTINUOUS
 66
     1
 10
0.0
 20
0.0
 30
0.0
  0
VERTEX
  5
13FE
  8
0
  6
CONTINUOUS
 10
643.88154535456874
 20
570.78425325470403
 30
0.0
 42
-0.0851703918331015
  0
VERTEX
  5
13FF
  8
0
  6
CONTINUOUS
 10
637.88154535456874
 20
571.81625325470316
 30
0.0
 42
-0.3910851735909245
  0
VERTEX
  5
1400
  8
0
  6
CONTINUOUS
 10
633.90654535456838
 20
571.34718628010717
 30
0.0
  0
SEQEND
  5
1401
  8
0
  6
CONTINUOUS
  0
LINE
  5
C6D
  8
0
  6
CONTINUOUS
 10
632.93154535456802
 20
578.78425325470403
 30
0.0
 11
632.93154535456802
 21
571.91011930551235
 31
0.0
  0
LINE
  5
C6E
  8
0
  6
CONTINUOUS
 10
632.93154535456802
 20
571.91011930551235
 30
0.0
 11
634.88154535456874
 21
570.78425325470403
 31
0.0
  0
LINE
  5
C6F
  8
0
  6
CONTINUOUS
 10
637.88154535456874
 20
578.78425325470403
 30
0.0
 11
637.88154535456874
 21
571.81625325470316
 31
0.0
  0
LINE
  5
C70
  8
0
  6
CONTINUOUS
 10
649.88154535456874
 20
578.78425325470403
 30
0.0
 11
649.88154535456874
 21
571.81625325470316
 31
0.0
  0
LINE
  5
C71
  8
0
  6
CONTINUOUS
 10
639.88154535456874
 20
567.78425325470403
 30
0.0
 11
647.88154535456874
 21
567.78425325470403
 31
0.0
  0
LINE
  5
C72
  8
0
  6
CONTINUOUS
 10
637.88154535456874
 20
569.78425325470403
 30
0.0
 11
649.88154535456874
 21
569.7842532547038
 31
0.0
  0
POLYLINE
  5
C73
  8
0
  6
CONTINUOUS
 66
     1
 10
0.0
 20
0.0
 30
0.0
  0
VERTEX
  5
1402
  8
0
  6
CONTINUOUS
 10
643.88154535456874
 20
570.78425325470403
 30
0.0
 42
0.0851703918331015
  0
VERTEX
  5
1403
  8
0
  6
CONTINUOUS
 10
649.88154535456874
 20
571.81625325470316
 30
0.0
 42
0.3910851735909245
  0
VERTEX
  5
1404
  8
0
  6
CONTINUOUS
 10
653.85654535456899
 20
571.34718628010717
 30
0.0
  0
SEQEND
  5
1405
  8
0
  6
CONTINUOUS
  0
LINE
  5
C78
  8
0
  6
CONTINUOUS
 10
637.88154535456874
 20
569.78425325470403
 30
0.0
 11
639.88154535456874
 21
567.78425325470403
 31
0.0
  0
LINE
  5
C79
  8
0
  6
CONTINUOUS
 10
637.88154535456874
 20
570.78425325470403
 30
0.0
 11
637.88154535456874
 21
569.78425325470403
 31
0.0
  0
LINE
  5
C7A
  8
0
  6
CONTINUOUS
 62
     2
 10
639.08154535456947
 20
570.78425325470391
 30
0.0
 11
639.08154535456947
 21
568.5842532547033
 31
0.0
  0
LINE
  5
C7B
  8
0
  6
CONTINUOUS
 10
649.88154535456874
 20
569.78425325470403
 30
0.0
 11
647.88154535456874
 21
567.78425325470403
 31
0.0
  0
LINE
  5
C7C
  8
0
  6
CONTINUOUS
 10
649.88154535456874
 20
570.78425325470403
 30
0.0
 11
649.88154535456874
 21
569.78425325470403
 31
0.0
  0
LINE
  5
C7D
  8
0
  6
CONTINUOUS
 62
     2
 10
648.68154535456802
 20
570.78425325470391
 30
0.0
 11
648.68154535456802
 21
568.5842532547033
 31
0.0
  0
LINE
  5
C7E
  8
0
  6
CONTINUOUS
 10
654.83154535456936
 20
578.78425325470403
 30
0.0
 11
654.83154535456936
 21
571.91011930551235
 31
0.0
  0
LINE
  5
C7F
  8
0
  6
CONTINUOUS
 10
721.38154535456863
 20
676.33425325470319
 30
0.0
 11
728.2556793037603
 21
676.33425325470319
 31
0.0
  0
LINE
  5
C80
  8
0
  6
CONTINUOUS
 10
728.2556793037603
 20
676.33425325470319
 30
0.0
 11
729.38154535456863
 21
678.28425325470403
 31
0.0
  0
CIRCLE
  5
C81
  8
0
  6
CONTINUOUS
 10
627.88154535456874
 20
621.28425325470403
 30
0.0
 40
4.25
  0
ARC
  5
C82
  8
0
  6
CONTINUOUS
 62
     2
 10
627.88154535456874
 20
621.28425325470403
 30
0.0
 40
5.0
 50
161.29065264439251
 51
115.2003954081225
  0
LINE
  5
C83
  8
CENTER
  6
CENTER
 10
627.88154535456874
 20
631.28425325470403
 30
0.0
 11
627.88154535456874
 21
611.28425325470403
 31
0.0
  0
LINE
  5
C84
  8
DIM
  6
CONTINUOUS
 10
643.88154535456874
 20
655.28425325470403
 30
0.0
 11
643.88154535456874
 21
652.28425325470403
 31
0.0
  0
LINE
  5
C85
  8
0
 10
616.38154535456874
 20
669.78425325470403
 30
0.0
 11
535.38154535456874
 21
669.78425325470403
 31
0.0
  0
LINE
  5
C86
  8
0
 10
535.38154535456874
 20
673.78425325470403
 30
0.0
 11
497.38154535456891
 21
673.53425325470403
 31
0.0
  0
LINE
  5
C87
  8
HIDDEN
  6
HIDDEN
 10
497.38154535456891
 20
667.28425325470403
 30
0.0
 11
519.38154535456886
 21
667.28425325470403
 31
0.0
  0
LINE
  5
C88
  8
HIDDEN
  6
HIDDEN
 10
497.38154535456891
 20
657.28425325470403
 30
0.0
 11
519.38154535456886
 21
657.28425325470403
 31
0.0
  0
LINE
  5
C89
  8
HIDDEN
  6
HIDDEN
 10
503.38154535456891
 20
658.03425325470403
 30
0.0
 11
522.38154535456886
 21
658.03425325470403
 31
0.0
  0
LINE
  5
C8A
  8
HIDDEN
  6
HIDDEN
 10
503.38154535456891
 20
666.53425325470403
 30
0.0
 11
522.38154535456886
 21
666.53425325470403
 31
0.0
  0
LINE
  5
C8B
  8
HIDDEN
  6
HIDDEN
 10
503.38154535456891
 20
667.28425325470403
 30
0.0
 11
503.38154535456891
 21
657.28425325470403
 31
0.0
  0
LINE
  5
C8C
  8
HIDDEN
  6
HIDDEN
 10
522.38154535456886
 20
666.53425325470414
 30
0.0
 11
524.83528399862473
 21
662.28425325470403
 31
0.0
  0
LINE
  5
C8D
  8
HIDDEN
  6
HIDDEN
 10
522.38154535456886
 20
658.03425325470403
 30
0.0
 11
524.83528399862485
 21
662.28425325470403
 31
0.0
  0
LINE
  5
C8E
  8
HIDDEN
  6
HIDDEN
 10
522.38154535456886
 20
666.53425325470403
 30
0.0
 11
522.38154535456886
 21
658.03425325470403
 31
0.0
  0
LINE
  5
C8F
  8
HIDDEN
  6
HIDDEN
 10
519.38154535456886
 20
667.28425325470403
 30
0.0
 11
519.38154535456886
 21
657.28425325470403
 31
0.0
  0
LINE
  5
C90
  8
CENTER
  6
CENTER
 10
617.88154535456874
 20
703.28425325470403
 30
0.0
 11
637.88154535456874
 21
703.28425325470403
 31
0.0
  0
SOLID
  5
C91
  8
DIM
  6
CONTINUOUS
 10
589.5880213800649
 20
665.27433124270465
 30
0.0
 11
588.58819783884314
 21
665.29311651403361
 31
0.0
 12
589.03175379546713
 22
662.28425325470403
 32
0.0
 13
589.03175379546713
 23
662.28425325470403
 33
0.0
  0
CIRCLE
  5
C92
  8
0
  6
CONTINUOUS
 10
627.88154535456874
 20
703.28425325470403
 30
0.0
 40
4.25
  0
ARC
  5
C93
  8
0
  6
CONTINUOUS
 62
     2
 10
627.88154535456874
 20
703.28425325470403
 30
0.0
 40
5.0
 50
161.29065264439421
 51
115.2003954081208
  0
LINE
  5
C94
  8
CENTER
  6
CENTER
 10
627.88154535456874
 20
713.28425325470403
 30
0.0
 11
627.88154535456874
 21
693.28425325470403
 31
0.0
  0
LINE
  5
C95
  8
0
 10
651.88154535456874
 20
658.28425325470403
 30
0.0
 11
655.46513748957
 21
658.28425325470403
 31
0.0
  0
LINE
  5
C96
  8
0
 10
651.88154535456874
 20
666.28425325470403
 30
0.0
 11
655.46513748957
 21
666.28425325470403
 31
0.0
  0
SOLID
  5
C97
  8
DIM
  6
CONTINUOUS
 10
643.38154535456886
 20
669.28425325470391
 30
0.0
 11
644.38154535456874
 21
669.28425325470391
 31
0.0
 12
643.88154535456874
 22
666.28425325470403
 32
0.0
 13
643.88154535456874
 23
666.28425325470403
 33
0.0
  0
LINE
  5
C98
  8
DIM
  6
CONTINUOUS
 10
650.88154535456874
 20
666.28425325470403
 30
0.0
 11
642.88154535456874
 21
666.28425325470403
 31
0.0
  0
LINE
  5
C99
  8
DIM
  6
CONTINUOUS
 10
650.88154535456874
 20
658.28425325470403
 30
0.0
 11
642.88154535456874
 21
658.28425325470403
 31
0.0
  0
LINE
  5
C9A
  8
DIM
  6
CONTINUOUS
 10
643.88154535456874
 20
658.28425325470403
 30
0.0
 11
643.88154535456874
 21
666.28425325470403
 31
0.0
  0
LINE
  5
C9B
  8
0
 10
651.88154535456874
 20
666.28425325470403
 30
0.0
 11
651.88154535456874
 21
658.28425325470403
 31
0.0
  0
TEXT
  5
C9C
  8
DIM
  6
CONTINUOUS
 10
642.38154535456874
 20
673.15925325470403
 30
0.0
 40
3.0
  1
8
 50
90.0
  7
ROMANSS
 72
     1
 11
640.88154535456874
 21
674.15925325470403
 31
0.0
 73
     2
  0
LINE
  5
C9D
  8
DIM
  6
CONTINUOUS
 10
643.88154535456874
 20
672.28425325470403
 30
0.0
 11
643.88154535456874
 21
675.03425325470403
 31
0.0
  0
LINE
  5
C9E
  8
DIM
  6
CONTINUOUS
 10
643.88154535456874
 20
669.28425325470391
 30
0.0
 11
643.88154535456874
 21
672.28425325470403
 31
0.0
  0
ARC
  5
C9F
  8
0
  6
CONTINUOUS
 62
     2
 10
641.30438088829339
 20
689.86141772097926
 30
0.0
 40
4.0
 50
210.50278965468681
 51
157.4755877848952
  0
LINE
  5
CA0
  8
CENTER
  6
CENTER
 10
635.64752663880097
 20
695.51827197047169
 30
0.0
 11
646.96123513778571
 21
684.20456347148695
 31
0.0
  0
CIRCLE
  5
CA1
  8
0
  6
CONTINUOUS
 10
641.30438088829339
 20
689.86141772097926
 30
0.0
 40
3.399999999999999
  0
CIRCLE
  5
CA2
  8
0
  6
CONTINUOUS
 10
668.88154535456874
 20
662.28425325470403
 30
0.0
 40
3.399999999999999
  0
ARC
  5
CA3
  8
0
  6
CONTINUOUS
 62
     2
 10
668.88154535456874
 20
662.28425325470403
 30
0.0
 40
4.0
 50
153.95518686272919
 51
110.5741396147375
  0
SOLID
  5
CA4
  8
DIM
  6
CONTINUOUS
 10
675.59044671051925
 20
663.97508879028305
 30
0.0
 11
675.39441324673305
 21
664.95568599661999
 31
0.0
 12
672.55063835961505
 22
663.87728700209323
 32
0.0
 13
672.55063835961505
 23
663.87728700209323
 33
0.0
  0
SOLID
  5
CA5
  8
DIM
  6
CONTINUOUS
 10
630.88154535456874
 20
722.28425325470403
 30
0.0
 11
630.88154535456874
 21
721.28425325470403
 31
0.0
 12
627.88154535456874
 22
721.78425325470403
 32
0.0
 13
627.88154535456874
 23
721.78425325470403
 33
0.0
  0
LINE
  5
CA6
  8
DIM
  6
CONTINUOUS
 10
627.88154535456874
 20
714.28425325470403
 30
0.0
 11
627.88154535456874
 21
722.78425325470403
 31
0.0
  0
TEXT
  5
CA7
  8
DIM
  6
CONTINUOUS
 10
666.4529739259973
 20
723.28425325470403
 30
0.0
 40
3.0
  1
82
  7
ROMANSS
 72
     1
 11
668.88154535456874
 21
724.78425325470403
 31
0.0
 73
     2
  0
TEXT
  5
CA8
  8
DIM
  6
CONTINUOUS
 10
606.4589963710597
 20
714.77894218506435
 30
0.0
 40
3.0
  1
90%%p5%%d
 50
45.000000000000007
  7
ROMANSS
 72
     1
 11
609.94402264976475
 21
720.38528880732895
 31
0.0
 73
     2
  0
LINE
  5
CA9
  8
DIM
  6
CONTINUOUS
 10
817.30441538186608
 20
424.32905092362262
 30
0.0
 11
799.70094762787471
 21
469.20718438254897
 31
0.0
  0
LINE
  5
CAA
  8
0
 10
721.38154535456874
 20
454.29026524222451
 30
0.0
 11
721.38154535456874
 21
359.29026524222451
 31
0.0
  0
LINE
  5
CAB
  8
0
 10
840.38154535456874
 20
454.04026524222451
 30
0.0
 11
840.38154535456874
 21
359.54026524222451
 31
0.0
  0
LINE
  5
CAC
  8
0
 10
802.38154535456874
 20
454.29026524222451
 30
0.0
 11
802.38154535456874
 21
359.29026524222451
 31
0.0
  0
LINE
  5
CAD
  8
0
 10
846.38154535456874
 20
216.66549170834909
 30
0.0
 11
846.38154535456874
 21
259.6654917083489
 31
0.0
  0
LINE
  5
CAE
  8
0
 10
840.38154535456874
 20
190.91549170834909
 30
0.0
 11
840.38154535456874
 21
285.4154917083489
 31
0.0
  0
LINE
  5
CAF
  8
0
 10
802.38154535456874
 20
190.66549170834909
 30
0.0
 11
802.38154535456874
 21
285.6654917083489
 31
0.0
  0
CIRCLE
  5
CB0
  8
0
  6
CONTINUOUS
 10
709.88154535456874
 20
243.16549170834901
 30
0.0
 40
4.25
  0
ARC
  5
CB1
  8
0
  6
CONTINUOUS
 62
     2
 10
709.88154535456874
 20
243.16549170834901
 30
0.0
 40
5.0
 50
244.7996045918776
 51
198.70934735560601
  0
LINE
  5
CB2
  8
CENTER
  6
CENTER
 10
709.88154535456874
 20
233.16549170834909
 30
0.0
 11
709.88154535456874
 21
253.16549170834901
 31
0.0
  0
LINE
  5
CB3
  8
0
 10
721.38154535456874
 20
150.66549170834909
 30
0.0
 11
721.38154535456874
 21
285.66549170834901
 31
0.0
  0
LINE
  5
CB4
  8
0
 62
     7
 10
721.38154535456874
 20
213.52927019296831
 30
0.0
 11
802.38154535456874
 21
213.52927019296831
 31
0.0
  0
LINE
  5
CB5
  8
0
 10
721.38154535456874
 20
194.66549170834909
 30
0.0
 11
802.38154535456874
 21
194.66549170834909
 31
0.0
  0
LINE
  5
CB6
  8
CENTER
  6
CENTER
 10
699.88154535456874
 20
161.16549170834901
 30
0.0
 11
719.88154535456874
 21
161.16549170834901
 31
0.0
  0
CIRCLE
  5
CB7
  8
0
  6
CONTINUOUS
 10
709.88154535456874
 20
161.16549170834901
 30
0.0
 40
4.25
  0
ARC
  5
CB8
  8
0
  6
CONTINUOUS
 62
     2
 10
709.88154535456874
 20
161.16549170834901
 30
0.0
 40
5.0
 50
244.7996045918789
 51
198.70934735560601
  0
LINE
  5
CB9
  8
CENTER
  6
CENTER
 10
709.88154535456874
 20
151.16549170834901
 30
0.0
 11
709.88154535456874
 21
171.16549170834901
 31
0.0
  0
LINE
  5
CBA
  8
CENTER
  6
CENTER
 10
699.88154535456874
 20
243.16549170834901
 30
0.0
 11
719.88154535456874
 21
243.16549170834901
 31
0.0
  0
LINE
  5
CBB
  8
CENTER
  6
CENTER
 10
690.80185557135178
 20
224.0858019251321
 30
0.0
 11
702.1155640703364
 21
235.39951042411681
 31
0.0
  0
CIRCLE
  5
CBC
  8
0
  6
CONTINUOUS
 10
696.45870982084409
 20
229.74265617462439
 30
0.0
 40
3.399999999999999
  0
ARC
  5
CBD
  8
0
  6
CONTINUOUS
 62
     2
 10
696.45870982084409
 20
229.74265617462439
 30
0.0
 40
4.0
 50
202.52441221510509
 51
149.4972103453143
  0
LINE
  5
CBE
  8
0
 10
845.38154535456863
 20
215.66549170834909
 30
0.0
 11
840.38154535456874
 21
215.66549170834909
 31
0.0
  0
LINE
  5
CBF
  8
HIDDEN
  6
HIDDEN
 10
834.38154535456874
 20
197.16549170834909
 30
0.0
 11
834.38154535456874
 21
207.16549170834909
 31
0.0
  0
LINE
  5
CC0
  8
HIDDEN
  6
HIDDEN
 10
818.38154535456874
 20
197.16549170834909
 30
0.0
 11
818.38154535456874
 21
207.16549170834909
 31
0.0
  0
LINE
  5
CC1
  8
0
 10
802.38154535456874
 20
190.66549170834909
 30
0.0
 11
840.38154535456874
 21
190.91549170834909
 31
0.0
  0
LINE
  5
CC2
  8
HIDDEN
  6
HIDDEN
 10
840.38154535456874
 20
197.16549170834909
 30
0.0
 11
818.38154535456874
 21
197.16549170834909
 31
0.0
  0
LINE
  5
CC3
  8
HIDDEN
  6
HIDDEN
 10
840.38154535456874
 20
207.16549170834909
 30
0.0
 11
818.38154535456874
 21
207.16549170834909
 31
0.0
  0
LINE
  5
CC4
  8
HIDDEN
  6
HIDDEN
 10
834.38154535456874
 20
197.91549170834909
 30
0.0
 11
815.38154535456874
 21
197.91549170834909
 31
0.0
  0
LINE
  5
CC5
  8
HIDDEN
  6
HIDDEN
 10
834.38154535456874
 20
206.41549170834909
 30
0.0
 11
815.38154535456874
 21
206.41549170834909
 31
0.0
  0
LINE
  5
CC6
  8
HIDDEN
  6
HIDDEN
 10
815.38154535456874
 20
206.41549170834909
 30
0.0
 11
812.92780671051264
 21
202.16549170834909
 31
0.0
  0
LINE
  5
CC7
  8
HIDDEN
  6
HIDDEN
 10
815.38154535456874
 20
197.91549170834901
 30
0.0
 11
812.92780671051287
 21
202.16549170834909
 31
0.0
  0
LINE
  5
CC8
  8
HIDDEN
  6
HIDDEN
 10
815.38154535456874
 20
197.91549170834909
 30
0.0
 11
815.38154535456874
 21
206.41549170834909
 31
0.0
  0
ARC
  5
CC9
  8
0
 10
845.38154535456863
 20
216.66549170834909
 30
0.0
 40
1.0
 50
270.0
 51
0.0
  0
LINE
  5
CCA
  8
0
 10
721.38154535456874
 20
281.66549170834901
 30
0.0
 11
802.38154535456874
 21
281.66549170834901
 31
0.0
  0
LINE
  5
CCB
  8
0
 62
     7
 10
721.38154535456874
 20
262.80171322372962
 30
0.0
 11
802.38154535456874
 21
262.80171322372962
 31
0.0
  0
LINE
  5
CCC
  8
CENTER
  6
CENTER
 10
721.38154535456874
 20
274.16549170834901
 30
0.0
 11
843.38154535456886
 21
274.16549170834901
 31
0.0
  0
LINE
  5
CCD
  8
CENTER
  6
CENTER
 10
843.38154535456874
 20
370.79026524222451
 30
0.0
 11
721.38154535456874
 21
370.79026524222451
 31
0.0
  0
LINE
  5
CCE
  8
CENTER
  6
CENTER
 10
843.38154535456874
 20
442.79026524222451
 30
0.0
 11
721.38154535456874
 21
442.79026524222451
 31
0.0
  0
LINE
  5
CCF
  8
0
 62
     7
 10
721.38154535456874
 20
431.42648675760552
 30
0.0
 11
802.38154535456874
 21
431.42648675760529
 31
0.0
  0
LINE
  5
CD0
  8
0
 62
     7
 10
721.38154535456874
 20
382.15404372684378
 30
0.0
 11
802.38154535456874
 21
382.15404372684378
 31
0.0
  0
LINE
  5
CD1
  8
0
 10
721.38154535456874
 20
363.29026524222439
 30
0.0
 11
802.38154535456874
 21
363.29026524222439
 31
0.0
  0
LINE
  5
CD2
  8
DIM
  6
CONTINUOUS
 10
721.38154535456874
 20
358.29026524222451
 30
0.0
 11
721.38154535456874
 21
330.29026524222462
 31
0.0
  0
LINE
  5
CD3
  8
0
 10
716.88154535456874
 20
359.29026524222451
 30
0.0
 11
716.88154535456874
 21
348.29026524222451
 31
0.0
  0
LINE
  5
CD4
  8
0
  6
CONTINUOUS
 10
721.38154535456874
 20
183.16549170834881
 30
0.0
 11
728.3495453545695
 21
183.16549170834881
 31
0.0
  0
LINE
  5
CD5
  8
0
  6
CONTINUOUS
 10
721.38154535456874
 20
171.16549170834881
 30
0.0
 11
728.3495453545695
 21
171.16549170834881
 31
0.0
  0
LINE
  5
CD6
  8
0
  6
CONTINUOUS
 10
721.38154535456874
 20
166.21549170834811
 30
0.0
 11
728.25567930376042
 21
166.21549170834811
 31
0.0
  0
LINE
  5
CD7
  8
CENTER
  6
CENTER
 10
706.81383707785369
 20
177.16549170834881
 30
0.0
 11
735.38154535456874
 21
177.16549170834881
 31
0.0
  0
SOLID
  5
CD8
  8
DIM
  6
CONTINUOUS
 10
718.38154535456874
 20
331.79026524222468
 30
0.0
 11
718.38154535456874
 21
330.79026524222462
 31
0.0
 12
721.38154535456874
 22
331.29026524222462
 32
0.0
 13
721.38154535456874
 23
331.29026524222462
 33
0.0
  0
POLYLINE
  5
CD9
  8
0
  6
CONTINUOUS
 66
     1
 10
0.0
 20
0.0
 30
0.0
  0
VERTEX
  5
1406
  8
0
  6
CONTINUOUS
 10
729.38154535456874
 20
177.1654917083489
 30
0.0
 42
-0.0851703918331015
  0
VERTEX
  5
1407
  8
0
  6
CONTINUOUS
 10
728.3495453545695
 20
171.1654917083489
 30
0.0
 42
-0.3910851735909245
  0
VERTEX
  5
1408
  8
0
  6
CONTINUOUS
 10
728.81861232916538
 20
167.1904917083485
 30
0.0
  0
SEQEND
  5
1409
  8
0
  6
CONTINUOUS
  0
LINE
  5
CDE
  8
0
  6
CONTINUOUS
 10
728.25567930376042
 20
166.21549170834811
 30
0.0
 11
729.38154535456874
 21
168.16549170834881
 31
0.0
  0
LINE
  5
CDF
  8
0
  6
CONTINUOUS
 10
732.38154535456874
 20
173.16549170834881
 30
0.0
 11
732.38154535456874
 21
181.1654917083489
 31
0.0
  0
LINE
  5
CE0
  8
0
  6
CONTINUOUS
 10
730.38154535456874
 20
171.16549170834881
 30
0.0
 11
730.38154535456874
 21
183.16549170834881
 31
0.0
  0
LINE
  5
CE1
  8
0
  6
CONTINUOUS
 10
730.38154535456874
 20
183.16549170834881
 30
0.0
 11
732.38154535456874
 21
181.1654917083489
 31
0.0
  0
LINE
  5
CE2
  8
0
  6
CONTINUOUS
 62
     2
 10
729.38154535456874
 20
181.96549170834811
 30
0.0
 11
731.58154535456936
 21
181.96549170834811
 31
0.0
  0
LINE
  5
CE3
  8
0
  6
CONTINUOUS
 10
729.38154535456874
 20
183.16549170834881
 30
0.0
 11
730.38154535456874
 21
183.16549170834881
 31
0.0
  0
LINE
  5
CE4
  8
0
  6
CONTINUOUS
 10
730.38154535456874
 20
171.16549170834881
 30
0.0
 11
732.38154535456874
 21
173.16549170834881
 31
0.0
  0
LINE
  5
CE5
  8
0
  6
CONTINUOUS
 10
729.38154535456874
 20
171.16549170834881
 30
0.0
 11
730.38154535456874
 21
171.16549170834881
 31
0.0
  0
LINE
  5
CE6
  8
0
  6
CONTINUOUS
 62
     2
 10
729.38154535456874
 20
172.36549170834959
 30
0.0
 11
731.58154535456936
 21
172.36549170834959
 31
0.0
  0
LINE
  5
CE7
  8
DIM
  6
CONTINUOUS
 10
716.88154535456874
 20
347.29026524222451
 30
0.0
 11
716.88154535456874
 21
338.29026524222462
 31
0.0
  0
SOLID
  5
CE8
  8
DIM
  6
CONTINUOUS
 10
713.88154535456874
 20
339.79026524222462
 30
0.0
 11
713.88154535456874
 21
338.79026524222462
 31
0.0
 12
716.88154535456874
 22
339.29026524222462
 32
0.0
 13
716.88154535456874
 23
339.29026524222462
 33
0.0
  0
LINE
  5
CE9
  8
0
 10
716.88154535456874
 20
348.29026524222451
 30
0.0
 11
715.88154535456874
 21
347.29026524222451
 31
0.0
  0
ARC
  5
CEA
  8
0
  6
CONTINUOUS
 62
     2
 10
1025.8831482243841
 20
383.79026524222462
 30
0.0
 40
5.0999999999999988
 50
162.22254855360339
 51
111.813746502519
  0
CIRCLE
  5
CEB
  8
0
  6
CONTINUOUS
 10
1025.8831482243841
 20
383.79026524222462
 30
0.0
 40
6.0
  0
LINE
  5
CEC
  8
CENTER
  6
CENTER
 10
1025.8831482243841
 20
399.29026524222462
 30
0.0
 11
1025.8831482243841
 21
368.29026524222462
 31
0.0
  0
POLYLINE
  5
CED
  8
0
  6
CONTINUOUS
 66
     1
 10
0.0
 20
0.0
 30
0.0
 70
     1
  0
VERTEX
  5
140A
  8
0
  6
CONTINUOUS
 10
1024.1510974168159
 20
386.79026524222462
 30
0.0
  0
VERTEX
  5
140B
  8
0
  6
CONTINUOUS
 10
1022.419046609246
 20
383.79026524222462
 30
0.0
  0
VERTEX
  5
140C
  8
0
  6
CONTINUOUS
 10
1024.1510974168159
 20
380.79026524222462
 30
0.0
  0
VERTEX
  5
140D
  8
0
  6
CONTINUOUS
 10
1027.6151990319529
 20
380.79026524222462
 30
0.0
  0
VERTEX
  5
140E
  8
0
  6
CONTINUOUS
 10
1029.3472498395231
 20
383.79026524222462
 30
0.0
  0
VERTEX
  5
140F
  8
0
  6
CONTINUOUS
 10
1027.6151990319529
 20
386.79026524222462
 30
0.0
  0
SEQEND
  5
1410
  8
0
  6
CONTINUOUS
  0
LINE
  5
CF5
  8
DIM
  6
CONTINUOUS
 10
846.38154535456874
 20
383.01387047740849
 30
0.0
 11
846.38154535456874
 21
322.29026524222462
 31
0.0
  0
LINE
  5
CF6
  8
DIM
  6
CONTINUOUS
 10
840.38154535456874
 20
358.54026524222451
 30
0.0
 11
840.38154535456874
 21
322.29026524222462
 31
0.0
  0
LINE
  5
CF7
  8
0
 10
845.38154535456863
 20
260.6654917083489
 30
0.0
 11
840.38154535456874
 21
260.6654917083489
 31
0.0
  0
LINE
  5
CF8
  8
CENTER
  6
CENTER
 10
809.38154535456874
 20
270.92305839442753
 30
0.0
 11
809.38154535456874
 21
290.78024769757519
 31
0.0
  0
LINE
  5
CF9
  8
CENTER
  6
CENTER
 10
821.38154535456874
 20
270.07300595976881
 30
0.0
 11
821.38154535456874
 21
290.1767576678111
 31
0.0
  0
LINE
  5
CFA
  8
0
 10
802.38154535456874
 20
285.6654917083489
 30
0.0
 11
840.38154535456874
 21
285.4154917083489
 31
0.0
  0
LINE
  5
CFB
  8
HIDDEN
  6
HIDDEN
 10
840.38154535456874
 20
269.16549170834901
 30
0.0
 11
818.38154535456874
 21
269.1654917083489
 31
0.0
  0
LINE
  5
CFC
  8
HIDDEN
  6
HIDDEN
 10
840.38154535456874
 20
279.1654917083489
 30
0.0
 11
818.38154535456874
 21
279.16549170834901
 31
0.0
  0
LINE
  5
CFD
  8
HIDDEN
  6
HIDDEN
 10
834.38154535456874
 20
269.9154917083489
 30
0.0
 11
815.38154535456874
 21
269.9154917083489
 31
0.0
  0
LINE
  5
CFE
  8
HIDDEN
  6
HIDDEN
 10
834.38154535456874
 20
278.4154917083489
 30
0.0
 11
815.38154535456874
 21
278.41549170834901
 31
0.0
  0
LINE
  5
CFF
  8
HIDDEN
  6
HIDDEN
 10
815.38154535456874
 20
278.41549170834901
 30
0.0
 11
815.38154535456874
 21
269.9154917083489
 31
0.0
  0
LINE
  5
D00
  8
HIDDEN
  6
HIDDEN
 10
815.38154535456874
 20
278.41549170834912
 30
0.0
 11
812.92780671051287
 21
274.16549170834901
 31
0.0
  0
LINE
  5
D01
  8
HIDDEN
  6
HIDDEN
 10
818.38154535456874
 20
279.16549170834901
 30
0.0
 11
818.38154535456874
 21
269.16549170834901
 31
0.0
  0
LINE
  5
D02
  8
HIDDEN
  6
HIDDEN
 10
815.38154535456874
 20
269.9154917083489
 30
0.0
 11
812.92780671051264
 21
274.16549170834901
 31
0.0
  0
LINE
  5
D03
  8
HIDDEN
  6
HIDDEN
 10
834.38154535456874
 20
279.1654917083489
 30
0.0
 11
834.38154535456874
 21
269.16549170834901
 31
0.0
  0
SOLID
  5
D04
  8
DIM
  6
CONTINUOUS
 10
837.38154535456863
 20
323.79026524222462
 30
0.0
 11
837.38154535456863
 21
322.79026524222462
 31
0.0
 12
840.38154535456874
 22
323.29026524222468
 32
0.0
 13
840.38154535456874
 23
323.29026524222468
 33
0.0
  0
ARC
  5
D05
  8
0
 10
845.38154535456863
 20
259.6654917083489
 30
0.0
 40
1.0
 50
0.0
 51
90.0
  0
SOLID
  5
D06
  8
DIM
  6
CONTINUOUS
 10
849.38154535456874
 20
323.79026524222462
 30
0.0
 11
849.38154535456874
 21
322.79026524222462
 31
0.0
 12
846.38154535456874
 22
323.29026524222468
 32
0.0
 13
846.38154535456874
 23
323.29026524222468
 33
0.0
  0
TEXT
  5
D07
  8
DIM
  6
CONTINUOUS
 10
851.64144379157256
 20
324.79026524222462
 30
0.0
 40
3.0
  1
6
  7
ROMANSS
 72
     1
 11
852.57001522014411
 21
326.29026524222462
 31
0.0
 73
     2
  0
LINE
  5
D08
  8
0
 10
845.38154535456863
 20
429.29026524222451
 30
0.0
 11
840.38154535456874
 21
429.29026524222451
 31
0.0
  0
LINE
  5
D09
  8
0
 10
845.38154535456863
 20
384.29026524222451
 30
0.0
 11
840.38154535456874
 21
384.29026524222451
 31
0.0
  0
CIRCLE
  5
D0A
  8
0
 10
809.38154535456874
 20
396.79026524222451
 30
0.0
 40
5.2999999999999989
  0
LINE
  5
D0B
  8
CENTER
  6
CENTER
 10
821.38154535456874
 20
428.29026524222451
 30
0.0
 11
821.38154535456874
 21
399.29026524222451
 31
0.0
  0
LINE
  5
D0C
  8
CENTER
  6
CENTER
 10
809.38154535456874
 20
403.79026524222451
 30
0.0
 11
809.38154535456874
 21
389.79026524222451
 31
0.0
  0
POLYLINE
  5
D0D
  8
0
  6
CONTINUOUS
 66
     1
 10
0.0
 20
0.0
 30
0.0
 70
     1
  0
VERTEX
  5
1411
  8
0
  6
CONTINUOUS
 10
808.51551995078455
 20
398.29026524222451
 30
0.0
  0
VERTEX
  5
1412
  8
0
  6
CONTINUOUS
 10
807.6494945469999
 20
396.79026524222451
 30
0.0
  0
VERTEX
  5
1413
  8
0
  6
CONTINUOUS
 10
808.51551995078455
 20
395.29026524222451
 30
0.0
  0
VERTEX
  5
1414
  8
0
  6
CONTINUOUS
 10
810.24757075835328
 20
395.29026524222451
 30
0.0
  0
VERTEX
  5
1415
  8
0
  6
CONTINUOUS
 10
811.11359616213747
 20
396.79026524222451
 30
0.0
  0
VERTEX
  5
1416
  8
0
  6
CONTINUOUS
 10
810.24757075835328
 20
398.29026524222451
 30
0.0
  0
SEQEND
  5
1417
  8
0
  6
CONTINUOUS
  0
CIRCLE
  5
D15
  8
0
 10
809.38154535456874
 20
396.79026524222451
 30
0.0
 40
5.0
  0
ARC
  5
D16
  8
0
  6
CONTINUOUS
 10
809.38154535456874
 20
396.79026524222451
 30
0.0
 40
3.5
 50
98.213210701738234
 51
141.7867892982616
  0
ARC
  5
D17
  8
0
  6
CONTINUOUS
 10
809.38154535456874
 20
396.79026524222451
 30
0.0
 40
3.5
 50
218.21321070173761
 51
261.78678929826179
  0
CIRCLE
  5
D18
  8
0
  6
CONTINUOUS
 10
809.38154535456874
 20
396.79026524222451
 30
0.0
 40
2.5
  0
LINE
  5
D19
  8
CENTER
  6
CENTER
 10
802.38154535456874
 20
396.79026524222451
 30
0.0
 11
816.38154535456874
 21
396.79026524222451
 31
0.0
  0
LINE
  5
D1A
  8
0
 10
802.38154535456874
 20
359.29026524222451
 30
0.0
 11
840.38154535456874
 21
359.54026524222451
 31
0.0
  0
LINE
  5
D1B
  8
0
  6
CONTINUOUS
 10
806.63154535456874
 20
398.95532875168561
 30
0.0
 11
805.32312336966515
 21
399.71074653688328
 31
0.0
  0
ARC
  5
D1C
  8
0
  6
CONTINUOUS
 10
809.38154535456874
 20
396.79026524222451
 30
0.0
 40
3.5
 50
158.21321070173769
 51
201.78678929826131
  0
LINE
  5
D1D
  8
0
  6
CONTINUOUS
 10
806.13154535456863
 20
398.08930334790119
 30
0.0
 11
804.82312336966538
 21
398.84472113309891
 31
0.0
  0
LINE
  5
D1E
  8
0
  6
CONTINUOUS
 10
805.32312336966515
 20
393.86978394756579
 30
0.0
 11
806.63154535456874
 21
394.62520173276351
 31
0.0
  0
LINE
  5
D1F
  8
0
  6
CONTINUOUS
 10
804.82312336966538
 20
394.73580935135021
 30
0.0
 11
806.13154535456863
 21
395.49122713654782
 31
0.0
  0
LINE
  5
D20
  8
HIDDEN
  6
HIDDEN
 10
834.38154535456874
 20
375.04026524222451
 30
0.0
 11
815.38154535456874
 21
375.04026524222451
 31
0.0
  0
LINE
  5
D21
  8
HIDDEN
  6
HIDDEN
 10
840.38154535456874
 20
375.79026524222451
 30
0.0
 11
818.38154535456874
 21
375.79026524222451
 31
0.0
  0
LINE
  5
D22
  8
HIDDEN
  6
HIDDEN
 10
834.38154535456874
 20
366.54026524222451
 30
0.0
 11
815.38154535456874
 21
366.54026524222451
 31
0.0
  0
LINE
  5
D23
  8
HIDDEN
  6
HIDDEN
 10
840.38154535456874
 20
365.79026524222451
 30
0.0
 11
818.38154535456874
 21
365.79026524222451
 31
0.0
  0
LINE
  5
D24
  8
HIDDEN
  6
HIDDEN
 10
818.38154535456874
 20
365.79026524222451
 30
0.0
 11
818.38154535456874
 21
375.79026524222451
 31
0.0
  0
LINE
  5
D25
  8
HIDDEN
  6
HIDDEN
 10
815.38154535456874
 20
366.54026524222451
 30
0.0
 11
815.38154535456874
 21
375.04026524222451
 31
0.0
  0
LINE
  5
D26
  8
HIDDEN
  6
HIDDEN
 10
815.38154535456874
 20
366.54026524222439
 30
0.0
 11
812.92780671051287
 21
370.79026524222451
 31
0.0
  0
LINE
  5
D27
  8
HIDDEN
  6
HIDDEN
 10
815.38154535456874
 20
375.04026524222451
 30
0.0
 11
812.92780671051264
 21
370.79026524222439
 31
0.0
  0
LINE
  5
D28
  8
HIDDEN
  6
HIDDEN
 10
834.38154535456874
 20
365.79026524222451
 30
0.0
 11
834.38154535456874
 21
375.79026524222451
 31
0.0
  0
ARC
  5
D29
  8
0
  6
CONTINUOUS
 10
809.38154535456874
 20
396.79026524222451
 30
0.0
 40
3.5
 50
38.213210701738312
 51
81.786789298261766
  0
ARC
  5
D2A
  8
0
  6
CONTINUOUS
 10
809.38154535456874
 20
396.79026524222451
 30
0.0
 40
3.5
 50
338.21321070173849
 51
21.786789298262239
  0
LINE
  5
D2B
  8
0
  6
CONTINUOUS
 10
808.88154535456874
 20
401.76520242775769
 30
0.0
 11
808.88154535456874
 21
400.2543668573623
 31
0.0
  0
LINE
  5
D2C
  8
0
  6
CONTINUOUS
 10
809.88154535456874
 20
401.76520242775769
 30
0.0
 11
809.88154535456874
 21
400.2543668573623
 31
0.0
  0
LINE
  5
D2D
  8
0
  6
CONTINUOUS
 10
812.13154535456874
 20
398.95532875168561
 30
0.0
 11
813.43996733947233
 21
399.71074653688328
 31
0.0
  0
LINE
  5
D2E
  8
0
  6
CONTINUOUS
 10
812.63154535456874
 20
398.08930334790119
 30
0.0
 11
813.93996733947245
 21
398.84472113309891
 31
0.0
  0
ARC
  5
D2F
  8
0
  6
CONTINUOUS
 10
809.38154535456874
 20
396.79026524222451
 30
0.0
 40
3.5
 50
278.21321070173809
 51
321.78678929826242
  0
LINE
  5
D30
  8
0
  6
CONTINUOUS
 10
808.88154535456874
 20
393.32616362708683
 30
0.0
 11
808.88154535456874
 21
391.8153280566915
 31
0.0
  0
LINE
  5
D31
  8
0
  6
CONTINUOUS
 10
809.88154535456874
 20
393.32616362708683
 30
0.0
 11
809.88154535456874
 21
391.8153280566915
 31
0.0
  0
LINE
  5
D32
  8
0
  6
CONTINUOUS
 10
813.43996733947233
 20
393.86978394756579
 30
0.0
 11
812.13154535456874
 21
394.62520173276351
 31
0.0
  0
LINE
  5
D33
  8
0
  6
CONTINUOUS
 10
813.93996733947245
 20
394.73580935135021
 30
0.0
 11
812.63154535456874
 21
395.49122713654782
 31
0.0
  0
CIRCLE
  5
D34
  8
0
 10
821.38154535456874
 20
413.79026524222451
 30
0.0
 40
11.5
  0
ARC
  5
D35
  8
0
 62
     2
 10
821.38154535456874
 20
413.79026524222451
 30
0.0
 40
8.3000000000000007
 50
257.18960874131659
 51
209.60968586855631
  0
CIRCLE
  5
D36
  8
0
 10
821.38154535456874
 20
413.79026524222451
 30
0.0
 40
7.5
  0
CIRCLE
  5
D37
  8
0
 10
821.38154535456874
 20
413.79026524222451
 30
0.0
 40
5.5
  0
LINE
  5
D38
  8
CENTER
  6
CENTER
 10
806.88154535456874
 20
413.79026524222451
 30
0.0
 11
835.88154535456874
 21
413.79026524222451
 31
0.0
  0
SOLID
  5
D39
  8
DIM
  6
CONTINUOUS
 10
816.83894358935186
 20
424.14646940655882
 30
0.0
 11
817.76988717438098
 21
424.51163244068641
 31
0.0
 12
818.39990448424919
 22
421.53622016853541
 32
0.0
 13
818.39990448424919
 23
421.53622016853541
 33
0.0
  0
LINE
  5
D3A
  8
HIDDEN
  6
HIDDEN
 10
834.38154535456874
 20
447.04026524222451
 30
0.0
 11
815.38154535456874
 21
447.04026524222451
 31
0.0
  0
LINE
  5
D3B
  8
HIDDEN
  6
HIDDEN
 10
834.38154535456874
 20
438.54026524222462
 30
0.0
 11
815.38154535456874
 21
438.54026524222462
 31
0.0
  0
LINE
  5
D3C
  8
HIDDEN
  6
HIDDEN
 10
840.38154535456874
 20
437.79026524222451
 30
0.0
 11
818.38154535456874
 21
437.79026524222451
 31
0.0
  0
LINE
  5
D3D
  8
HIDDEN
  6
HIDDEN
 10
840.38154535456874
 20
447.79026524222451
 30
0.0
 11
818.38154535456874
 21
447.79026524222451
 31
0.0
  0
LINE
  5
D3E
  8
HIDDEN
  6
HIDDEN
 10
815.38154535456874
 20
447.04026524222462
 30
0.0
 11
812.92780671051287
 21
442.79026524222451
 31
0.0
  0
LINE
  5
D3F
  8
HIDDEN
  6
HIDDEN
 10
815.38154535456874
 20
438.54026524222462
 30
0.0
 11
812.92780671051264
 21
442.79026524222462
 31
0.0
  0
LINE
  5
D40
  8
HIDDEN
  6
HIDDEN
 10
815.38154535456874
 20
447.04026524222451
 30
0.0
 11
815.38154535456874
 21
438.54026524222462
 31
0.0
  0
LINE
  5
D41
  8
HIDDEN
  6
HIDDEN
 10
818.38154535456874
 20
447.79026524222451
 30
0.0
 11
818.38154535456874
 21
437.79026524222451
 31
0.0
  0
LINE
  5
D42
  8
HIDDEN
  6
HIDDEN
 10
834.38154535456874
 20
447.79026524222451
 30
0.0
 11
834.38154535456874
 21
437.79026524222451
 31
0.0
  0
LINE
  5
D43
  8
DIM
  6
CONTINUOUS
 10
854.38154535456874
 20
387.29026524222451
 30
0.0
 11
854.38154535456874
 21
426.29026524222451
 31
0.0
  0
LINE
  5
D44
  8
0
 10
846.38154535456874
 20
428.29026524222451
 30
0.0
 11
846.38154535456874
 21
385.29026524222451
 31
0.0
  0
LINE
  5
D45
  8
DIM
  6
CONTINUOUS
 10
846.38154535456874
 20
384.29026524222451
 30
0.0
 11
855.38154535456874
 21
384.29026524222451
 31
0.0
  0
ARC
  5
D46
  8
0
 10
845.38154535456863
 20
385.29026524222451
 30
0.0
 40
1.0
 50
270.0
 51
0.0
  0
SOLID
  5
D47
  8
DIM
  6
CONTINUOUS
 10
853.88154535456874
 20
387.29026524222451
 30
0.0
 11
854.88154535456874
 21
387.29026524222451
 31
0.0
 12
854.38154535456874
 22
384.29026524222451
 32
0.0
 13
854.38154535456874
 23
384.29026524222451
 33
0.0
  0
TEXT
  5
D48
  8
DIM
  6
CONTINUOUS
 10
852.88154535456874
 20
403.00455095651029
 30
0.0
 40
3.0
  1
%%c45
 50
90.0
  7
ROMANSS
 72
     1
 11
851.38154535456874
 21
406.79026524222462
 31
0.0
 73
     2
  0
LINE
  5
D49
  8
DIM
  6
CONTINUOUS
 10
846.38154535456874
 20
429.29026524222451
 30
0.0
 11
855.38154535456874
 21
429.29026524222451
 31
0.0
  0
ARC
  5
D4A
  8
0
 10
845.38154535456863
 20
428.29026524222451
 30
0.0
 40
1.0
 50
0.0
 51
90.0
  0
SOLID
  5
D4B
  8
DIM
  6
CONTINUOUS
 10
853.88154535456874
 20
426.29026524222451
 30
0.0
 11
854.88154535456874
 21
426.29026524222451
 31
0.0
 12
854.38154535456874
 22
429.29026524222451
 32
0.0
 13
854.38154535456874
 23
429.29026524222451
 33
0.0
  0
LINE
  5
D4C
  8
DIM
  6
CONTINUOUS
 10
781.2867139086776
 20
624.28425325470403
 30
0.0
 11
781.2867139086776
 21
700.28425325470403
 31
0.0
  0
LINE
  5
D4D
  8
0
 10
721.38154535456874
 20
713.78425325470391
 30
0.0
 11
721.38154535456874
 21
578.78425325470403
 31
0.0
  0
LINE
  5
D4E
  8
0
 10
802.38154535456874
 20
673.78425325470403
 30
0.0
 11
802.38154535456874
 21
578.78425325470414
 31
0.0
  0
LINE
  5
D4F
  8
0
 10
840.38154535456874
 20
673.53425325470403
 30
0.0
 11
840.38154535456874
 21
579.03425325470414
 31
0.0
  0
LINE
  5
D50
  8
DIM
  6
CONTINUOUS
 10
720.88154535456874
 20
621.28425325470403
 30
0.0
 11
782.54841280115716
 21
621.28425325470403
 31
0.0
  0
LINE
  5
D51
  8
CENTER
  6
CENTER
 10
721.38154535456874
 20
590.28425325470391
 30
0.0
 11
843.38154535456886
 21
590.28425325470391
 31
0.0
  0
LINE
  5
D52
  8
0
 62
     7
 10
721.38154535456874
 20
650.92047477008475
 30
0.0
 11
802.38154535456874
 21
650.92047477008475
 31
0.0
  0
LINE
  5
D53
  8
0
 10
721.38154535456874
 20
582.78425325470403
 30
0.0
 11
802.38154535456874
 21
582.78425325470403
 31
0.0
  0
LINE
  5
D54
  8
0
 62
     7
 10
721.38154535456874
 20
601.6480317393233
 30
0.0
 11
802.38154535456874
 21
601.6480317393233
 31
0.0
  0
LINE
  5
D55
  8
0
 10
721.38154535456874
 20
450.29026524222451
 30
0.0
 11
802.38154535456874
 21
450.29026524222451
 31
0.0
  0
LINE
  5
D56
  8
0
 10
716.88154535456874
 20
465.29026524222462
 30
0.0
 11
716.88154535456874
 21
454.29026524222451
 31
0.0
  0
LINE
  5
D57
  8
0
 10
715.88154535456874
 20
466.29026524222462
 30
0.0
 11
716.88154535456874
 21
465.29026524222462
 31
0.0
  0
LINE
  5
D58
  8
CENTER
  6
CENTER
 10
706.81383707785358
 20
687.28425325470403
 30
0.0
 11
735.38154535456863
 21
687.28425325470403
 31
0.0
  0
LINE
  5
D59
  8
0
  6
CONTINUOUS
 10
728.2556793037603
 20
698.23425325470475
 30
0.0
 11
729.38154535456863
 21
696.28425325470403
 31
0.0
  0
POLYLINE
  5
D5A
  8
0
  6
CONTINUOUS
 66
     1
 10
0.0
 20
0.0
 30
0.0
  0
VERTEX
  5
1418
  8
0
  6
CONTINUOUS
 10
729.38154535456863
 20
687.28425325470403
 30
0.0
 42
0.0851703918331015
  0
VERTEX
  5
1419
  8
0
  6
CONTINUOUS
 10
728.34954535456927
 20
693.28425325470403
 30
0.0
 42
0.3910851735909245
  0
VERTEX
  5
141A
  8
0
  6
CONTINUOUS
 10
728.81861232916526
 20
697.25925325470439
 30
0.0
  0
SEQEND
  5
141B
  8
0
  6
CONTINUOUS
  0
LINE
  5
D5F
  8
0
  6
CONTINUOUS
 10
721.38154535456863
 20
693.28425325470403
 30
0.0
 11
728.34954535456927
 21
693.28425325470403
 31
0.0
  0
LINE
  5
D60
  8
0
  6
CONTINUOUS
 10
721.38154535456863
 20
681.28425325470403
 30
0.0
 11
728.34954535456927
 21
681.28425325470403
 31
0.0
  0
LINE
  5
D61
  8
0
  6
CONTINUOUS
 10
730.38154535456863
 20
693.28425325470403
 30
0.0
 11
730.38154535456874
 21
681.28425325470403
 31
0.0
  0
LINE
  5
D62
  8
0
  6
CONTINUOUS
 10
732.38154535456863
 20
691.28425325470403
 30
0.0
 11
732.38154535456863
 21
683.28425325470403
 31
0.0
  0
LINE
  5
D63
  8
0
  6
CONTINUOUS
 10
729.38154535456863
 20
681.28425325470403
 30
0.0
 11
730.38154535456863
 21
681.28425325470403
 31
0.0
  0
LINE
  5
D64
  8
0
  6
CONTINUOUS
 62
     2
 10
729.38154535456874
 20
682.48425325470475
 30
0.0
 11
731.58154535456936
 21
682.48425325470475
 31
0.0
  0
LINE
  5
D65
  8
0
  6
CONTINUOUS
 10
730.38154535456863
 20
681.28425325470403
 30
0.0
 11
732.38154535456863
 21
683.28425325470403
 31
0.0
  0
LINE
  5
D66
  8
0
  6
CONTINUOUS
 62
     2
 10
729.38154535456874
 20
692.0842532547033
 30
0.0
 11
731.58154535456936
 21
692.0842532547033
 31
0.0
  0
LINE
  5
D67
  8
0
  6
CONTINUOUS
 10
729.38154535456863
 20
693.28425325470403
 30
0.0
 11
730.38154535456863
 21
693.28425325470403
 31
0.0
  0
LINE
  5
D68
  8
0
  6
CONTINUOUS
 10
730.38154535456863
 20
693.28425325470403
 30
0.0
 11
732.38154535456863
 21
691.28425325470403
 31
0.0
  0
LINE
  5
D69
  8
0
  6
CONTINUOUS
 10
721.38154535456863
 20
698.23425325470475
 30
0.0
 11
728.2556793037603
 21
698.23425325470475
 31
0.0
  0
LINE
  5
D6A
  8
CENTER
  6
CENTER
 10
699.88154535456874
 20
621.28425325470403
 30
0.0
 11
719.88154535456874
 21
621.28425325470403
 31
0.0
  0
LINE
  5
D6B
  8
CENTER
  6
CENTER
 10
690.80185557135178
 20
640.36394303792088
 30
0.0
 11
702.1155640703364
 21
629.05023453893625
 31
0.0
  0
CIRCLE
  5
D6C
  8
0
  6
CONTINUOUS
 10
696.45870982084409
 20
634.70708878842845
 30
0.0
 40
3.399999999999999
  0
ARC
  5
D6D
  8
0
  6
CONTINUOUS
 62
     2
 10
696.45870982084409
 20
634.70708878842845
 30
0.0
 40
4.0
 50
210.50278965468459
 51
157.4755877848952
  0
CIRCLE
  5
D6E
  8
0
  6
CONTINUOUS
 10
709.88154535456874
 20
621.28425325470403
 30
0.0
 40
4.25
  0
ARC
  5
D6F
  8
0
  6
CONTINUOUS
 62
     2
 10
709.88154535456874
 20
621.28425325470403
 30
0.0
 40
5.0
 50
161.29065264439251
 51
115.2003954081225
  0
LINE
  5
D70
  8
CENTER
  6
CENTER
 10
709.88154535456874
 20
631.28425325470403
 30
0.0
 11
709.88154535456874
 21
611.28425325470403
 31
0.0
  0
TEXT
  5
D71
  8
DIM
  6
CONTINUOUS
 10
803.12708139382255
 20
470.70718438254897
 30
0.0
 40
3.0
  1
2-G3/8
  7
ROMANSS
 11
803.12708139382255
 21
472.20718438254897
 31
0.0
 73
     2
  0
LINE
  5
D72
  8
DIM
  6
CONTINUOUS
 10
799.70094762787471
 20
469.20718438254897
 30
0.0
 11
818.50208139382255
 21
469.20718438254897
 31
0.0
  0
LINE
  5
D73
  8
0
 10
802.38154535456874
 20
454.29026524222451
 30
0.0
 11
840.38154535456874
 21
454.04026524222451
 31
0.0
  0
LINE
  5
D74
  8
0
 10
845.38154535456863
 20
648.78425325470403
 30
0.0
 11
840.38154535456874
 21
648.78425325470403
 31
0.0
  0
LINE
  5
D75
  8
0
 10
845.38154535456863
 20
603.78425325470414
 30
0.0
 11
840.38154535456874
 21
603.78425325470414
 31
0.0
  0
LINE
  5
D76
  8
0
 10
802.38154535456874
 20
578.78425325470414
 30
0.0
 11
840.38154535456874
 21
579.03425325470414
 31
0.0
  0
LINE
  5
D77
  8
HIDDEN
  6
HIDDEN
 10
834.38154535456874
 20
585.28425325470414
 30
0.0
 11
834.38154535456874
 21
595.28425325470403
 31
0.0
  0
LINE
  5
D78
  8
CENTER
  6
CENTER
 10
821.38154535456874
 20
593.29422405849255
 30
0.0
 11
821.38154535456874
 21
573.62151794708893
 31
0.0
  0
LINE
  5
D79
  8
HIDDEN
  6
HIDDEN
 10
815.38154535456874
 20
586.03425325470403
 30
0.0
 11
815.38154535456874
 21
594.53425325470414
 31
0.0
  0
LINE
  5
D7A
  8
HIDDEN
  6
HIDDEN
 10
818.38154535456874
 20
585.28425325470403
 30
0.0
 11
818.38154535456874
 21
595.28425325470403
 31
0.0
  0
LINE
  5
D7B
  8
HIDDEN
  6
HIDDEN
 10
815.38154535456874
 20
586.03425325470391
 30
0.0
 11
812.92780671051287
 21
590.28425325470391
 31
0.0
  0
LINE
  5
D7C
  8
CENTER
  6
CENTER
 10
809.38154535456874
 20
593.11030782533442
 30
0.0
 11
809.38154535456874
 21
573.66949726547784
 31
0.0
  0
LINE
  5
D7D
  8
HIDDEN
  6
HIDDEN
 10
840.38154535456874
 20
585.28425325470414
 30
0.0
 11
818.38154535456874
 21
585.28425325470403
 31
0.0
  0
LINE
  5
D7E
  8
HIDDEN
  6
HIDDEN
 10
834.38154535456874
 20
586.03425325470414
 30
0.0
 11
815.38154535456874
 21
586.03425325470403
 31
0.0
  0
LINE
  5
D7F
  8
HIDDEN
  6
HIDDEN
 10
840.38154535456874
 20
595.28425325470403
 30
0.0
 11
818.38154535456874
 21
595.28425325470414
 31
0.0
  0
LINE
  5
D80
  8
HIDDEN
  6
HIDDEN
 10
834.38154535456874
 20
594.53425325470414
 30
0.0
 11
815.38154535456874
 21
594.53425325470414
 31
0.0
  0
LINE
  5
D81
  8
HIDDEN
  6
HIDDEN
 10
815.38154535456874
 20
594.53425325470414
 30
0.0
 11
812.92780671051264
 21
590.28425325470391
 31
0.0
  0
LINE
  5
D82
  8
0
 10
846.38154535456874
 20
647.78425325470403
 30
0.0
 11
846.38154535456874
 21
604.78425325470414
 31
0.0
  0
ARC
  5
D83
  8
0
 10
845.38154535456863
 20
604.78425325470414
 30
0.0
 40
1.0
 50
270.0
 51
0.0
  0
SOLID
  5
D84
  8
DIM
  6
CONTINUOUS
 10
780.78671390867748
 20
624.28425325470403
 30
0.0
 11
781.7867139086776
 21
624.28425325470403
 31
0.0
 12
781.2867139086776
 22
621.28425325470403
 32
0.0
 13
781.2867139086776
 23
621.28425325470403
 33
0.0
  0
ARC
  5
D85
  8
0
 10
845.38154535456863
 20
647.78425325470403
 30
0.0
 40
1.0
 50
0.0
 51
90.0
  0
LINE
  5
D86
  8
DIM
  6
CONTINUOUS
 10
720.88154535456874
 20
703.28425325470403
 30
0.0
 11
782.54841280115716
 21
703.28425325470403
 31
0.0
  0
LINE
  5
D87
  8
0
 10
721.38154535456874
 20
669.78425325470403
 30
0.0
 11
802.38154535456874
 21
669.78425325470403
 31
0.0
  0
TEXT
  5
D88
  8
DIM
  6
CONTINUOUS
 10
737.25042072492886
 20
724.52305606511914
 30
0.0
 40
3.0
  1
2x4-M10x15L
  7
ROMANSS
 11
737.25042072492886
 21
726.02305606511914
 31
0.0
 73
     2
  0
LINE
  5
D89
  8
DIM
  6
CONTINUOUS
 10
736.25042072492897
 20
723.02305606511914
 30
0.0
 11
764.37542072492897
 21
723.02305606511914
 31
0.0
  0
CIRCLE
  5
D8A
  8
0
  6
CONTINUOUS
 10
709.88154535456874
 20
703.28425325470403
 30
0.0
 40
4.25
  0
ARC
  5
D8B
  8
0
  6
CONTINUOUS
 62
     2
 10
709.88154535456874
 20
703.28425325470403
 30
0.0
 40
5.0
 50
161.29065264439421
 51
115.2003954081208
  0
LINE
  5
D8C
  8
CENTER
  6
CENTER
 10
709.88154535456874
 20
713.28425325470403
 30
0.0
 11
709.88154535456874
 21
693.28425325470403
 31
0.0
  0
SOLID
  5
D8D
  8
DIM
  6
CONTINUOUS
 10
665.89146736656812
 20
741.57777722920775
 30
0.0
 11
665.87268209523916
 21
742.57760077042963
 31
0.0
 12
668.88154535456874
 22
742.13404481380564
 32
0.0
 13
668.88154535456874
 23
742.13404481380564
 33
0.0
  0
LINE
  5
D8E
  8
DIM
  6
CONTINUOUS
 10
715.73670392701365
 20
708.72134112368678
 30
0.0
 11
733.25042072492886
 21
723.02305606511914
 31
0.0
  0
LINE
  5
D8F
  8
CENTER
  6
CENTER
 10
699.88154535456874
 20
703.28425325470403
 30
0.0
 11
719.88154535456874
 21
703.28425325470403
 31
0.0
  0
SOLID
  5
D90
  8
DIM
  6
CONTINUOUS
 10
716.05295590675723
 20
708.33406256075284
 30
0.0
 11
715.42045194726995
 21
709.10861968662095
 31
0.0
 12
713.41303254940954
 22
706.82382924522506
 32
0.0
 13
713.41303254940954
 23
706.82382924522506
 33
0.0
  0
SOLID
  5
D91
  8
DIM
  6
CONTINUOUS
 10
706.88154535456874
 20
722.28425325470403
 30
0.0
 11
706.88154535456874
 21
721.28425325470403
 31
0.0
 12
709.88154535456874
 22
721.78425325470403
 32
0.0
 13
709.88154535456874
 23
721.78425325470403
 33
0.0
  0
LINE
  5
D92
  8
DIM
  6
CONTINUOUS
 10
709.88154535456874
 20
714.28425325470403
 30
0.0
 11
709.88154535456874
 21
722.78425325470403
 31
0.0
  0
LINE
  5
D93
  8
DIM
  6
CONTINUOUS
 10
733.25042072492886
 20
723.02305606511914
 30
0.0
 11
736.25042072492897
 21
723.02305606511914
 31
0.0
  0
TEXT
  5
D94
  8
DIM
  6
CONTINUOUS
 10
754.80929484939884
 20
681.62189364726328
 30
0.0
 40
3.0
  1
M8x15L
  7
ROMANSS
 11
754.80929484939884
 21
683.12189364726339
 31
0.0
 73
     2
  0
LINE
  5
D95
  8
DIM
  6
CONTINUOUS
 10
753.80929484939884
 20
680.12189364726339
 30
0.0
 11
768.93429484939884
 21
680.12189364726339
 31
0.0
  0
LINE
  5
D96
  8
0
 10
802.38154535456874
 20
673.78425325470403
 30
0.0
 11
840.38154535456874
 21
673.53425325470403
 31
0.0
  0
LINE
  5
D97
  8
HIDDEN
  6
HIDDEN
 10
840.38154535456874
 20
667.28425325470403
 30
0.0
 11
818.38154535456874
 21
667.28425325470403
 31
0.0
  0
LINE
  5
D98
  8
HIDDEN
  6
HIDDEN
 10
840.38154535456874
 20
657.28425325470403
 30
0.0
 11
818.38154535456874
 21
657.28425325470403
 31
0.0
  0
LINE
  5
D99
  8
HIDDEN
  6
HIDDEN
 10
834.38154535456874
 20
658.03425325470403
 30
0.0
 11
815.38154535456874
 21
658.03425325470403
 31
0.0
  0
LINE
  5
D9A
  8
HIDDEN
  6
HIDDEN
 10
834.38154535456874
 20
666.53425325470403
 30
0.0
 11
815.38154535456874
 21
666.53425325470403
 31
0.0
  0
LINE
  5
D9B
  8
HIDDEN
  6
HIDDEN
 10
815.38154535456874
 20
658.03425325470403
 30
0.0
 11
812.92780671051264
 21
662.28425325470403
 31
0.0
  0
LINE
  5
D9C
  8
HIDDEN
  6
HIDDEN
 10
815.38154535456874
 20
666.53425325470403
 30
0.0
 11
815.38154535456874
 21
658.03425325470403
 31
0.0
  0
LINE
  5
D9D
  8
HIDDEN
  6
HIDDEN
 10
815.38154535456874
 20
666.53425325470414
 30
0.0
 11
812.92780671051287
 21
662.28425325470403
 31
0.0
  0
LINE
  5
D9E
  8
HIDDEN
  6
HIDDEN
 10
818.38154535456874
 20
667.28425325470403
 30
0.0
 11
818.38154535456874
 21
657.28425325470403
 31
0.0
  0
LINE
  5
D9F
  8
HIDDEN
  6
HIDDEN
 10
834.38154535456874
 20
667.28425325470403
 30
0.0
 11
834.38154535456874
 21
657.28425325470403
 31
0.0
  0
SOLID
  5
DA0
  8
DIM
  6
CONTINUOUS
 10
780.78671390867748
 20
700.28425325470403
 30
0.0
 11
781.7867139086776
 21
700.28425325470403
 31
0.0
 12
781.2867139086776
 22
703.28425325470403
 32
0.0
 13
781.2867139086776
 23
703.28425325470403
 33
0.0
  0
TEXT
  5
DA1
  8
DIM
  6
CONTINUOUS
 10
779.78671390867748
 20
673.13297663923117
 30
0.0
 40
3.0
  1
82
 50
90.0
  7
ROMANSS
 72
     1
 11
778.2867139086776
 21
675.56154806780273
 31
0.0
 73
     2
  0
LINE
  5
DA2
  8
0
 10
301.21163755528829
 20
454.29026524222451
 30
0.0
 11
301.21163755528829
 21
359.29026524222451
 31
0.0
  0
ARC
  5
DA3
  8
0
 10
424.71163755528818
 20
442.79026524222451
 30
0.0
 40
11.25
 50
0.0
 51
90.0
  0
ARC
  5
DA4
  8
0
 10
424.71163755528818
 20
442.79026524222451
 30
0.0
 40
11.5
 50
0.0
 51
90.0
  0
CIRCLE
  5
DA5
  8
0
 10
424.71163755528818
 20
442.79026524222451
 30
0.0
 40
9.0
  0
LINE
  5
DA6
  8
0
 10
436.21163755528818
 20
454.29026524222451
 30
0.0
 11
436.21163755528818
 21
359.29026524222462
 31
0.0
  0
LINE
  5
DA7
  8
CENTER
  6
CENTER
 10
388.71163755528829
 20
457.29026524222462
 30
0.0
 11
388.71163755528829
 21
356.29026524222451
 31
0.0
  0
LINE
  5
DA8
  8
0
 10
398.71163755528818
 20
448.54026524222451
 30
0.0
 11
398.71163755528818
 21
428.42357289500848
 31
0.0
  0
LINE
  5
DA9
  8
0
 10
387.41163755528839
 20
448.54026524222451
 30
0.0
 11
387.41163755528839
 21
431.12973935322378
 31
0.0
  0
LINE
  5
DAA
  8
0
 10
390.0116375552883
 20
448.54026524222451
 30
0.0
 11
390.0116375552883
 21
431.12973935322378
 31
0.0
  0
LINE
  5
DAB
  8
0
 10
378.71163755528829
 20
448.54026524222451
 30
0.0
 11
378.71163755528829
 21
428.42357289500848
 31
0.0
  0
ARC
  5
DAC
  8
0
 10
364.37086137164971
 20
448.54026524222451
 30
0.0
 40
1.5
 50
90.0
 51
206.25121393499771
  0
LINE
  5
DAD
  8
CENTER
  6
CENTER
 10
424.71163755528818
 20
453.29026524222451
 30
0.0
 11
424.71163755528818
 21
432.29026524222462
 31
0.0
  0
ARC
  5
DAE
  8
0
 10
413.05241373892699
 20
448.54026524222451
 30
0.0
 40
1.5
 50
333.74878606499351
 51
90.0
  0
ARC
  5
DAF
  8
0
 10
352.71163755528829
 20
442.79026524222451
 30
0.0
 40
11.25
 50
90.0
 51
180.0
  0
ARC
  5
DB0
  8
0
 10
352.71163755528829
 20
442.79026524222451
 30
0.0
 40
11.5
 50
90.0
 51
180.0
  0
CIRCLE
  5
DB1
  8
0
 10
352.71163755528829
 20
442.79026524222451
 30
0.0
 40
9.0
  0
LINE
  5
DB2
  8
CENTER
  6
CENTER
 10
352.71163755528829
 20
520.29026524222445
 30
0.0
 11
352.71163755528829
 21
344.29026524222451
 31
0.0
  0
LINE
  5
DB3
  8
CENTER
  6
CENTER
 10
439.16485459262771
 20
399.79026524222451
 30
0.0
 11
423.16206114169358
 21
399.79026524222451
 31
0.0
  0
LINE
  5
DB4
  8
CENTER
  6
CENTER
 10
439.65165520783
 20
416.79026524222451
 30
0.0
 11
423.64303494671321
 21
416.79026524222451
 31
0.0
  0
ARC
  5
DB5
  8
0
 10
424.71163755528818
 20
370.79026524222451
 30
0.0
 40
11.25
 50
270.0
 51
0.0
  0
ARC
  5
DB6
  8
0
 10
424.71163755528818
 20
370.79026524222451
 30
0.0
 40
11.5
 50
270.0
 51
0.0
  0
LINE
  5
DB7
  8
CENTER
  6
CENTER
 10
451.21163755528818
 20
383.79026524222451
 30
0.0
 11
415.99821353391172
 21
383.79026524222451
 31
0.0
  0
LINE
  5
DB8
  8
0
 10
436.21163755528818
 20
359.29026524222462
 30
0.0
 11
301.21163755528829
 21
359.29026524222451
 31
0.0
  0
LINE
  5
DB9
  8
CENTER
  6
CENTER
 10
439.21163755528818
 20
406.79026524222462
 30
0.0
 11
338.21163755528829
 21
406.79026524222439
 31
0.0
  0
LINE
  5
DBA
  8
0
 10
304.71163755528829
 20
359.29026524222451
 30
0.0
 11
304.71163755528829
 21
348.29026524222451
 31
0.0
  0
LINE
  5
DBB
  8
0
 10
400.71163755528829
 20
359.29026524222451
 30
0.0
 11
400.71163755528818
 21
348.29026524222468
 31
0.0
  0
LINE
  5
DBC
  8
0
 10
400.71163755528818
 20
348.29026524222451
 30
0.0
 11
304.71163755528829
 21
348.29026524222451
 31
0.0
  0
LINE
  5
DBD
  8
0
 10
399.71163755528818
 20
347.29026524222462
 30
0.0
 11
305.71163755528829
 21
347.29026524222451
 31
0.0
  0
LINE
  5
DBE
  8
0
 10
304.71163755528829
 20
348.29026524222451
 30
0.0
 11
305.71163755528829
 21
347.29026524222451
 31
0.0
  0
LINE
  5
DBF
  8
0
 10
400.71163755528818
 20
348.29026524222468
 30
0.0
 11
399.71163755528818
 21
347.29026524222462
 31
0.0
  0
LINE
  5
DC0
  8
0
 10
364.37086137164971
 20
363.54026524222451
 30
0.0
 11
385.91163755528839
 21
363.54026524222451
 31
0.0
  0
ARC
  5
DC1
  8
0
 10
388.71163755528829
 20
406.79026524222462
 30
0.0
 40
35.5
 50
229.9885419755561
 51
251.4071774505733
  0
LINE
  5
DC2
  8
0
 10
362.97881672247451
 20
378.22901728466439
 30
0.0
 11
372.97942291817918
 21
388.22962348036913
 31
0.0
  0
ARC
  5
DC3
  8
0
 10
388.71163755528829
 20
406.79026524222462
 30
0.0
 40
23.0
 50
186.56242786863399
 51
216.7867892982616
  0
ARC
  5
DC4
  8
0
 10
369.09033562165303
 20
392.11871077689523
 30
0.0
 40
1.5
 50
315.00000000000148
 51
36.786789298263038
  0
ARC
  5
DC5
  8
0
 10
388.71163755528829
 20
406.79026524222462
 30
0.0
 40
35.5
 50
108.5928225494267
 51
130.01145802444381
  0
LINE
  5
DC6
  8
0
 10
362.97881672247451
 20
435.35151319978451
 30
0.0
 11
372.97942291817918
 21
425.35090700407989
 31
0.0
  0
ARC
  5
DC7
  8
0
 10
388.71163755528829
 20
406.79026524222462
 30
0.0
 40
23.0
 50
143.21321070173809
 51
173.43757213136581
  0
ARC
  5
DC8
  8
0
 10
369.0903356216532
 20
421.46181970755379
 30
0.0
 40
1.5
 50
323.2132107017369
 51
45.0
  0
CIRCLE
  5
DC9
  8
0
 10
388.71163755528829
 20
406.79026524222462
 30
0.0
 40
22.5
  0
LINE
  5
DCA
  8
0
 10
424.71163755528818
 20
359.54026524222451
 30
0.0
 11
352.71163755528829
 21
359.54026524222451
 31
0.0
  0
LINE
  5
DCB
  8
0
 10
345.46163755528829
 20
382.4494890585857
 30
0.0
 11
345.46163755528829
 21
403.99026524222461
 31
0.0
  0
LINE
  5
DCC
  8
0
 10
341.46163755528829
 20
442.79026524222451
 30
0.0
 11
341.46163755528829
 21
370.79026524222451
 31
0.0
  0
LINE
  5
DCD
  8
0
 10
341.21163755528829
 20
442.79026524222451
 30
0.0
 11
341.21163755528829
 21
370.79026524222451
 31
0.0
  0
CIRCLE
  5
DCE
  8
0
 10
352.71163755528829
 20
370.79026524222451
 30
0.0
 40
9.0
  0
LINE
  5
DCF
  8
CENTER
  6
CENTER
 10
363.21163755528829
 20
370.79026524222451
 30
0.0
 11
342.21163755528829
 21
370.79026524222451
 31
0.0
  0
POLYLINE
  5
DD0
  8
0
  6
CONTINUOUS
 66
     1
 10
0.0
 20
0.0
 30
0.0
 70
     1
  0
VERTEX
  5
141C
  8
0
  6
CONTINUOUS
 10
355.59838890123638
 20
375.79026524222451
 30
0.0
  0
VERTEX
  5
141D
  8
0
  6
CONTINUOUS
 10
358.48514024718457
 20
370.79026524222451
 30
0.0
  0
VERTEX
  5
141E
  8
0
  6
CONTINUOUS
 10
355.59838890123638
 20
365.79026524222451
 30
0.0
  0
VERTEX
  5
141F
  8
0
  6
CONTINUOUS
 10
349.82488620934021
 20
365.79026524222451
 30
0.0
  0
VERTEX
  5
1420
  8
0
  6
CONTINUOUS
 10
346.93813486339218
 20
370.79026524222451
 30
0.0
  0
VERTEX
  5
1421
  8
0
  6
CONTINUOUS
 10
349.82488620934021
 20
375.79026524222451
 30
0.0
  0
SEQEND
  5
1422
  8
0
  6
CONTINUOUS
  0
ARC
  5
DD8
  8
0
 10
352.71163755528829
 20
370.79026524222451
 30
0.0
 40
11.25
 50
180.0
 51
270.0
  0
ARC
  5
DD9
  8
0
 10
352.71163755528829
 20
370.79026524222451
 30
0.0
 40
11.5
 50
180.0
 51
270.0
  0
ARC
  5
DDA
  8
0
 10
352.71163755528829
 20
370.79026524222451
 30
0.0
 40
11.5
 50
333.74878606508207
 51
29.381501724351899
  0
ARC
  5
DDB
  8
0
 10
364.37086137164971
 20
365.04026524222451
 30
0.0
 40
1.5
 50
153.74878606500999
 51
270.0
  0
ARC
  5
DDC
  8
0
 10
364.03947689425428
 20
377.16835711288462
 30
0.0
 40
1.5
 50
134.99999999999841
 51
209.38150172435169
  0
ARC
  5
DDD
  8
0
 10
352.71163755528829
 20
370.79026524222451
 30
0.0
 40
11.5
 50
60.618498275648491
 51
116.2512139349553
  0
LINE
  5
DDE
  8
0
 10
346.96163755528829
 20
396.79026524222451
 30
0.0
 11
367.07832990250432
 21
396.79026524222451
 31
0.0
  0
ARC
  5
DDF
  8
0
 10
346.96163755528829
 20
382.4494890585857
 30
0.0
 40
1.5
 50
180.0
 51
296.25121393495692
  0
ARC
  5
DE0
  8
0
 10
346.96163755528829
 20
395.29026524222451
 30
0.0
 40
1.5
 50
90.0
 51
180.0
  0
LINE
  5
DE1
  8
0
 10
360.15038959772829
 20
381.05744440941061
 30
0.0
 11
370.15099579343303
 21
391.05805060511528
 31
0.0
  0
ARC
  5
DE2
  8
0
 10
388.71163755528829
 20
406.79026524222462
 30
0.0
 40
35.5
 50
198.5928225494265
 51
220.0114580244437
  0
ARC
  5
DE3
  8
0
 10
362.28753959269932
 20
384.60880796675468
 30
0.0
 40
1.0
 50
220.0114580244414
 51
315.0
  0
ARC
  5
DE4
  8
0
 10
359.08972942594852
 20
382.11810458119049
 30
0.0
 40
1.5
 50
240.61849827564819
 51
315.00000000000148
  0
ARC
  5
DE5
  8
0
 10
366.53018027981858
 20
380.36616727963542
 30
0.0
 40
1.0
 50
135.0
 51
229.98854197555599
  0
ARC
  5
DE6
  8
0
 10
356.01224918180338
 20
395.79026524222451
 30
0.0
 40
1.0
 50
90.0
 51
198.59282254942551
  0
ARC
  5
DE7
  8
0
 10
367.07832990250432
 20
395.29026524222451
 30
0.0
 40
1.5
 50
27.994561732254301
 51
90.0
  0
LINE
  5
DE8
  8
0
 10
345.46163755528829
 20
431.1310414258632
 30
0.0
 11
345.46163755528829
 21
409.5902652422244
 31
0.0
  0
ARC
  5
DE9
  8
0
 10
388.71163755528829
 20
406.79026524222462
 30
0.0
 40
35.5
 50
139.98854197555599
 51
161.4071774505733
  0
LINE
  5
DEA
  8
0
 10
360.15038959772829
 20
432.52308607503829
 30
0.0
 11
370.15099579343303
 21
422.52247987933367
 31
0.0
  0
LINE
  5
DEB
  8
0
 10
346.96163755528829
 20
416.79026524222451
 30
0.0
 11
367.07832990250432
 21
416.79026524222451
 31
0.0
  0
LINE
  5
DEC
  8
0
 10
346.96163755528829
 20
408.09026524222452
 30
0.0
 11
364.37216344428907
 21
408.09026524222452
 31
0.0
  0
LINE
  5
DED
  8
0
 10
346.96163755528829
 20
405.49026524222461
 30
0.0
 11
364.37216344428907
 21
405.49026524222461
 31
0.0
  0
ARC
  5
DEE
  8
0
 10
346.96163755528829
 20
403.99026524222461
 30
0.0
 40
1.5
 50
90.0
 51
180.0
  0
ARC
  5
DEF
  8
0
 10
346.96163755528829
 20
409.5902652422244
 30
0.0
 40
1.5
 50
180.0
 51
270.0
  0
ARC
  5
DF0
  8
0
 10
346.96163755528829
 20
418.29026524222451
 30
0.0
 40
1.5
 50
180.0
 51
270.0
  0
ARC
  5
DF1
  8
0
 10
364.37216344428907
 20
403.99026524222461
 30
0.0
 40
1.5
 50
6.5624278686345097
 51
90.0
  0
ARC
  5
DF2
  8
0
 10
364.37216344428907
 20
409.5902652422244
 30
0.0
 40
1.5
 50
270.0
 51
353.43757213136541
  0
ARC
  5
DF3
  8
0
 10
356.01224918180338
 20
417.79026524222451
 30
0.0
 40
1.0
 50
161.40717745057441
 51
270.0
  0
ARC
  5
DF4
  8
0
 10
367.07832990250432
 20
418.29026524222451
 30
0.0
 40
1.5
 50
270.0
 51
332.00543826774759
  0
LINE
  5
DF5
  8
CENTER
  6
CENTER
 10
363.21163755528829
 20
442.79026524222451
 30
0.0
 11
342.21163755528829
 21
442.79026524222451
 31
0.0
  0
POLYLINE
  5
DF6
  8
0
  6
CONTINUOUS
 66
     1
 10
0.0
 20
0.0
 30
0.0
 70
     1
  0
VERTEX
  5
1423
  8
0
  6
CONTINUOUS
 10
355.59838890123638
 20
447.79026524222451
 30
0.0
  0
VERTEX
  5
1424
  8
0
  6
CONTINUOUS
 10
358.48514024718457
 20
442.79026524222451
 30
0.0
  0
VERTEX
  5
1425
  8
0
  6
CONTINUOUS
 10
355.59838890123638
 20
437.79026524222451
 30
0.0
  0
VERTEX
  5
1426
  8
0
  6
CONTINUOUS
 10
349.82488620934021
 20
437.79026524222451
 30
0.0
  0
VERTEX
  5
1427
  8
0
  6
CONTINUOUS
 10
346.93813486339218
 20
442.79026524222451
 30
0.0
  0
VERTEX
  5
1428
  8
0
  6
CONTINUOUS
 10
349.82488620934021
 20
447.79026524222439
 30
0.0
  0
SEQEND
  5
1429
  8
0
  6
CONTINUOUS
  0
ARC
  5
DFE
  8
0
 10
352.71163755528829
 20
442.79026524222451
 30
0.0
 40
11.5
 50
243.74878606504441
 51
299.38150172435149
  0
ARC
  5
DFF
  8
0
 10
346.96163755528829
 20
431.1310414258632
 30
0.0
 40
1.5
 50
63.748786065044058
 51
180.0
  0
ARC
  5
E00
  8
0
 10
364.03947689425428
 20
436.41217337156439
 30
0.0
 40
1.5
 50
150.61849827564831
 51
225.0
  0
ARC
  5
E01
  8
0
 10
362.28753959269932
 20
428.97172251769422
 30
0.0
 40
1.0
 50
45.0
 51
139.9885419755561
  0
ARC
  5
E02
  8
0
 10
359.08972942594852
 20
431.46242590325852
 30
0.0
 40
1.5
 50
45.0
 51
119.38150172435159
  0
ARC
  5
E03
  8
0
 10
366.53018027981858
 20
433.21436320481348
 30
0.0
 40
1.0
 50
130.0114580244414
 51
225.0
  0
ARC
  5
E04
  8
0
 10
352.71163755528829
 20
442.79026524222451
 30
0.0
 40
11.5
 50
330.61849827564839
 51
26.251213934927222
  0
LINE
  5
E05
  8
0
 10
431.96163755528818
 20
382.4494890585857
 30
0.0
 11
431.96163755528818
 21
403.99026524222461
 31
0.0
  0
ARC
  5
E06
  8
0
 10
388.71163755528829
 20
406.79026524222462
 30
0.0
 40
23.0
 50
323.21321070173821
 51
353.43757213136593
  0
ARC
  5
E07
  8
0
 10
388.71163755528829
 20
406.79026524222462
 30
0.0
 40
35.5
 50
288.59282254942661
 51
310.01145802444381
  0
ARC
  5
E08
  8
0
 10
403.38319202061751
 20
387.1689633085893
 30
0.0
 40
1.5
 50
45.000000000001521
 51
126.78678929826
  0
LINE
  5
E09
  8
0
 10
413.05241373892699
 20
363.54026524222451
 30
0.0
 11
391.5116375552883
 21
363.54026524222451
 31
0.0
  0
LINE
  5
E0A
  8
0
 10
390.0116375552883
 20
365.04026524222451
 30
0.0
 11
390.0116375552883
 21
382.45079113122517
 31
0.0
  0
LINE
  5
E0B
  8
0
 10
387.41163755528839
 20
365.04026524222451
 30
0.0
 11
387.41163755528839
 21
382.45079113122517
 31
0.0
  0
LINE
  5
E0C
  8
0
 10
398.71163755528818
 20
365.04026524222451
 30
0.0
 11
398.71163755528818
 21
385.15695758944048
 31
0.0
  0
LINE
  5
E0D
  8
0
 10
378.71163755528829
 20
365.04026524222451
 30
0.0
 11
378.71163755528829
 21
385.15695758944048
 31
0.0
  0
ARC
  5
E0E
  8
0
 10
385.91163755528839
 20
365.04026524222451
 30
0.0
 40
1.5
 50
270.0
 51
0.0
  0
ARC
  5
E0F
  8
0
 10
377.21163755528829
 20
365.04026524222451
 30
0.0
 40
1.5
 50
270.0
 51
0.0
  0
ARC
  5
E10
  8
0
 10
377.71163755528829
 20
374.0908768687396
 30
0.0
 40
1.0
 50
251.4071774505743
 51
0.0
  0
ARC
  5
E11
  8
0
 10
391.5116375552883
 20
365.04026524222451
 30
0.0
 40
1.5
 50
180.0
 51
270.0
  0
ARC
  5
E12
  8
0
 10
400.21163755528818
 20
365.04026524222451
 30
0.0
 40
1.5
 50
180.0
 51
270.0
  0
ARC
  5
E13
  8
0
 10
399.71163755528818
 20
374.0908768687396
 30
0.0
 40
1.0
 50
180.0
 51
288.59282254942548
  0
ARC
  5
E14
  8
0
 10
385.91163755528839
 20
382.45079113122517
 30
0.0
 40
1.5
 50
0.0
 51
83.437572131365485
  0
ARC
  5
E15
  8
0
 10
388.71163755528829
 20
406.79026524222462
 30
0.0
 40
23.0
 50
233.21321070173801
 51
263.43757213136581
  0
ARC
  5
E16
  8
0
 10
377.21163755528829
 20
385.15695758944048
 30
0.0
 40
1.5
 50
0.0
 51
62.005438267747621
  0
ARC
  5
E17
  8
0
 10
374.04008308995901
 20
387.1689633085893
 30
0.0
 40
1.5
 50
53.213210701736948
 51
135.0
  0
ARC
  5
E18
  8
0
 10
388.71163755528829
 20
406.79026524222462
 30
0.0
 40
23.0
 50
276.56242786863407
 51
306.78678929826168
  0
ARC
  5
E19
  8
0
 10
391.5116375552883
 20
382.45079113122517
 30
0.0
 40
1.5
 50
96.562427868634515
 51
180.0
  0
ARC
  5
E1A
  8
0
 10
400.21163755528818
 20
385.15695758944048
 30
0.0
 40
1.5
 50
117.99456173225229
 51
180.0
  0
CIRCLE
  5
E1B
  8
0
 10
424.71163755528818
 20
370.79026524222451
 30
0.0
 40
9.0
  0
LINE
  5
E1C
  8
0
 10
414.44445838810191
 20
378.22901728466439
 30
0.0
 11
404.44385219239729
 21
388.22962348036913
 31
0.0
  0
LINE
  5
E1D
  8
CENTER
  6
CENTER
 10
424.71163755528818
 20
381.29026524222451
 30
0.0
 11
424.71163755528818
 21
360.29026524222451
 31
0.0
  0
LINE
  5
E1E
  8
CENTER
  6
CENTER
 10
435.21163755528818
 20
370.79026524222451
 30
0.0
 11
414.21163755528818
 21
370.79026524222451
 31
0.0
  0
POLYLINE
  5
E1F
  8
0
  6
CONTINUOUS
 66
     1
 10
0.0
 20
0.0
 30
0.0
 70
     1
  0
VERTEX
  5
142A
  8
0
  6
CONTINUOUS
 10
427.59838890123638
 20
375.79026524222451
 30
0.0
  0
VERTEX
  5
142B
  8
0
  6
CONTINUOUS
 10
430.48514024718452
 20
370.79026524222451
 30
0.0
  0
VERTEX
  5
142C
  8
0
  6
CONTINUOUS
 10
427.59838890123638
 20
365.79026524222451
 30
0.0
  0
VERTEX
  5
142D
  8
0
  6
CONTINUOUS
 10
421.82488620934009
 20
365.79026524222451
 30
0.0
  0
VERTEX
  5
142E
  8
0
  6
CONTINUOUS
 10
418.93813486339201
 20
370.79026524222451
 30
0.0
  0
VERTEX
  5
142F
  8
0
  6
CONTINUOUS
 10
421.82488620934009
 20
375.79026524222451
 30
0.0
  0
SEQEND
  5
1430
  8
0
  6
CONTINUOUS
  0
ARC
  5
E27
  8
0
 10
424.71163755528818
 20
370.79026524222451
 30
0.0
 40
11.5
 50
150.61849827564811
 51
206.25121393492719
  0
ARC
  5
E28
  8
0
 10
413.05241373892699
 20
365.04026524222451
 30
0.0
 40
1.5
 50
270.0
 51
26.25121393499963
  0
ARC
  5
E29
  8
0
 10
413.38379821632219
 20
377.16835711288462
 30
0.0
 40
1.5
 50
330.61849827564822
 51
45.000000000001521
  0
ARC
  5
E2A
  8
0
 10
424.71163755528818
 20
370.79026524222451
 30
0.0
 40
11.5
 50
63.748786065044662
 51
119.38150172435149
  0
LINE
  5
E2B
  8
0
 10
414.66138502359388
 20
387.29026524222462
 30
0.0
 11
430.46163755528818
 21
387.29026524222462
 31
0.0
  0
LINE
  5
E2C
  8
0
 10
417.27288551284818
 20
381.05744440941061
 30
0.0
 11
407.2722793171435
 21
391.05805060511528
 31
0.0
  0
ARC
  5
E2D
  8
0
 10
418.33354568462818
 20
382.11810458119049
 30
0.0
 40
1.5
 50
224.99999999999841
 51
299.38150172435172
  0
ARC
  5
E2E
  8
0
 10
410.89309483075789
 20
380.36616727963542
 30
0.0
 40
1.0
 50
310.01145802444393
 51
45.0
  0
ARC
  5
E2F
  8
0
 10
414.66138502359388
 20
385.79026524222468
 30
0.0
 40
1.5
 50
90.0
 51
225.00000000000151
  0
ARC
  5
E30
  8
0
 10
408.33293948892327
 20
392.11871077689511
 30
0.0
 40
1.5
 50
143.2132107017369
 51
224.99999999999841
  0
ARC
  5
E31
  8
0
 10
430.46163755528818
 20
382.4494890585857
 30
0.0
 40
1.5
 50
243.74878606504399
 51
0.0
  0
ARC
  5
E32
  8
0
 10
430.46163755528818
 20
385.79026524222468
 30
0.0
 40
1.5
 50
0.0
 51
90.0
  0
ARC
  5
E33
  8
0
 10
388.71163755528829
 20
406.79026524222462
 30
0.0
 40
35.5
 50
49.98854197555616
 51
71.407177450573386
  0
ARC
  5
E34
  8
0
 10
403.38319202061751
 20
426.41156717585972
 30
0.0
 40
1.5
 50
233.21321070173991
 51
315.0
  0
ARC
  5
E35
  8
0
 10
374.04008308995901
 20
426.41156717585972
 30
0.0
 40
1.5
 50
225.0
 51
306.78678929825992
  0
ARC
  5
E36
  8
0
 10
385.91163755528839
 20
431.12973935322378
 30
0.0
 40
1.5
 50
276.56242786863447
 51
0.0
  0
ARC
  5
E37
  8
0
 10
388.71163755528829
 20
406.79026524222462
 30
0.0
 40
23.0
 50
96.562427868634174
 51
126.7867892982617
  0
ARC
  5
E38
  8
0
 10
377.21163755528829
 20
428.42357289500848
 30
0.0
 40
1.5
 50
297.99456173225229
 51
0.0
  0
ARC
  5
E39
  8
0
 10
377.71163755528829
 20
439.4896536157093
 30
0.0
 40
1.0
 50
0.0
 51
108.5928225494286
  0
ARC
  5
E3A
  8
0
 10
388.71163755528829
 20
406.79026524222462
 30
0.0
 40
23.0
 50
53.213210701738248
 51
83.437572131365826
  0
ARC
  5
E3B
  8
0
 10
391.5116375552883
 20
431.12973935322378
 30
0.0
 40
1.5
 50
180.0
 51
263.43757213136541
  0
ARC
  5
E3C
  8
0
 10
400.21163755528818
 20
428.42357289500848
 30
0.0
 40
1.5
 50
180.0
 51
242.00543826774759
  0
ARC
  5
E3D
  8
0
 10
399.71163755528818
 20
439.4896536157093
 30
0.0
 40
1.0
 50
71.407177450574423
 51
180.0
  0
ARC
  5
E3E
  8
0
 10
430.46163755528818
 20
425.7064637293193
 30
0.0
 40
1.5
 50
270.0
 51
0.0
  0
LINE
  5
E3F
  8
0
 10
431.96163755528818
 20
431.1310414258632
 30
0.0
 11
431.96163755528818
 21
409.5902652422244
 31
0.0
  0
ARC
  5
E40
  8
0
 10
412.16138502359422
 20
425.7064637293193
 30
0.0
 40
1.5
 50
171.50526946671781
 51
270.0
  0
LINE
  5
E41
  8
0
 10
417.27288551284818
 20
432.52308607503829
 30
0.0
 11
407.2722793171435
 21
422.52247987933367
 31
0.0
  0
LINE
  5
E42
  8
0
 10
411.81629128786562
 20
413.44041713637398
 30
0.0
 11
430.46163755528818
 21
413.44041713637398
 31
0.0
  0
LINE
  5
E43
  8
0
 10
412.16138502359422
 20
424.2064637293193
 30
0.0
 11
430.46163755528818
 21
424.2064637293193
 31
0.0
  0
LINE
  5
E44
  8
0
 10
430.46163755528818
 20
405.49026524222461
 30
0.0
 11
413.05111166628762
 21
405.49026524222461
 31
0.0
  0
LINE
  5
E45
  8
0
 10
430.46163755528818
 20
408.09026524222452
 30
0.0
 11
413.05111166628762
 21
408.09026524222452
 31
0.0
  0
ARC
  5
E46
  8
0
 10
411.81629128786562
 20
414.94041713637398
 30
0.0
 40
1.5
 50
199.43026151964381
 51
270.0
  0
ARC
  5
E47
  8
0
 10
388.71163755528829
 20
406.79026524222462
 30
0.0
 40
23.0
 50
6.5624278686341668
 51
36.78678929826156
  0
ARC
  5
E48
  8
0
 10
413.05111166628762
 20
403.99026524222461
 30
0.0
 40
1.5
 50
90.0
 51
173.4375721313655
  0
ARC
  5
E49
  8
0
 10
413.05111166628762
 20
409.5902652422244
 30
0.0
 40
1.5
 50
186.5624278686345
 51
270.0
  0
ARC
  5
E4A
  8
0
 10
408.3329394889235
 20
421.46181970755379
 30
0.0
 40
1.5
 50
135.0
 51
216.78678929826
  0
ARC
  5
E4B
  8
0
 10
430.46163755528818
 20
414.94041713637398
 30
0.0
 40
1.5
 50
270.0
 51
0.0
  0
ARC
  5
E4C
  8
0
 10
430.46163755528818
 20
403.99026524222461
 30
0.0
 40
1.5
 50
0.0
 51
90.0
  0
ARC
  5
E4D
  8
0
 10
430.46163755528818
 20
409.5902652422244
 30
0.0
 40
1.5
 50
270.0
 51
0.0
  0
LINE
  5
E4E
  8
CENTER
  6
CENTER
 10
435.21163755528818
 20
442.79026524222451
 30
0.0
 11
414.21163755528818
 21
442.79026524222451
 31
0.0
  0
POLYLINE
  5
E4F
  8
0
  6
CONTINUOUS
 66
     1
 10
0.0
 20
0.0
 30
0.0
 70
     1
  0
VERTEX
  5
1431
  8
0
  6
CONTINUOUS
 10
427.59838890123638
 20
447.79026524222451
 30
0.0
  0
VERTEX
  5
1432
  8
0
  6
CONTINUOUS
 10
430.48514024718452
 20
442.79026524222451
 30
0.0
  0
VERTEX
  5
1433
  8
0
  6
CONTINUOUS
 10
427.59838890123638
 20
437.79026524222451
 30
0.0
  0
VERTEX
  5
1434
  8
0
  6
CONTINUOUS
 10
421.82488620934009
 20
437.79026524222451
 30
0.0
  0
VERTEX
  5
1435
  8
0
  6
CONTINUOUS
 10
418.93813486339201
 20
442.79026524222451
 30
0.0
  0
VERTEX
  5
1436
  8
0
  6
CONTINUOUS
 10
421.82488620934009
 20
447.79026524222439
 30
0.0
  0
SEQEND
  5
1437
  8
0
  6
CONTINUOUS
  0
ARC
  5
E57
  8
0
 10
424.71163755528818
 20
442.79026524222451
 30
0.0
 40
11.5
 50
240.61849827564839
 51
296.2512139349555
  0
ARC
  5
E58
  8
0
 10
413.38379821632219
 20
436.41217337156439
 30
0.0
 40
1.5
 50
315.0
 51
29.3815017243517
  0
LINE
  5
E59
  8
0
 10
414.44445838810191
 20
435.35151319978451
 30
0.0
 11
404.44385219239729
 21
425.35090700407989
 31
0.0
  0
ARC
  5
E5A
  8
0
 10
418.33354568462818
 20
431.46242590325852
 30
0.0
 40
1.5
 50
60.618498275650182
 51
135.0
  0
ARC
  5
E5B
  8
0
 10
410.89309483075789
 20
433.21436320481348
 30
0.0
 40
1.0
 50
315.0
 51
49.988541975558569
  0
ARC
  5
E5C
  8
0
 10
424.71163755528818
 20
442.79026524222451
 30
0.0
 40
11.5
 50
153.74878606506351
 51
209.38150172435141
  0
ARC
  5
E5D
  8
0
 10
430.46163755528818
 20
431.1310414258632
 30
0.0
 40
1.5
 50
0.0
 51
116.251213934954
  0
LINE
  5
E5E
  8
0
 10
435.96163755528818
 20
442.79026524222451
 30
0.0
 11
435.96163755528818
 21
370.79026524222451
 31
0.0
  0
LINE
  5
E5F
  8
0
  6
CONTINUOUS
 10
444.21163755528812
 20
377.79026524222451
 30
0.0
 11
444.21163755528812
 21
389.79026524222451
 31
0.0
  0
LINE
  5
E60
  8
0
  6
CONTINUOUS
 10
445.21163755528818
 20
377.79026524222451
 30
0.0
 11
447.21163755528818
 21
379.79026524222451
 31
0.0
  0
LINE
  5
E61
  8
0
  6
CONTINUOUS
 10
445.21163755528818
 20
377.79026524222451
 30
0.0
 11
445.21163755528818
 21
389.79026524222451
 31
0.0
  0
ARC
  5
E62
  8
0
  6
CONTINUOUS
 10
433.94941533306468
 20
379.04026524222451
 30
0.0
 40
10.338070658410899
 50
332.64729508745978
 51
27.352704912540158
  0
LINE
  5
E63
  8
0
  6
CONTINUOUS
 10
443.13163755528819
 20
374.29026524222451
 30
0.0
 11
436.21163755528818
 21
374.29026524222451
 31
0.0
  0
LINE
  5
E64
  8
0
  6
CONTINUOUS
 10
444.21163755528812
 20
377.79026524222451
 30
0.0
 11
445.21163755528818
 21
377.79026524222451
 31
0.0
  0
ARC
  5
E65
  8
0
  6
CONTINUOUS
 10
433.94941533306468
 20
388.54026524222451
 30
0.0
 40
10.338070658410899
 50
332.64729508745978
 51
27.352704912540158
  0
LINE
  5
E66
  8
0
  6
CONTINUOUS
 10
436.21163755528818
 20
383.79026524222451
 30
0.0
 11
443.13163755528819
 21
383.79026524222451
 31
0.0
  0
LINE
  5
E67
  8
0
  6
CONTINUOUS
 10
436.21163755528818
 20
383.79026524222451
 30
0.0
 11
443.13163755528819
 21
383.79026524222451
 31
0.0
  0
LINE
  5
E68
  8
0
  6
CONTINUOUS
 62
     2
 10
444.21163755528812
 20
378.99026524222518
 30
0.0
 11
446.41163755528891
 21
378.99026524222518
 31
0.0
  0
LINE
  5
E69
  8
0
  6
CONTINUOUS
 62
     2
 10
444.21163755528812
 20
388.59026524222378
 30
0.0
 11
446.41163755528891
 21
388.59026524222378
 31
0.0
  0
LINE
  5
E6A
  8
0
  6
CONTINUOUS
 10
444.21163755528812
 20
389.79026524222451
 30
0.0
 11
445.21163755528818
 21
389.79026524222451
 31
0.0
  0
LINE
  5
E6B
  8
0
  6
CONTINUOUS
 10
445.21163755528818
 20
389.79026524222451
 30
0.0
 11
447.21163755528818
 21
387.79026524222451
 31
0.0
  0
LINE
  5
E6C
  8
0
  6
CONTINUOUS
 10
447.21163755528818
 20
379.79026524222451
 30
0.0
 11
447.21163755528818
 21
387.79026524222451
 31
0.0
  0
LINE
  5
E6D
  8
0
  6
CONTINUOUS
 10
443.13163755528819
 20
393.29026524222451
 30
0.0
 11
436.21163755528818
 21
393.29026524222451
 31
0.0
  0
LINE
  5
E6E
  8
0
 10
436.21163755528818
 20
454.29026524222451
 30
0.0
 11
301.21163755528829
 21
454.29026524222451
 31
0.0
  0
LINE
  5
E6F
  8
0
 10
424.71163755528818
 20
454.04026524222451
 30
0.0
 11
352.71163755528829
 21
454.04026524222451
 31
0.0
  0
LINE
  5
E70
  8
0
 10
364.37086137164971
 20
450.04026524222451
 30
0.0
 11
385.91163755528839
 21
450.04026524222451
 31
0.0
  0
LINE
  5
E71
  8
0
 10
400.71163755528818
 20
465.29026524222462
 30
0.0
 11
304.71163755528829
 21
465.29026524222462
 31
0.0
  0
LINE
  5
E72
  8
0
 10
399.71163755528818
 20
466.29026524222462
 30
0.0
 11
305.71163755528829
 21
466.29026524222462
 31
0.0
  0
LINE
  5
E73
  8
0
 10
370.21163755528829
 20
467.29026524222462
 30
0.0
 11
335.21163755528829
 21
467.29026524222462
 31
0.0
  0
LINE
  5
E74
  8
0
 10
348.71163755528829
 20
510.79026524222462
 30
0.0
 11
348.71163755528829
 21
473.79026524222462
 31
0.0
  0
LINE
  5
E75
  8
0
 10
356.71163755528829
 20
510.79026524222462
 30
0.0
 11
356.71163755528829
 21
473.79026524222462
 31
0.0
  0
LINE
  5
E76
  8
0
 10
338.71163755528812
 20
516.29026524222445
 30
0.0
 11
338.71163755528829
 21
467.29026524222462
 31
0.0
  0
LINE
  5
E77
  8
0
 10
366.71163755528829
 20
516.29026524222445
 30
0.0
 11
366.71163755528829
 21
467.29026524222462
 31
0.0
  0
LINE
  5
E78
  8
0
 10
304.71163755528829
 20
465.29026524222462
 30
0.0
 11
304.71163755528829
 21
454.29026524222451
 31
0.0
  0
LINE
  5
E79
  8
0
 10
305.71163755528829
 20
466.29026524222462
 30
0.0
 11
304.71163755528829
 21
465.29026524222462
 31
0.0
  0
LINE
  5
E7A
  8
0
 10
335.21163755528829
 20
467.29026524222462
 30
0.0
 11
335.21163755528829
 21
466.29026524222462
 31
0.0
  0
ARC
  5
E7B
  8
0
  6
CONTINUOUS
 10
352.71163755528829
 20
473.79026524222462
 30
0.0
 40
4.0
 50
180.0
 51
0.0
  0
ARC
  5
E7C
  8
0
  6
CONTINUOUS
 10
352.71163755528829
 20
510.79026524222462
 30
0.0
 40
4.0
 50
0.0
 51
180.0
  0
LINE
  5
E7D
  8
0
 10
365.71163755528829
 20
517.29026524222445
 30
0.0
 11
339.71163755528812
 21
517.29026524222445
 31
0.0
  0
LINE
  5
E7E
  8
0
 10
366.71163755528829
 20
516.29026524222456
 30
0.0
 11
338.71163755528829
 21
516.29026524222445
 31
0.0
  0
LINE
  5
E7F
  8
0
 10
339.71163755528812
 20
517.29026524222445
 30
0.0
 11
338.71163755528812
 21
516.29026524222445
 31
0.0
  0
LINE
  5
E80
  8
0
 10
365.71163755528829
 20
517.29026524222445
 30
0.0
 11
366.71163755528829
 21
516.29026524222445
 31
0.0
  0
LINE
  5
E81
  8
0
 10
413.05241373892699
 20
450.04026524222451
 30
0.0
 11
391.5116375552883
 21
450.04026524222451
 31
0.0
  0
ARC
  5
E82
  8
0
 10
385.91163755528839
 20
448.54026524222451
 30
0.0
 40
1.5
 50
0.0
 51
90.0
  0
ARC
  5
E83
  8
0
 10
377.21163755528829
 20
448.54026524222451
 30
0.0
 40
1.5
 50
0.0
 51
90.0
  0
LINE
  5
E84
  8
0
 10
370.21163755528829
 20
467.29026524222462
 30
0.0
 11
370.21163755528812
 21
466.29026524222462
 31
0.0
  0
LINE
  5
E85
  8
0
 10
400.71163755528818
 20
465.29026524222462
 30
0.0
 11
400.71163755528829
 21
454.29026524222451
 31
0.0
  0
ARC
  5
E86
  8
0
 10
391.5116375552883
 20
448.54026524222451
 30
0.0
 40
1.5
 50
90.0
 51
180.0
  0
ARC
  5
E87
  8
0
 10
400.21163755528818
 20
448.54026524222451
 30
0.0
 40
1.5
 50
90.0
 51
180.0
  0
LINE
  5
E88
  8
0
 10
399.71163755528818
 20
466.29026524222462
 30
0.0
 11
400.71163755528818
 21
465.29026524222462
 31
0.0
  0
LINE
  5
E89
  8
DIM
  6
CONTINUOUS
 10
1068.3831482243841
 20
347.29026524222451
 30
0.0
 11
1068.3831482243841
 21
517.29026524222445
 31
0.0
  0
LINE
  5
E8A
  8
DIM
  6
CONTINUOUS
 10
1060.3831482243841
 20
347.29026524222451
 30
0.0
 11
1060.3831482243841
 21
466.29026524222451
 31
0.0
  0
SOLID
  5
E8B
  8
DIM
  6
CONTINUOUS
 10
926.96169311136885
 20
450.598029602954
 30
0.0
 11
926.03678496673638
 21
450.21783896131132
 31
0.0
 12
927.63981096398118
 22
447.63320984823559
 32
0.0
 13
927.63981096398118
 23
447.63320984823559
 33
0.0
  0
LINE
  5
E8C
  8
0
 10
1052.3831482243841
 20
454.29026524222451
 30
0.0
 11
1052.3831482243841
 21
359.29026524222451
 31
0.0
  0
LINE
  5
E8D
  8
0
 10
917.38314822438485
 20
454.29026524222451
 30
0.0
 11
917.38314822438485
 21
359.29026524222462
 31
0.0
  0
ARC
  5
E8E
  8
0
 10
1000.8831482243839
 20
442.79026524222451
 30
0.0
 40
11.25
 50
0.0
 51
90.0
  0
ARC
  5
E8F
  8
0
 10
1000.8831482243839
 20
442.79026524222451
 30
0.0
 40
11.5
 50
0.0
 51
90.0
  0
ARC
  5
E90
  8
0
 10
989.22392440802355
 20
448.54026524222451
 30
0.0
 40
1.5
 50
333.74878606499061
 51
90.0
  0
CIRCLE
  5
E91
  8
0
 10
1000.8831482243839
 20
442.79026524222451
 30
0.0
 40
9.0
  0
LINE
  5
E92
  8
CENTER
  6
CENTER
 10
1000.8831482243839
 20
520.29026524222445
 30
0.0
 11
1000.8831482243839
 21
344.29026524222451
 31
0.0
  0
ARC
  5
E93
  8
0
 10
940.54237204074605
 20
448.54026524222451
 30
0.0
 40
1.5
 50
90.0
 51
206.25121393501709
  0
LINE
  5
E94
  8
0
 10
954.88314822438485
 20
448.54026524222451
 30
0.0
 11
954.88314822438485
 21
428.42357289500848
 31
0.0
  0
LINE
  5
E95
  8
0
 10
966.18314822438469
 20
448.54026524222451
 30
0.0
 11
966.18314822438469
 21
431.12973935322378
 31
0.0
  0
LINE
  5
E96
  8
0
 10
963.5831482243849
 20
448.54026524222451
 30
0.0
 11
963.5831482243849
 21
431.12973935322378
 31
0.0
  0
LINE
  5
E97
  8
0
 10
974.88314822438485
 20
448.54026524222451
 30
0.0
 11
974.88314822438485
 21
428.42357289500848
 31
0.0
  0
ARC
  5
E98
  8
0
 10
928.88314822438485
 20
442.79026524222451
 30
0.0
 40
11.25
 50
90.0
 51
180.0
  0
ARC
  5
E99
  8
0
 10
928.88314822438485
 20
442.79026524222451
 30
0.0
 40
11.5
 50
90.0
 51
180.0
  0
LINE
  5
E9A
  8
CENTER
  6
CENTER
 10
928.88314822438485
 20
453.29026524222451
 30
0.0
 11
928.88314822438485
 21
432.29026524222462
 31
0.0
  0
CIRCLE
  5
E9B
  8
0
 10
928.88314822438485
 20
442.79026524222451
 30
0.0
 40
9.0
  0
LINE
  5
E9C
  8
CENTER
  6
CENTER
 10
964.88314822438474
 20
457.29026524222462
 30
0.0
 11
964.88314822438474
 21
356.29026524222451
 31
0.0
  0
LINE
  5
E9D
  8
DIM
  6
CONTINUOUS
 10
917.38314822438485
 20
323.29026524222468
 30
0.0
 11
1052.3831482243841
 21
323.29026524222468
 31
0.0
  0
LINE
  5
E9E
  8
DIM
  6
CONTINUOUS
 10
917.38314822438485
 20
331.29026524222462
 30
0.0
 11
1012.383148224385
 21
331.29026524222462
 31
0.0
  0
LINE
  5
E9F
  8
0
 10
917.38314822438485
 20
359.29026524222462
 30
0.0
 11
1052.3831482243841
 21
359.29026524222451
 31
0.0
  0
ARC
  5
EA0
  8
0
 10
928.88314822438485
 20
442.79026524222451
 30
0.0
 40
11.5
 50
330.61849827564839
 51
26.251213934945589
  0
ARC
  5
EA1
  8
0
 10
938.93340075607898
 20
427.79026524222439
 30
0.0
 40
1.5
 50
270.0
 51
45.000000000001521
  0
LINE
  5
EA2
  8
0
 10
936.32190026682485
 20
432.52308607503829
 30
0.0
 11
946.32250646252942
 21
422.52247987933367
 31
0.0
  0
LINE
  5
EA3
  8
0
 10
939.15032739157107
 20
435.35151319978451
 30
0.0
 11
949.15093358727574
 21
425.35090700407989
 31
0.0
  0
LINE
  5
EA4
  8
0
 10
923.13314822438485
 20
405.49026524222461
 30
0.0
 11
940.54367411338535
 21
405.49026524222461
 31
0.0
  0
LINE
  5
EA5
  8
0
 10
923.13314822438485
 20
408.09026524222452
 30
0.0
 11
940.54367411338535
 21
408.09026524222452
 31
0.0
  0
LINE
  5
EA6
  8
CENTER
  6
CENTER
 10
914.38314822438485
 20
406.79026524222462
 30
0.0
 11
1055.2289505033259
 21
406.79026524222462
 31
0.0
  0
LINE
  5
EA7
  8
0
 10
936.32190026682485
 20
381.05744440941061
 30
0.0
 11
946.32250646252942
 21
391.05805060511528
 31
0.0
  0
LINE
  5
EA8
  8
0
 10
939.15032739157107
 20
378.22901728466439
 30
0.0
 11
949.15093358727574
 21
388.22962348036913
 31
0.0
  0
ARC
  5
EA9
  8
0
 10
940.54237204074605
 20
365.04026524222451
 30
0.0
 40
1.5
 50
153.7487860649926
 51
270.0
  0
ARC
  5
EAA
  8
0
 10
928.88314822438485
 20
370.79026524222451
 30
0.0
 40
11.5
 50
333.74878606506348
 51
29.381501724351772
  0
LINE
  5
EAB
  8
0
 10
941.77849449180746
 20
400.14011334807498
 30
0.0
 11
923.13314822438485
 21
400.14011334807498
 31
0.0
  0
LINE
  5
EAC
  8
0
 10
941.43340075607887
 20
389.37406675512972
 30
0.0
 11
923.13314822438485
 21
389.37406675512972
 31
0.0
  0
LINE
  5
EAD
  8
0
 10
928.88314822438485
 20
359.54026524222451
 30
0.0
 11
1000.8831482243839
 21
359.54026524222451
 31
0.0
  0
LINE
  5
EAE
  8
DIM
  6
CONTINUOUS
 10
917.38314822438485
 20
358.29026524222462
 30
0.0
 11
917.38314822438485
 21
322.29026524222462
 31
0.0
  0
SOLID
  5
EAF
  8
DIM
  6
CONTINUOUS
 10
920.38314822438485
 20
323.79026524222462
 30
0.0
 11
920.38314822438485
 21
322.79026524222462
 31
0.0
 12
917.38314822438485
 22
323.29026524222468
 32
0.0
 13
917.38314822438485
 23
323.29026524222468
 33
0.0
  0
SOLID
  5
EB0
  8
DIM
  6
CONTINUOUS
 10
920.38314822438485
 20
331.79026524222468
 30
0.0
 11
920.38314822438485
 21
330.79026524222462
 31
0.0
 12
917.38314822438485
 22
331.29026524222462
 32
0.0
 13
917.38314822438485
 23
331.29026524222462
 33
0.0
  0
POLYLINE
  5
EB1
  8
DIM
  6
CONTINUOUS
 66
     1
 10
0.0
 20
0.0
 30
0.0
 70
     1
  0
VERTEX
  5
1438
  8
DIM
  6
CONTINUOUS
 10
894.47013291005646
 20
403.72930707024938
 30
0.0
  0
VERTEX
  5
1439
  8
DIM
  6
CONTINUOUS
 10
894.47013291005646
 20
401.6293122904309
 30
0.0
  0
VERTEX
  5
143A
  8
DIM
  6
CONTINUOUS
 10
896.50038991941915
 20
401.6293122904309
 30
0.0
  0
VERTEX
  5
143B
  8
DIM
  6
CONTINUOUS
 10
896.50038991941915
 20
403.72930707024938
 30
0.0
  0
SEQEND
  5
143C
  8
DIM
  6
CONTINUOUS
  0
LINE
  5
EB7
  8
DIM
  6
CONTINUOUS
 10
898.38314822438463
 20
370.79026524222439
 30
0.0
 11
898.38314822438463
 21
442.79026524222451
 31
0.0
  0
LINE
  5
EB8
  8
0
 10
921.63314822438485
 20
382.4494890585857
 30
0.0
 11
921.63314822438485
 21
403.99026524222461
 31
0.0
  0
LINE
  5
EB9
  8
0
 10
917.63314822438485
 20
442.79026524222451
 30
0.0
 11
917.63314822438485
 21
370.79026524222451
 31
0.0
  0
LINE
  5
EBA
  8
DIM
  6
CONTINUOUS
 10
917.38314822438485
 20
370.79026524222451
 30
0.0
 11
897.38314822438485
 21
370.79026524222451
 31
0.0
  0
LINE
  5
EBB
  8
0
  6
CONTINUOUS
 10
908.38314822438485
 20
389.79026524222451
 30
0.0
 11
906.38314822438485
 21
387.79026524222451
 31
0.0
  0
LINE
  5
EBC
  8
0
  6
CONTINUOUS
 10
908.38314822438485
 20
377.79026524222451
 30
0.0
 11
906.38314822438485
 21
379.79026524222451
 31
0.0
  0
LINE
  5
EBD
  8
0
  6
CONTINUOUS
 62
     2
 10
909.38314822438485
 20
388.59026524222378
 30
0.0
 11
907.18314822438401
 21
388.59026524222378
 31
0.0
  0
LINE
  5
EBE
  8
0
  6
CONTINUOUS
 62
     2
 10
909.38314822438485
 20
378.99026524222518
 30
0.0
 11
907.18314822438401
 21
378.99026524222518
 31
0.0
  0
LINE
  5
EBF
  8
CENTER
  6
CENTER
 10
902.38314822438474
 20
383.79026524222451
 30
0.0
 11
937.59657224576119
 21
383.79026524222451
 31
0.0
  0
SOLID
  5
EC0
  8
DIM
  6
CONTINUOUS
 10
897.88314822438474
 20
373.79026524222451
 30
0.0
 11
898.88314822438485
 21
373.79026524222451
 31
0.0
 12
898.38314822438485
 22
370.79026524222451
 32
0.0
 13
898.38314822438485
 23
370.79026524222451
 33
0.0
  0
LINE
  5
EC1
  8
0
  6
CONTINUOUS
 10
906.38314822438485
 20
379.79026524222451
 30
0.0
 11
906.38314822438485
 21
387.79026524222451
 31
0.0
  0
ARC
  5
EC2
  8
0
  6
CONTINUOUS
 10
919.64537044660835
 20
379.04026524222451
 30
0.0
 40
10.338070658410899
 50
152.64729508745981
 51
207.3527049125401
  0
LINE
  5
EC3
  8
0
  6
CONTINUOUS
 10
908.38314822438485
 20
377.79026524222451
 30
0.0
 11
908.38314822438485
 21
389.79026524222451
 31
0.0
  0
LINE
  5
EC4
  8
0
  6
CONTINUOUS
 10
909.38314822438485
 20
377.79026524222451
 30
0.0
 11
909.38314822438485
 21
389.79026524222451
 31
0.0
  0
LINE
  5
EC5
  8
CENTER
  6
CENTER
 10
928.88314822438485
 20
381.29026524222451
 30
0.0
 11
928.88314822438485
 21
360.29026524222451
 31
0.0
  0
CIRCLE
  5
EC6
  8
0
 10
928.88314822438485
 20
370.79026524222451
 30
0.0
 40
9.0
  0
ARC
  5
EC7
  8
0
 10
928.88314822438485
 20
370.79026524222451
 30
0.0
 40
11.25
 50
180.0
 51
270.0
  0
ARC
  5
EC8
  8
0
 10
928.88314822438485
 20
370.79026524222451
 30
0.0
 40
11.5
 50
180.0
 51
270.0
  0
POLYLINE
  5
EC9
  8
0
  6
CONTINUOUS
 66
     1
 10
0.0
 20
0.0
 30
0.0
 70
     1
  0
VERTEX
  5
143D
  8
0
  6
CONTINUOUS
 10
925.99639687843671
 20
375.79026524222451
 30
0.0
  0
VERTEX
  5
143E
  8
0
  6
CONTINUOUS
 10
923.10964553248857
 20
370.79026524222451
 30
0.0
  0
VERTEX
  5
143F
  8
0
  6
CONTINUOUS
 10
925.99639687843671
 20
365.79026524222451
 30
0.0
  0
VERTEX
  5
1440
  8
0
  6
CONTINUOUS
 10
931.76989957033265
 20
365.79026524222451
 30
0.0
  0
VERTEX
  5
1441
  8
0
  6
CONTINUOUS
 10
934.6566509162808
 20
370.79026524222451
 30
0.0
  0
VERTEX
  5
1442
  8
0
  6
CONTINUOUS
 10
931.76989957033265
 20
375.79026524222451
 30
0.0
  0
SEQEND
  5
1443
  8
0
  6
CONTINUOUS
  0
LINE
  5
ED1
  8
CENTER
  6
CENTER
 10
918.38314822438485
 20
370.79026524222451
 30
0.0
 11
939.38314822438485
 21
370.79026524222451
 31
0.0
  0
LINE
  5
ED2
  8
0
  6
CONTINUOUS
 10
910.46314822438467
 20
374.29026524222451
 30
0.0
 11
917.38314822438485
 21
374.29026524222451
 31
0.0
  0
LINE
  5
ED3
  8
0
  6
CONTINUOUS
 10
909.38314822438485
 20
377.79026524222451
 30
0.0
 11
908.38314822438485
 21
377.79026524222451
 31
0.0
  0
ARC
  5
ED4
  8
0
 10
940.21098756335084
 20
377.16835711288462
 30
0.0
 40
1.5
 50
134.9999999999969
 51
209.3815017243528
  0
LINE
  5
ED5
  8
CENTER
  6
CENTER
 10
914.3370147100178
 20
396.79026524222451
 30
0.0
 11
936.87985621568635
 21
396.79026524222451
 31
0.0
  0
ARC
  5
ED6
  8
0
 10
928.88314822438485
 20
370.79026524222451
 30
0.0
 40
11.5
 50
60.618498275648491
 51
116.2512139349562
  0
ARC
  5
ED7
  8
0
  6
CONTINUOUS
 10
919.64537044660835
 20
388.54026524222451
 30
0.0
 40
10.338070658410899
 50
152.64729508745981
 51
207.3527049125401
  0
LINE
  5
ED8
  8
0
  6
CONTINUOUS
 10
917.38314822438485
 20
383.79026524222451
 30
0.0
 11
910.46314822438467
 21
383.79026524222451
 31
0.0
  0
LINE
  5
ED9
  8
0
  6
CONTINUOUS
 10
917.38314822438485
 20
383.79026524222451
 30
0.0
 11
910.46314822438467
 21
383.79026524222451
 31
0.0
  0
LINE
  5
EDA
  8
0
  6
CONTINUOUS
 10
909.38314822438485
 20
389.79026524222451
 30
0.0
 11
908.38314822438485
 21
389.79026524222451
 31
0.0
  0
ARC
  5
EDB
  8
0
 10
923.13314822438485
 20
387.87406675512972
 30
0.0
 40
1.5
 50
90.0
 51
180.0
  0
ARC
  5
EDC
  8
0
 10
923.13314822438485
 20
382.4494890585857
 30
0.0
 40
1.5
 50
180.0
 51
296.25121393495198
  0
LINE
  5
EDD
  8
0
  6
CONTINUOUS
 10
910.46314822438467
 20
393.29026524222451
 30
0.0
 11
917.38314822438485
 21
393.29026524222451
 31
0.0
  0
ARC
  5
EDE
  8
0
 10
923.13314822438485
 20
398.64011334807498
 30
0.0
 40
1.5
 50
90.0
 51
180.0
  0
ARC
  5
EDF
  8
0
 10
935.26124009504485
 20
382.11810458119049
 30
0.0
 40
1.5
 50
240.61849827564819
 51
314.99999999999841
  0
LINE
  5
EE0
  8
DIM
  6
CONTINUOUS
 10
917.38314822438485
 20
442.79026524222451
 30
0.0
 11
897.38314822438485
 21
442.79026524222451
 31
0.0
  0
TEXT
  5
EE1
  8
DIM
  6
CONTINUOUS
 10
896.88314822438485
 20
404.36169381365312
 30
0.0
 40
3.0
  1
72
 50
90.0
  7
ROMANSS
 72
     1
 11
895.38314822438485
 21
406.79026524222462
 31
0.0
 73
     2
  0
SOLID
  5
EE2
  8
DIM
  6
CONTINUOUS
 10
897.88314822438474
 20
439.79026524222451
 30
0.0
 11
898.88314822438485
 21
439.79026524222451
 31
0.0
 12
898.38314822438485
 22
442.79026524222451
 32
0.0
 13
898.38314822438485
 23
442.79026524222451
 33
0.0
  0
LINE
  5
EE3
  8
0
 10
921.63314822438485
 20
431.1310414258632
 30
0.0
 11
921.63314822438485
 21
409.5902652422244
 31
0.0
  0
LINE
  5
EE4
  8
CENTER
  6
CENTER
 10
914.1631872478539
 20
413.79026524222451
 30
0.0
 11
937.73622419418132
 21
413.79026524222451
 31
0.0
  0
ARC
  5
EE5
  8
0
 10
923.13314822438485
 20
403.99026524222461
 30
0.0
 40
1.5
 50
90.0
 51
180.0
  0
ARC
  5
EE6
  8
0
 10
923.13314822438485
 20
409.5902652422244
 30
0.0
 40
1.5
 50
180.0
 51
270.0
  0
ARC
  5
EE7
  8
0
 10
928.88314822438485
 20
442.79026524222451
 30
0.0
 40
11.5
 50
243.74878606504359
 51
299.38150172435149
  0
LINE
  5
EE8
  8
0
 10
938.93340075607898
 20
426.29026524222439
 30
0.0
 11
923.13314822438485
 21
426.29026524222439
 31
0.0
  0
POLYLINE
  5
EE9
  8
0
  6
CONTINUOUS
 66
     1
 10
0.0
 20
0.0
 30
0.0
 70
     1
  0
VERTEX
  5
1444
  8
0
  6
CONTINUOUS
 10
925.99639687843671
 20
447.79026524222451
 30
0.0
  0
VERTEX
  5
1445
  8
0
  6
CONTINUOUS
 10
923.10964553248857
 20
442.79026524222451
 30
0.0
  0
VERTEX
  5
1446
  8
0
  6
CONTINUOUS
 10
925.99639687843671
 20
437.79026524222451
 30
0.0
  0
VERTEX
  5
1447
  8
0
  6
CONTINUOUS
 10
931.76989957033265
 20
437.79026524222451
 30
0.0
  0
VERTEX
  5
1448
  8
0
  6
CONTINUOUS
 10
934.6566509162808
 20
442.79026524222451
 30
0.0
  0
VERTEX
  5
1449
  8
0
  6
CONTINUOUS
 10
931.76989957033265
 20
447.79026524222439
 30
0.0
  0
SEQEND
  5
144A
  8
0
  6
CONTINUOUS
  0
LINE
  5
EF1
  8
CENTER
  6
CENTER
 10
918.38314822438485
 20
442.79026524222451
 30
0.0
 11
939.38314822438485
 21
442.79026524222451
 31
0.0
  0
ARC
  5
EF2
  8
0
 10
923.13314822438485
 20
431.1310414258632
 30
0.0
 40
1.5
 50
63.748786065048918
 51
180.0
  0
ARC
  5
EF3
  8
0
 10
923.13314822438485
 20
427.79026524222439
 30
0.0
 40
1.5
 50
180.0
 51
270.0
  0
ARC
  5
EF4
  8
0
 10
940.21098756335084
 20
436.41217337156439
 30
0.0
 40
1.5
 50
150.6184982756472
 51
225.00000000000151
  0
ARC
  5
EF5
  8
0
 10
935.26124009504485
 20
431.46242590325852
 30
0.0
 40
1.5
 50
45.000000000001521
 51
119.38150172435159
  0
LINE
  5
EF6
  8
DIM
  6
CONTINUOUS
 10
1052.3831482243841
 20
358.29026524222451
 30
0.0
 11
1052.3831482243841
 21
322.29026524222462
 31
0.0
  0
LINE
  5
EF7
  8
DIM
  6
CONTINUOUS
 10
1012.383148224385
 20
369.79026524222451
 30
0.0
 11
1012.383148224385
 21
340.5073651594513
 31
0.0
  0
LINE
  5
EF8
  8
0
 10
1048.8831482243841
 20
359.29026524222451
 30
0.0
 11
1048.8831482243841
 21
348.29026524222451
 31
0.0
  0
LINE
  5
EF9
  8
0
 10
952.88314822438463
 20
359.29026524222451
 30
0.0
 11
952.88314822438485
 21
348.29026524222468
 31
0.0
  0
LINE
  5
EFA
  8
DIM
  6
CONTINUOUS
 10
964.88314822438474
 20
339.29026524222468
 30
0.0
 11
1052.3831482243841
 21
339.29026524222462
 31
0.0
  0
LINE
  5
EFB
  8
0
 10
952.88314822438485
 20
348.29026524222451
 30
0.0
 11
1048.8831482243841
 21
348.29026524222451
 31
0.0
  0
LINE
  5
EFC
  8
0
 10
953.88314822438485
 20
347.29026524222462
 30
0.0
 11
1047.883148224385
 21
347.29026524222451
 31
0.0
  0
LINE
  5
EFD
  8
0
 10
952.88314822438485
 20
348.29026524222468
 30
0.0
 11
953.88314822438485
 21
347.29026524222462
 31
0.0
  0
LINE
  5
EFE
  8
DIM
  6
CONTINUOUS
 10
964.88314822438474
 20
355.29026524222451
 30
0.0
 11
964.88314822438474
 21
338.29026524222462
 31
0.0
  0
TEXT
  5
EFF
  8
DIM
  6
CONTINUOUS
 10
962.4545767958133
 20
332.79026524222462
 30
0.0
 40
3.0
  1
95
  7
ROMANSS
 72
     1
 11
964.88314822438474
 21
334.29026524222462
 31
0.0
 73
     2
  0
SOLID
  5
F00
  8
DIM
  6
CONTINUOUS
 10
967.88314822438485
 20
339.79026524222462
 30
0.0
 11
967.88314822438485
 21
338.79026524222462
 31
0.0
 12
964.88314822438474
 22
339.29026524222462
 32
0.0
 13
964.88314822438474
 23
339.29026524222462
 33
0.0
  0
POLYLINE
  5
F01
  8
DIM
  6
CONTINUOUS
 66
     1
 10
0.0
 20
0.0
 30
0.0
 70
     1
  0
VERTEX
  5
144B
  8
DIM
  6
CONTINUOUS
 10
961.85621091137921
 20
335.20778232217032
 30
0.0
  0
VERTEX
  5
144C
  8
DIM
  6
CONTINUOUS
 10
961.85621091137921
 20
332.98085400816592
 30
0.0
  0
VERTEX
  5
144D
  8
DIM
  6
CONTINUOUS
 10
959.74982737181142
 20
332.98085400816592
 30
0.0
  0
VERTEX
  5
144E
  8
DIM
  6
CONTINUOUS
 10
959.74982737181142
 20
335.20778232217032
 30
0.0
  0
SEQEND
  5
144F
  8
DIM
  6
CONTINUOUS
  0
TEXT
  5
F07
  8
DIM
  6
CONTINUOUS
 10
981.31171965295619
 20
324.79026524222462
 30
0.0
 40
3.0
  1
135
  7
ROMANSS
 72
     1
 11
984.88314822438485
 21
326.29026524222462
 31
0.0
 73
     2
  0
TEXT
  5
F08
  8
DIM
  6
CONTINUOUS
 10
980.52600536724185
 20
340.79026524222462
 30
0.0
 40
3.0
  1
36
  7
ROMANSS
 72
     1
 11
982.88314822438485
 21
342.29026524222468
 31
0.0
 73
     2
  0
SOLID
  5
F09
  8
DIM
  6
CONTINUOUS
 10
997.88314822438474
 20
339.79026524222462
 30
0.0
 11
997.88314822438474
 21
338.79026524222462
 31
0.0
 12
1000.8831482243839
 22
339.29026524222462
 32
0.0
 13
1000.8831482243839
 23
339.29026524222462
 33
0.0
  0
SOLID
  5
F0A
  8
DIM
  6
CONTINUOUS
 10
1003.8831482243839
 20
339.79026524222462
 30
0.0
 11
1003.8831482243839
 21
338.79026524222462
 31
0.0
 12
1000.8831482243839
 22
339.29026524222462
 32
0.0
 13
1000.8831482243839
 23
339.29026524222462
 33
0.0
  0
LINE
  5
F0B
  8
DIM
  6
CONTINUOUS
 10
1000.8831482243839
 20
343.29026524222451
 30
0.0
 11
1000.8831482243839
 21
338.29026524222462
 31
0.0
  0
LINE
  5
F0C
  8
DIM
  6
CONTINUOUS
 10
1000.8831482243839
 20
343.29026524222451
 30
0.0
 11
1000.8831482243839
 21
338.29026524222462
 31
0.0
  0
LINE
  5
F0D
  8
DIM
  6
CONTINUOUS
 10
1012.383148224385
 20
338.07314111951848
 30
0.0
 11
1012.383148224385
 21
330.29026524222462
 31
0.0
  0
SOLID
  5
F0E
  8
DIM
  6
CONTINUOUS
 10
1009.3831482243839
 20
331.79026524222468
 30
0.0
 11
1009.3831482243839
 21
330.79026524222462
 31
0.0
 12
1012.383148224385
 22
331.29026524222462
 32
0.0
 13
1012.383148224385
 23
331.29026524222462
 33
0.0
  0
TEXT
  5
F0F
  8
DIM
  6
CONTINUOUS
 10
1022.34743393867
 20
340.79026524222462
 30
0.0
 40
3.0
  1
51.5
  7
ROMANSS
 72
     1
 11
1026.6331482243841
 21
342.29026524222468
 31
0.0
 73
     2
  0
SOLID
  5
F10
  8
DIM
  6
CONTINUOUS
 10
1049.3831482243841
 20
323.79026524222462
 30
0.0
 11
1049.3831482243841
 21
322.79026524222462
 31
0.0
 12
1052.3831482243841
 22
323.29026524222468
 32
0.0
 13
1052.3831482243841
 23
323.29026524222468
 33
0.0
  0
LINE
  5
F11
  8
DIM
  6
CONTINUOUS
 10
1048.8831482243841
 20
347.29026524222451
 30
0.0
 11
1069.3831482243841
 21
347.29026524222451
 31
0.0
  0
SOLID
  5
F12
  8
DIM
  6
CONTINUOUS
 10
1049.3831482243841
 20
339.79026524222462
 30
0.0
 11
1049.3831482243841
 21
338.79026524222462
 31
0.0
 12
1052.3831482243841
 22
339.29026524222462
 32
0.0
 13
1052.3831482243841
 23
339.29026524222462
 33
0.0
  0
LINE
  5
F13
  8
0
 10
1048.8831482243841
 20
348.29026524222451
 30
0.0
 11
1047.883148224385
 21
347.29026524222451
 31
0.0
  0
TEXT
  5
F14
  8
DIM
  6
CONTINUOUS
 10
1058.8831482243841
 20
351.1474080993674
 30
0.0
 40
3.0
  1
12
 50
90.0
  7
ROMANSS
 72
     1
 11
1057.3831482243841
 21
353.29026524222451
 31
0.0
 73
     2
  0
SOLID
  5
F15
  8
DIM
  6
CONTINUOUS
 10
1059.8831482243841
 20
350.29026524222451
 30
0.0
 11
1060.8831482243841
 21
350.29026524222451
 31
0.0
 12
1060.3831482243841
 22
347.29026524222451
 32
0.0
 13
1060.3831482243841
 23
347.29026524222451
 33
0.0
  0
SOLID
  5
F16
  8
DIM
  6
CONTINUOUS
 10
1067.8831482243841
 20
350.29026524222451
 30
0.0
 11
1068.8831482243841
 21
350.29026524222451
 31
0.0
 12
1068.3831482243841
 22
347.29026524222451
 32
0.0
 13
1068.3831482243841
 23
347.29026524222451
 33
0.0
  0
LINE
  5
F17
  8
CENTER
  6
CENTER
 10
990.38314822438485
 20
442.79026524222451
 30
0.0
 11
1011.3831482243839
 21
442.79026524222451
 31
0.0
  0
POLYLINE
  5
F18
  8
0
  6
CONTINUOUS
 66
     1
 10
0.0
 20
0.0
 30
0.0
 70
     1
  0
VERTEX
  5
1450
  8
0
  6
CONTINUOUS
 10
997.99639687843671
 20
447.79026524222451
 30
0.0
  0
VERTEX
  5
1451
  8
0
  6
CONTINUOUS
 10
995.10964553248846
 20
442.79026524222451
 30
0.0
  0
VERTEX
  5
1452
  8
0
  6
CONTINUOUS
 10
997.99639687843671
 20
437.79026524222451
 30
0.0
  0
VERTEX
  5
1453
  8
0
  6
CONTINUOUS
 10
1003.769899570333
 20
437.79026524222451
 30
0.0
  0
VERTEX
  5
1454
  8
0
  6
CONTINUOUS
 10
1006.656650916281
 20
442.79026524222451
 30
0.0
  0
VERTEX
  5
1455
  8
0
  6
CONTINUOUS
 10
1003.769899570333
 20
447.79026524222439
 30
0.0
  0
SEQEND
  5
1456
  8
0
  6
CONTINUOUS
  0
ARC
  5
F20
  8
0
 10
1006.6331482243839
 20
431.1310414258632
 30
0.0
 40
1.5
 50
0.0
 51
116.2512139349608
  0
LINE
  5
F21
  8
0
 10
1006.6331482243839
 20
416.79026524222451
 30
0.0
 11
986.51645587716882
 21
416.79026524222451
 31
0.0
  0
LINE
  5
F22
  8
0
 10
1006.6331482243839
 20
408.09026524222452
 30
0.0
 11
989.22262233538413
 21
408.09026524222452
 31
0.0
  0
LINE
  5
F23
  8
0
 10
1006.6331482243839
 20
405.49026524222461
 30
0.0
 11
989.22262233538413
 21
405.49026524222461
 31
0.0
  0
ARC
  5
F24
  8
0
 10
1006.6331482243839
 20
382.4494890585857
 30
0.0
 40
1.5
 50
243.74878606503921
 51
0.0
  0
LINE
  5
F25
  8
0
 10
1006.6331482243839
 20
396.79026524222451
 30
0.0
 11
986.51645587716882
 21
396.79026524222451
 31
0.0
  0
LINE
  5
F26
  8
CENTER
  6
CENTER
 10
990.38314822438485
 20
370.79026524222451
 30
0.0
 11
1011.3831482243839
 21
370.79026524222451
 31
0.0
  0
POLYLINE
  5
F27
  8
0
  6
CONTINUOUS
 66
     1
 10
0.0
 20
0.0
 30
0.0
 70
     1
  0
VERTEX
  5
1457
  8
0
  6
CONTINUOUS
 10
997.99639687843671
 20
375.79026524222451
 30
0.0
  0
VERTEX
  5
1458
  8
0
  6
CONTINUOUS
 10
995.10964553248846
 20
370.79026524222451
 30
0.0
  0
VERTEX
  5
1459
  8
0
  6
CONTINUOUS
 10
997.99639687843671
 20
365.79026524222451
 30
0.0
  0
VERTEX
  5
145A
  8
0
  6
CONTINUOUS
 10
1003.769899570333
 20
365.79026524222451
 30
0.0
  0
VERTEX
  5
145B
  8
0
  6
CONTINUOUS
 10
1006.656650916281
 20
370.79026524222451
 30
0.0
  0
VERTEX
  5
145C
  8
0
  6
CONTINUOUS
 10
1003.769899570333
 20
375.79026524222451
 30
0.0
  0
SEQEND
  5
145D
  8
0
  6
CONTINUOUS
  0
CIRCLE
  5
F2F
  8
0
 10
1000.8831482243839
 20
370.79026524222451
 30
0.0
 40
9.0
  0
ARC
  5
F30
  8
0
 10
1000.8831482243839
 20
370.79026524222451
 30
0.0
 40
11.25
 50
270.0
 51
0.0
  0
ARC
  5
F31
  8
0
 10
1000.8831482243839
 20
370.79026524222451
 30
0.0
 40
11.5
 50
270.0
 51
0.0
  0
ARC
  5
F32
  8
0
 10
964.88314822438474
 20
406.79026524222462
 30
0.0
 40
23.0
 50
323.21321070173821
 51
353.43757213136593
  0
ARC
  5
F33
  8
0
 10
964.88314822438474
 20
406.79026524222462
 30
0.0
 40
23.0
 50
186.56242786863399
 51
216.7867892982616
  0
CIRCLE
  5
F34
  8
0
 10
964.88314822438474
 20
406.79026524222462
 30
0.0
 40
22.5
  0
LINE
  5
F35
  8
0
 10
989.22392440802355
 20
363.54026524222451
 30
0.0
 11
967.68314822438481
 21
363.54026524222451
 31
0.0
  0
ARC
  5
F36
  8
0
 10
964.88314822438474
 20
406.79026524222462
 30
0.0
 40
23.0
 50
276.56242786863402
 51
306.78678929826162
  0
ARC
  5
F37
  8
0
 10
964.88314822438474
 20
406.79026524222462
 30
0.0
 40
35.5
 50
229.98854197555599
 51
251.4071774505731
  0
LINE
  5
F38
  8
0
 10
963.5831482243849
 20
365.04026524222451
 30
0.0
 11
963.5831482243849
 21
382.45079113122517
 31
0.0
  0
LINE
  5
F39
  8
0
 10
966.18314822438469
 20
365.04026524222451
 30
0.0
 11
966.18314822438469
 21
382.45079113122517
 31
0.0
  0
LINE
  5
F3A
  8
0
 10
954.88314822438485
 20
365.04026524222451
 30
0.0
 11
954.88314822438485
 21
385.15695758944048
 31
0.0
  0
LINE
  5
F3B
  8
0
 10
940.54237204074605
 20
363.54026524222451
 30
0.0
 11
962.0831482243849
 21
363.54026524222451
 31
0.0
  0
ARC
  5
F3C
  8
0
 10
953.38314822438485
 20
365.04026524222451
 30
0.0
 40
1.5
 50
270.0
 51
0.0
  0
ARC
  5
F3D
  8
0
 10
953.88314822438485
 20
374.0908768687396
 30
0.0
 40
1.0
 50
251.40717745056719
 51
0.0
  0
ARC
  5
F3E
  8
0
 10
962.0831482243849
 20
365.04026524222451
 30
0.0
 40
1.5
 50
270.0
 51
0.0
  0
ARC
  5
F3F
  8
0
 10
967.68314822438481
 20
365.04026524222451
 30
0.0
 40
1.5
 50
180.0
 51
270.0
  0
ARC
  5
F40
  8
0
 10
964.88314822438474
 20
406.79026524222462
 30
0.0
 40
23.0
 50
233.21321070173829
 51
263.43757213136541
  0
ARC
  5
F41
  8
0
 10
941.43340075607887
 20
387.87406675512972
 30
0.0
 40
1.5
 50
351.50526946671789
 51
90.0
  0
ARC
  5
F42
  8
0
 10
942.70169094891526
 20
380.36616727963542
 30
0.0
 40
1.0
 50
135.00000000000219
 51
229.98854197554681
  0
ARC
  5
F43
  8
0
 10
953.38314822438485
 20
385.15695758944048
 30
0.0
 40
1.5
 50
0.0
 51
62.005438267749533
  0
ARC
  5
F44
  8
0
 10
950.21159375905563
 20
387.1689633085893
 30
0.0
 40
1.5
 50
53.213210701744771
 51
134.9999999999969
  0
ARC
  5
F45
  8
0
 10
945.26184629074976
 20
392.11871077689511
 30
0.0
 40
1.5
 50
314.99999999999841
 51
36.786789298261731
  0
ARC
  5
F46
  8
0
 10
941.77849449180746
 20
398.64011334807498
 30
0.0
 40
1.5
 50
19.43026151964801
 51
90.0
  0
ARC
  5
F47
  8
0
 10
962.0831482243849
 20
382.45079113122517
 30
0.0
 40
1.5
 50
0.0
 51
83.437572131365485
  0
ARC
  5
F48
  8
0
 10
967.68314822438481
 20
382.45079113122517
 30
0.0
 40
1.5
 50
96.562427868634515
 51
180.0
  0
LINE
  5
F49
  8
0
 10
990.61596905719853
 20
378.22901728466439
 30
0.0
 11
980.61536286149385
 21
388.22962348036913
 31
0.0
  0
LINE
  5
F4A
  8
0
 10
974.88314822438485
 20
365.04026524222451
 30
0.0
 11
974.88314822438485
 21
385.15695758944048
 31
0.0
  0
ARC
  5
F4B
  8
0
 10
964.88314822438474
 20
406.79026524222462
 30
0.0
 40
35.5
 50
288.59282254942627
 51
310.01145802444398
  0
ARC
  5
F4C
  8
0
 10
989.22392440802355
 20
365.04026524222451
 30
0.0
 40
1.5
 50
270.0
 51
26.25121393499963
  0
ARC
  5
F4D
  8
0
 10
1000.8831482243839
 20
370.79026524222451
 30
0.0
 40
11.5
 50
150.61849827564819
 51
206.25121393492699
  0
ARC
  5
F4E
  8
0
 10
976.38314822438485
 20
365.04026524222451
 30
0.0
 40
1.5
 50
180.0
 51
270.0
  0
ARC
  5
F4F
  8
0
 10
975.88314822438485
 20
374.0908768687396
 30
0.0
 40
1.0
 50
180.0
 51
288.59282254941832
  0
ARC
  5
F50
  8
0
 10
989.55530888541887
 20
377.16835711288462
 30
0.0
 40
1.5
 50
330.6184982756472
 51
45.000000000003062
  0
LINE
  5
F51
  8
0
 10
993.44439618194485
 20
381.05744440941061
 30
0.0
 11
983.44378998624018
 21
391.05805060511528
 31
0.0
  0
ARC
  5
F52
  8
0
 10
979.55470268971408
 20
387.1689633085893
 30
0.0
 40
1.5
 50
45.000000000001521
 51
126.78678929826469
  0
ARC
  5
F53
  8
0
 10
976.38314822438485
 20
385.15695758944048
 30
0.0
 40
1.5
 50
117.9945617322591
 51
180.0
  0
ARC
  5
F54
  8
0
 10
987.06460549985445
 20
380.36616727963542
 30
0.0
 40
1.0
 50
310.01145802444393
 51
45.000000000006899
  0
ARC
  5
F55
  8
0
 10
986.51645587716882
 20
395.29026524222451
 30
0.0
 40
1.5
 50
90.0
 51
152.00543826774759
  0
ARC
  5
F56
  8
0
 10
984.50445015802018
 20
392.11871077689523
 30
0.0
 40
1.5
 50
143.21321070173821
 51
225.00000000000151
  0
ARC
  5
F57
  8
0
 10
964.88314822438474
 20
406.79026524222462
 30
0.0
 40
35.5
 50
319.98854197555619
 51
341.40717745057339
  0
ARC
  5
F58
  8
0
 10
1000.8831482243839
 20
370.79026524222451
 30
0.0
 40
11.5
 50
63.748786065044897
 51
119.38150172435149
  0
ARC
  5
F59
  8
0
 10
991.30724618697377
 20
384.60880796675468
 30
0.0
 40
1.0
 50
224.99999999999761
 51
319.98854197555391
  0
ARC
  5
F5A
  8
0
 10
994.50505635372474
 20
382.11810458119049
 30
0.0
 40
1.5
 50
224.99999999999531
 51
299.38150172435172
  0
ARC
  5
F5B
  8
0
 10
997.58253659786976
 20
395.79026524222451
 30
0.0
 40
1.0
 50
341.40717745057128
 51
90.0
  0
ARC
  5
F5C
  8
0
 10
964.88314822438474
 20
406.79026524222462
 30
0.0
 40
23.0
 50
53.213210701738348
 51
83.437572131365954
  0
ARC
  5
F5D
  8
0
 10
950.21159375905563
 20
426.41156717585972
 30
0.0
 40
1.5
 50
225.00000000000151
 51
306.7867892982552
  0
ARC
  5
F5E
  8
0
 10
964.88314822438474
 20
406.79026524222462
 30
0.0
 40
23.0
 50
143.2132107017386
 51
173.43757213136581
  0
ARC
  5
F5F
  8
0
 10
940.54367411338535
 20
409.5902652422244
 30
0.0
 40
1.5
 50
270.0
 51
353.43757213136541
  0
ARC
  5
F60
  8
0
 10
940.54367411338535
 20
403.99026524222461
 30
0.0
 40
1.5
 50
6.5624278686345097
 51
90.0
  0
ARC
  5
F61
  8
0
 10
945.26184629074942
 20
421.46181970755379
 30
0.0
 40
1.5
 50
323.21321070173991
 51
45.000000000001521
  0
ARC
  5
F62
  8
0
 10
964.88314822438474
 20
406.79026524222462
 30
0.0
 40
23.0
 50
96.562427868634586
 51
126.7867892982615
  0
ARC
  5
F63
  8
0
 10
964.88314822438474
 20
406.79026524222462
 30
0.0
 40
35.5
 50
108.5928225494267
 51
130.0114580244439
  0
ARC
  5
F64
  8
0
 10
942.70169094891526
 20
433.21436320481348
 30
0.0
 40
1.0
 50
130.011458024446
 51
224.99999999999761
  0
ARC
  5
F65
  8
0
 10
953.38314822438485
 20
428.42357289500848
 30
0.0
 40
1.5
 50
297.99456173225042
 51
0.0
  0
ARC
  5
F66
  8
0
 10
953.88314822438485
 20
439.4896536157093
 30
0.0
 40
1.0
 50
0.0
 51
108.5928225494327
  0
ARC
  5
F67
  8
0
 10
962.0831482243849
 20
431.12973935322378
 30
0.0
 40
1.5
 50
276.56242786863447
 51
0.0
  0
ARC
  5
F68
  8
0
 10
967.68314822438481
 20
431.12973935322378
 30
0.0
 40
1.5
 50
180.0
 51
263.43757213136541
  0
ARC
  5
F69
  8
0
 10
964.88314822438474
 20
406.79026524222462
 30
0.0
 40
35.5
 50
18.592822549426781
 51
40.011458024444032
  0
ARC
  5
F6A
  8
0
 10
979.55470268971408
 20
426.41156717585972
 30
0.0
 40
1.5
 50
233.21321070173519
 51
314.99999999999841
  0
LINE
  5
F6B
  8
0
 10
993.44439618194485
 20
432.52308607503829
 30
0.0
 11
983.44378998624018
 21
422.52247987933367
 31
0.0
  0
ARC
  5
F6C
  8
0
 10
964.88314822438474
 20
406.79026524222462
 30
0.0
 40
23.0
 50
6.5624278686341668
 51
36.78678929826215
  0
ARC
  5
F6D
  8
0
 10
989.22262233538413
 20
409.5902652422244
 30
0.0
 40
1.5
 50
186.5624278686345
 51
270.0
  0
ARC
  5
F6E
  8
0
 10
989.22262233538413
 20
403.99026524222461
 30
0.0
 40
1.5
 50
90.0
 51
173.4375721313655
  0
ARC
  5
F6F
  8
0
 10
984.50445015801995
 20
421.46181970755379
 30
0.0
 40
1.5
 50
135.0000000000046
 51
216.78678929826171
  0
ARC
  5
F70
  8
0
 10
986.51645587716882
 20
418.29026524222451
 30
0.0
 40
1.5
 50
207.99456173225039
 51
270.0
  0
ARC
  5
F71
  8
0
 10
997.58253659786976
 20
417.79026524222451
 30
0.0
 40
1.0
 50
270.0
 51
18.59282254942865
  0
ARC
  5
F72
  8
0
 10
1000.8831482243839
 20
442.79026524222451
 30
0.0
 40
11.5
 50
153.74878606506371
 51
209.38150172435141
  0
LINE
  5
F73
  8
0
 10
990.61596905719853
 20
435.35151319978451
 30
0.0
 11
980.61536286149385
 21
425.35090700407989
 31
0.0
  0
ARC
  5
F74
  8
0
 10
964.88314822438474
 20
406.79026524222462
 30
0.0
 40
35.5
 50
49.988541975556039
 51
71.407177450573585
  0
ARC
  5
F75
  8
0
 10
976.38314822438485
 20
428.42357289500848
 30
0.0
 40
1.5
 50
180.0
 51
242.0054382677408
  0
ARC
  5
F76
  8
0
 10
987.06460549985445
 20
433.21436320481348
 30
0.0
 40
1.0
 50
314.99999999999301
 51
49.988541975563173
  0
ARC
  5
F77
  8
0
 10
975.88314822438485
 20
439.4896536157093
 30
0.0
 40
1.0
 50
71.407177450581642
 51
180.0
  0
ARC
  5
F78
  8
0
 10
989.55530888541887
 20
436.41217337156439
 30
0.0
 40
1.5
 50
314.99999999999841
 51
29.38150172435277
  0
ARC
  5
F79
  8
0
 10
1000.8831482243839
 20
442.79026524222451
 30
0.0
 40
11.5
 50
240.61849827564839
 51
296.25121393495499
  0
ARC
  5
F7A
  8
0
 10
991.30724618697377
 20
428.97172251769422
 30
0.0
 40
1.0
 50
40.011458024446
 51
135.00000000000219
  0
ARC
  5
F7B
  8
0
 10
994.50505635372474
 20
431.46242590325852
 30
0.0
 40
1.5
 50
60.618498275648292
 51
135.0000000000046
  0
LINE
  5
F7C
  8
0
 10
1008.1331482243839
 20
382.4494890585857
 30
0.0
 11
1008.1331482243839
 21
403.99026524222461
 31
0.0
  0
LINE
  5
F7D
  8
0
 10
1012.1331482243839
 20
442.79026524222451
 30
0.0
 11
1012.1331482243839
 21
370.79026524222451
 31
0.0
  0
LINE
  5
F7E
  8
0
 10
1012.383148224385
 20
442.79026524222451
 30
0.0
 11
1012.383148224385
 21
370.79026524222451
 31
0.0
  0
ARC
  5
F7F
  8
0
 10
1006.6331482243839
 20
395.29026524222451
 30
0.0
 40
1.5
 50
0.0
 51
90.0
  0
LINE
  5
F80
  8
DIM
  6
CONTINUOUS
 10
1053.3831482243841
 20
359.29026524222451
 30
0.0
 11
1061.3831482243841
 21
359.29026524222451
 31
0.0
  0
SOLID
  5
F81
  8
DIM
  6
CONTINUOUS
 10
1059.8831482243841
 20
356.29026524222451
 30
0.0
 11
1060.8831482243841
 21
356.29026524222451
 31
0.0
 12
1060.3831482243841
 22
359.29026524222451
 32
0.0
 13
1060.3831482243841
 23
359.29026524222451
 33
0.0
  0
LINE
  5
F82
  8
0
 10
1008.1331482243839
 20
431.1310414258632
 30
0.0
 11
1008.1331482243839
 21
409.5902652422244
 31
0.0
  0
ARC
  5
F83
  8
0
 10
1006.6331482243839
 20
403.99026524222461
 30
0.0
 40
1.5
 50
0.0
 51
90.0
  0
ARC
  5
F84
  8
0
 10
1006.6331482243839
 20
409.5902652422244
 30
0.0
 40
1.5
 50
270.0
 51
0.0
  0
ARC
  5
F85
  8
0
 10
1006.6331482243839
 20
418.29026524222451
 30
0.0
 40
1.5
 50
270.0
 51
0.0
  0
TEXT
  5
F86
  8
DIM
  6
CONTINUOUS
 10
1058.8831482243841
 20
404.8753255823633
 30
0.0
 40
3.0
  1
95
 50
90.0
  7
ROMANSS
 72
     1
 11
1057.3831482243841
 21
407.3038970109348
 31
0.0
 73
     2
  0
TEXT
  5
F87
  8
DIM
  6
CONTINUOUS
 10
1066.8831482243841
 20
428.71883667079601
 30
0.0
 40
3.0
  1
170
 50
90.0
  7
ROMANSS
 72
     1
 11
1065.3831482243841
 21
432.29026524222462
 31
0.0
 73
     2
  0
LINE
  5
F88
  8
0
 10
917.38314822438485
 20
454.29026524222451
 30
0.0
 11
1052.3831482243841
 21
454.29026524222451
 31
0.0
  0
LINE
  5
F89
  8
0
 10
928.88314822438485
 20
454.04026524222451
 30
0.0
 11
1000.8831482243839
 21
454.04026524222451
 31
0.0
  0
TEXT
  5
F8A
  8
DIM
  6
CONTINUOUS
 10
888.582995669566
 20
470.85982617587428
 30
0.0
 40
3.0
  1
2x4-M10x15L
  7
ROMANSS
 72
     2
 11
918.29728138385167
 21
472.35982617587428
 31
0.0
 73
     2
  0
LINE
  5
F8B
  8
DIM
  6
CONTINUOUS
 10
918.7089173933374
 20
469.35982617587428
 30
0.0
 11
891.17228138385167
 21
469.35982617587428
 31
0.0
  0
LINE
  5
F8C
  8
DIM
  6
CONTINUOUS
 10
926.49923903905255
 20
450.40793428213249
 30
0.0
 11
918.7089173933374
 21
469.35982617587428
 31
0.0
  0
LINE
  5
F8D
  8
0
 10
983.38314822438485
 20
467.29026524222462
 30
0.0
 11
1018.3831482243839
 21
467.29026524222462
 31
0.0
  0
LINE
  5
F8E
  8
0
 10
987.88314822438485
 20
517.29026524222445
 30
0.0
 11
1013.8831482243839
 21
517.29026524222445
 31
0.0
  0
LINE
  5
F8F
  8
0
 10
986.88314822438485
 20
516.29026524222456
 30
0.0
 11
1014.8831482243839
 21
516.29026524222445
 31
0.0
  0
LINE
  5
F90
  8
0
 10
952.88314822438485
 20
465.29026524222462
 30
0.0
 11
1048.8831482243841
 21
465.29026524222462
 31
0.0
  0
LINE
  5
F91
  8
0
 10
953.88314822438485
 20
466.29026524222462
 30
0.0
 11
1047.8831482243841
 21
466.29026524222462
 31
0.0
  0
LINE
  5
F92
  8
0
 10
986.88314822438485
 20
516.29026524222445
 30
0.0
 11
986.88314822438485
 21
467.29026524222462
 31
0.0
  0
LINE
  5
F93
  8
0
 10
989.22392440802355
 20
450.04026524222451
 30
0.0
 11
967.68314822438481
 21
450.04026524222451
 31
0.0
  0
LINE
  5
F94
  8
0
 10
940.54237204074605
 20
450.04026524222451
 30
0.0
 11
962.0831482243849
 21
450.04026524222451
 31
0.0
  0
LINE
  5
F95
  8
0
 10
952.88314822438485
 20
465.29026524222462
 30
0.0
 11
952.88314822438463
 21
454.29026524222451
 31
0.0
  0
ARC
  5
F96
  8
0
 10
953.38314822438485
 20
448.54026524222451
 30
0.0
 40
1.5
 50
0.0
 51
90.0
  0
LINE
  5
F97
  8
0
 10
953.88314822438485
 20
466.29026524222462
 30
0.0
 11
952.88314822438485
 21
465.29026524222462
 31
0.0
  0
ARC
  5
F98
  8
0
 10
962.0831482243849
 20
448.54026524222451
 30
0.0
 40
1.5
 50
0.0
 51
90.0
  0
ARC
  5
F99
  8
0
 10
967.68314822438481
 20
448.54026524222451
 30
0.0
 40
1.5
 50
90.0
 51
180.0
  0
ARC
  5
F9A
  8
0
 10
976.38314822438485
 20
448.54026524222451
 30
0.0
 40
1.5
 50
90.0
 51
180.0
  0
LINE
  5
F9B
  8
0
 10
983.38314822438485
 20
467.29026524222462
 30
0.0
 11
983.38314822438485
 21
466.29026524222462
 31
0.0
  0
LINE
  5
F9C
  8
0
 10
987.88314822438485
 20
517.29026524222445
 30
0.0
 11
986.88314822438485
 21
516.29026524222445
 31
0.0
  0
LINE
  5
F9D
  8
0
 10
1014.8831482243839
 20
516.29026524222445
 30
0.0
 11
1014.8831482243839
 21
467.29026524222462
 31
0.0
  0
LINE
  5
F9E
  8
0
 10
1018.3831482243839
 20
467.29026524222462
 30
0.0
 11
1018.3831482243839
 21
466.29026524222462
 31
0.0
  0
LINE
  5
F9F
  8
DIM
  6
CONTINUOUS
 10
1048.8831482243841
 20
466.29026524222451
 30
0.0
 11
1061.3831482243841
 21
466.29026524222451
 31
0.0
  0
LINE
  5
FA0
  8
DIM
  6
CONTINUOUS
 10
1053.3831482243841
 20
454.29026524222451
 30
0.0
 11
1061.3831482243841
 21
454.29026524222451
 31
0.0
  0
LINE
  5
FA1
  8
0
 10
1048.8831482243841
 20
465.29026524222462
 30
0.0
 11
1048.8831482243841
 21
454.29026524222451
 31
0.0
  0
LINE
  5
FA2
  8
0
 10
1047.8831482243841
 20
466.29026524222462
 30
0.0
 11
1048.8831482243841
 21
465.29026524222462
 31
0.0
  0
TEXT
  5
FA3
  8
DIM
  6
CONTINUOUS
 10
1058.8831482243841
 20
458.07980939073582
 30
0.0
 40
3.0
  1
12
 50
90.0
  7
ROMANSS
 72
     1
 11
1057.3831482243841
 21
460.22266653359299
 31
0.0
 73
     2
  0
SOLID
  5
FA4
  8
DIM
  6
CONTINUOUS
 10
1059.8831482243841
 20
457.29026524222462
 30
0.0
 11
1060.8831482243841
 21
457.29026524222462
 31
0.0
 12
1060.3831482243841
 22
454.29026524222451
 32
0.0
 13
1060.3831482243841
 23
454.29026524222451
 33
0.0
  0
SOLID
  5
FA5
  8
DIM
  6
CONTINUOUS
 10
1059.8831482243841
 20
463.29026524222451
 30
0.0
 11
1060.8831482243841
 21
463.29026524222451
 31
0.0
 12
1060.3831482243841
 22
466.29026524222451
 32
0.0
 13
1060.3831482243841
 23
466.29026524222451
 33
0.0
  0
LINE
  5
FA6
  8
DIM
  6
CONTINUOUS
 10
1014.8831482243839
 20
517.29026524222445
 30
0.0
 11
1069.3831482243841
 21
517.29026524222445
 31
0.0
  0
LINE
  5
FA7
  8
0
 10
1013.8831482243839
 20
517.29026524222445
 30
0.0
 11
1014.8831482243839
 21
516.29026524222445
 31
0.0
  0
SOLID
  5
FA8
  8
DIM
  6
CONTINUOUS
 10
1067.8831482243841
 20
514.29026524222445
 30
0.0
 11
1068.8831482243841
 21
514.29026524222445
 31
0.0
 12
1068.3831482243841
 22
517.29026524222445
 32
0.0
 13
1068.3831482243841
 23
517.29026524222445
 33
0.0
  0
CIRCLE
  5
FA9
  8
0
  6
CONTINUOUS
 10
668.88154535456874
 20
241.16549170834901
 30
0.0
 40
6.5
  0
CIRCLE
  5
FAA
  8
0
  6
CONTINUOUS
 10
668.88154535456874
 20
241.16549170834901
 30
0.0
 40
5.9226327944572761
  0
POLYLINE
  5
FAB
  8
0
  6
CONTINUOUS
 66
     1
 10
0.0
 20
0.0
 30
0.0
 70
     1
  0
VERTEX
  5
145E
  8
0
  6
CONTINUOUS
 10
667.14949454700059
 20
238.16549170834901
 30
0.0
  0
VERTEX
  5
145F
  8
0
  6
CONTINUOUS
 10
665.4174437394305
 20
241.16549170834901
 30
0.0
  0
VERTEX
  5
1460
  8
0
  6
CONTINUOUS
 10
667.14949454700059
 20
244.16549170834901
 30
0.0
  0
VERTEX
  5
1461
  8
0
  6
CONTINUOUS
 10
670.61359616213679
 20
244.16549170834901
 30
0.0
  0
VERTEX
  5
1462
  8
0
  6
CONTINUOUS
 10
672.34564696970688
 20
241.16549170834901
 30
0.0
  0
VERTEX
  5
1463
  8
0
  6
CONTINUOUS
 10
670.61359616213679
 20
238.16549170834901
 30
0.0
  0
SEQEND
  5
1464
  8
0
  6
CONTINUOUS
  0
CIRCLE
  5
FB3
  8
0
  6
CONTINUOUS
 10
629.88154535456874
 20
202.16549170834909
 30
0.0
 40
6.5
  0
CIRCLE
  5
FB4
  8
0
  6
CONTINUOUS
 10
629.88154535456874
 20
202.16549170834909
 30
0.0
 40
5.9226327944572761
  0
POLYLINE
  5
FB5
  8
0
  6
CONTINUOUS
 66
     1
 10
0.0
 20
0.0
 30
0.0
 70
     1
  0
VERTEX
  5
1465
  8
0
  6
CONTINUOUS
 10
628.14949454700047
 20
199.16549170834901
 30
0.0
  0
VERTEX
  5
1466
  8
0
  6
CONTINUOUS
 10
626.41744373943061
 20
202.16549170834901
 30
0.0
  0
VERTEX
  5
1467
  8
0
  6
CONTINUOUS
 10
628.14949454700047
 20
205.16549170834909
 30
0.0
  0
VERTEX
  5
1468
  8
0
  6
CONTINUOUS
 10
631.6135961621369
 20
205.16549170834909
 30
0.0
  0
VERTEX
  5
1469
  8
0
  6
CONTINUOUS
 10
633.34564696970676
 20
202.16549170834901
 30
0.0
  0
VERTEX
  5
146A
  8
0
  6
CONTINUOUS
 10
631.6135961621369
 20
199.16549170834901
 30
0.0
  0
SEQEND
  5
146B
  8
0
  6
CONTINUOUS
  0
CIRCLE
  5
FBD
  8
0
  6
CONTINUOUS
 10
668.88154535456874
 20
163.16549170834901
 30
0.0
 40
6.5
  0
CIRCLE
  5
FBE
  8
0
  6
CONTINUOUS
 10
668.88154535456874
 20
163.16549170834901
 30
0.0
 40
5.9226327944572761
  0
POLYLINE
  5
FBF
  8
0
  6
CONTINUOUS
 66
     1
 10
0.0
 20
0.0
 30
0.0
 70
     1
  0
VERTEX
  5
146C
  8
0
  6
CONTINUOUS
 10
667.14949454700059
 20
160.16549170834901
 30
0.0
  0
VERTEX
  5
146D
  8
0
  6
CONTINUOUS
 10
665.4174437394305
 20
163.16549170834901
 30
0.0
  0
VERTEX
  5
146E
  8
0
  6
CONTINUOUS
 10
667.14949454700059
 20
166.16549170834901
 30
0.0
  0
VERTEX
  5
146F
  8
0
  6
CONTINUOUS
 10
670.61359616213679
 20
166.16549170834901
 30
0.0
  0
VERTEX
  5
1470
  8
0
  6
CONTINUOUS
 10
672.34564696970688
 20
163.16549170834901
 30
0.0
  0
VERTEX
  5
1471
  8
0
  6
CONTINUOUS
 10
670.61359616213679
 20
160.16549170834901
 30
0.0
  0
SEQEND
  5
1472
  8
0
  6
CONTINUOUS
  0
CIRCLE
  5
FC7
  8
0
  6
CONTINUOUS
 10
707.88154535456874
 20
202.16549170834901
 30
0.0
 40
6.5
  0
CIRCLE
  5
FC8
  8
0
  6
CONTINUOUS
 10
707.88154535456874
 20
202.16549170834901
 30
0.0
 40
5.9226327944572761
  0
POLYLINE
  5
FC9
  8
0
  6
CONTINUOUS
 66
     1
 10
0.0
 20
0.0
 30
0.0
 70
     1
  0
VERTEX
  5
1473
  8
0
  6
CONTINUOUS
 10
706.14949454700059
 20
199.16549170834901
 30
0.0
  0
VERTEX
  5
1474
  8
0
  6
CONTINUOUS
 10
704.41744373943061
 20
202.16549170834901
 30
0.0
  0
VERTEX
  5
1475
  8
0
  6
CONTINUOUS
 10
706.14949454700059
 20
205.16549170834901
 30
0.0
  0
VERTEX
  5
1476
  8
0
  6
CONTINUOUS
 10
709.6135961621369
 20
205.16549170834901
 30
0.0
  0
VERTEX
  5
1477
  8
0
  6
CONTINUOUS
 10
711.34564696970688
 20
202.16549170834901
 30
0.0
  0
VERTEX
  5
1478
  8
0
  6
CONTINUOUS
 10
709.6135961621369
 20
199.16549170834901
 30
0.0
  0
SEQEND
  5
1479
  8
0
  6
CONTINUOUS
  0
CIRCLE
  5
FD1
  8
0
  6
CONTINUOUS
 10
668.88154535456874
 20
623.28425325470403
 30
0.0
 40
6.5
  0
CIRCLE
  5
FD2
  8
0
  6
CONTINUOUS
 10
668.88154535456874
 20
623.28425325470403
 30
0.0
 40
5.9226327944572761
  0
POLYLINE
  5
FD3
  8
0
  6
CONTINUOUS
 66
     1
 10
0.0
 20
0.0
 30
0.0
 70
     1
  0
VERTEX
  5
147A
  8
0
  6
CONTINUOUS
 10
667.14949454700059
 20
626.28425325470403
 30
0.0
  0
VERTEX
  5
147B
  8
0
  6
CONTINUOUS
 10
665.4174437394305
 20
623.28425325470403
 30
0.0
  0
VERTEX
  5
147C
  8
0
  6
CONTINUOUS
 10
667.14949454700059
 20
620.28425325470403
 30
0.0
  0
VERTEX
  5
147D
  8
0
  6
CONTINUOUS
 10
670.61359616213679
 20
620.28425325470403
 30
0.0
  0
VERTEX
  5
147E
  8
0
  6
CONTINUOUS
 10
672.34564696970688
 20
623.28425325470403
 30
0.0
  0
VERTEX
  5
147F
  8
0
  6
CONTINUOUS
 10
670.61359616213679
 20
626.28425325470403
 30
0.0
  0
SEQEND
  5
1480
  8
0
  6
CONTINUOUS
  0
CIRCLE
  5
FDB
  8
0
  6
CONTINUOUS
 10
668.88154535456874
 20
701.28425325470403
 30
0.0
 40
6.5
  0
CIRCLE
  5
FDC
  8
0
  6
CONTINUOUS
 10
668.88154535456874
 20
701.28425325470403
 30
0.0
 40
5.9226327944572761
  0
POLYLINE
  5
FDD
  8
0
  6
CONTINUOUS
 66
     1
 10
0.0
 20
0.0
 30
0.0
 70
     1
  0
VERTEX
  5
1481
  8
0
  6
CONTINUOUS
 10
667.14949454700059
 20
704.28425325470403
 30
0.0
  0
VERTEX
  5
1482
  8
0
  6
CONTINUOUS
 10
665.4174437394305
 20
701.28425325470403
 30
0.0
  0
VERTEX
  5
1483
  8
0
  6
CONTINUOUS
 10
667.14949454700059
 20
698.28425325470403
 30
0.0
  0
VERTEX
  5
1484
  8
0
  6
CONTINUOUS
 10
670.61359616213679
 20
698.28425325470403
 30
0.0
  0
VERTEX
  5
1485
  8
0
  6
CONTINUOUS
 10
672.34564696970688
 20
701.28425325470403
 30
0.0
  0
VERTEX
  5
1486
  8
0
  6
CONTINUOUS
 10
670.61359616213679
 20
704.28425325470403
 30
0.0
  0
SEQEND
  5
1487
  8
0
  6
CONTINUOUS
  0
CIRCLE
  5
FE5
  8
0
  6
CONTINUOUS
 10
629.88154535456874
 20
662.28425325470403
 30
0.0
 40
6.5
  0
CIRCLE
  5
FE6
  8
0
  6
CONTINUOUS
 10
629.88154535456874
 20
662.28425325470403
 30
0.0
 40
5.9226327944572761
  0
POLYLINE
  5
FE7
  8
0
  6
CONTINUOUS
 66
     1
 10
0.0
 20
0.0
 30
0.0
 70
     1
  0
VERTEX
  5
1488
  8
0
  6
CONTINUOUS
 10
628.14949454700047
 20
665.28425325470403
 30
0.0
  0
VERTEX
  5
1489
  8
0
  6
CONTINUOUS
 10
626.41744373943061
 20
662.28425325470403
 30
0.0
  0
VERTEX
  5
148A
  8
0
  6
CONTINUOUS
 10
628.14949454700047
 20
659.28425325470403
 30
0.0
  0
VERTEX
  5
148B
  8
0
  6
CONTINUOUS
 10
631.6135961621369
 20
659.28425325470403
 30
0.0
  0
VERTEX
  5
148C
  8
0
  6
CONTINUOUS
 10
633.34564696970676
 20
662.28425325470403
 30
0.0
  0
VERTEX
  5
148D
  8
0
  6
CONTINUOUS
 10
631.6135961621369
 20
665.28425325470403
 30
0.0
  0
SEQEND
  5
148E
  8
0
  6
CONTINUOUS
  0
CIRCLE
  5
FEF
  8
0
  6
CONTINUOUS
 10
707.88154535456874
 20
662.28425325470403
 30
0.0
 40
6.5
  0
CIRCLE
  5
FF0
  8
0
  6
CONTINUOUS
 10
707.88154535456874
 20
662.28425325470403
 30
0.0
 40
5.9226327944572761
  0
POLYLINE
  5
FF1
  8
0
  6
CONTINUOUS
 66
     1
 10
0.0
 20
0.0
 30
0.0
 70
     1
  0
VERTEX
  5
148F
  8
0
  6
CONTINUOUS
 10
706.14949454700059
 20
665.28425325470403
 30
0.0
  0
VERTEX
  5
1490
  8
0
  6
CONTINUOUS
 10
704.41744373943061
 20
662.28425325470403
 30
0.0
  0
VERTEX
  5
1491
  8
0
  6
CONTINUOUS
 10
706.14949454700059
 20
659.28425325470403
 30
0.0
  0
VERTEX
  5
1492
  8
0
  6
CONTINUOUS
 10
709.6135961621369
 20
659.28425325470403
 30
0.0
  0
VERTEX
  5
1493
  8
0
  6
CONTINUOUS
 10
711.34564696970688
 20
662.28425325470403
 30
0.0
  0
VERTEX
  5
1494
  8
0
  6
CONTINUOUS
 10
709.6135961621369
 20
665.28425325470403
 30
0.0
  0
SEQEND
  5
1495
  8
0
  6
CONTINUOUS
  0
CIRCLE
  5
FF9
  8
0
  6
CONTINUOUS
 10
352.71163755528829
 20
442.79026524222451
 30
0.0
 40
4.25
  0
ARC
  5
FFA
  8
0
  6
CONTINUOUS
 62
     2
 10
352.71163755528829
 20
442.79026524222451
 30
0.0
 40
5.0000000000000053
 50
165.00000000000551
 51
104.9999999999944
  0
CIRCLE
  5
FFB
  8
0
  6
CONTINUOUS
 10
424.71163755528818
 20
442.79026524222451
 30
0.0
 40
4.25
  0
ARC
  5
FFC
  8
0
  6
CONTINUOUS
 62
     2
 10
424.71163755528818
 20
442.79026524222451
 30
0.0
 40
5.0000000000000053
 50
165.00000000000551
 51
104.9999999999944
  0
CIRCLE
  5
FFD
  8
0
  6
CONTINUOUS
 10
424.71163755528818
 20
370.79026524222451
 30
0.0
 40
4.25
  0
ARC
  5
FFE
  8
0
  6
CONTINUOUS
 62
     2
 10
424.71163755528818
 20
370.79026524222451
 30
0.0
 40
5.0000000000000053
 50
165.00000000000551
 51
104.9999999999944
  0
CIRCLE
  5
FFF
  8
0
  6
CONTINUOUS
 10
352.71163755528829
 20
370.79026524222451
 30
0.0
 40
4.25
  0
ARC
  5
1000
  8
0
  6
CONTINUOUS
 62
     2
 10
352.71163755528829
 20
370.79026524222451
 30
0.0
 40
5.0000000000000053
 50
165.00000000000551
 51
104.9999999999944
  0
CIRCLE
  5
1001
  8
0
  6
CONTINUOUS
 10
928.88314822438485
 20
442.79026524222451
 30
0.0
 40
4.25
  0
ARC
  5
1002
  8
0
  6
CONTINUOUS
 62
     2
 10
928.88314822438485
 20
442.79026524222451
 30
0.0
 40
5.0000000000000053
 50
75.000000000005556
 51
14.999999999994451
  0
CIRCLE
  5
1003
  8
0
  6
CONTINUOUS
 10
1000.8831482243839
 20
442.79026524222451
 30
0.0
 40
4.25
  0
ARC
  5
1004
  8
0
  6
CONTINUOUS
 62
     2
 10
1000.8831482243839
 20
442.79026524222451
 30
0.0
 40
5.0000000000000053
 50
75.000000000005556
 51
14.999999999994451
  0
CIRCLE
  5
1005
  8
0
  6
CONTINUOUS
 10
1000.8831482243839
 20
370.79026524222451
 30
0.0
 40
4.25
  0
ARC
  5
1006
  8
0
  6
CONTINUOUS
 62
     2
 10
1000.8831482243839
 20
370.79026524222451
 30
0.0
 40
5.0000000000000053
 50
75.000000000005556
 51
14.999999999994451
  0
CIRCLE
  5
1007
  8
0
  6
CONTINUOUS
 10
928.88314822438485
 20
370.79026524222451
 30
0.0
 40
4.25
  0
ARC
  5
1008
  8
0
  6
CONTINUOUS
 62
     2
 10
928.88314822438485
 20
370.79026524222451
 30
0.0
 40
5.0000000000000053
 50
75.000000000005556
 51
14.999999999994451
  0
LINE
  5
1009
  8
DIM
  6
CONTINUOUS
 10
668.88154535456795
 20
727.45838438678095
 30
0.0
 11
668.88154535456795
 21
743.13404481380553
 31
0.0
  0
ARC
  5
100A
  8
DIM
  6
CONTINUOUS
 10
668.88154535456874
 20
662.28425325470403
 30
0.0
 40
79.84979155910159
 50
90.0
 51
177.8472398457177
  0
TEXT
  5
100F
  8
LOGO
 62
     6
 10
999.06014754504019
 20
5.2256738421469162
 30
0.0
 40
18.975734482929148
  1
作動角度
 41
0.9
  7
CHINESET
 72
     4
 11
1033.216469614312
 21
14.121327585354059
 31
0.0
  0
LINE
  5
1010
  8
LOGO
 62
     6
 10
1082.2175518438071
 20
-21.458174570137938
 30
0.0
 11
984.21538738481695
 21
-21.45817457013808
 31
0.0
  0
LINE
  5
1011
  8
LOGO
 62
     6
 10
1082.2175518438071
 20
30.725095257917239
 30
0.0
 11
984.21538738481695
 21
30.725095257917239
 31
0.0
  0
TEXT
  5
1012
  8
LOGO
  6
CONTINUOUS
 62
     6
 10
988.48795261883686
 20
-13.55161853558427
 30
0.0
 40
11.85983405183072
  1
Rotary angle
 41
0.8
  7
CHINESET
 72
     4
 11
1033.216469614312
 21
-9.5983405183073671
 31
0.0
  0
TEXT
  5
1013
  8
LOGO
  6
CONTINUOUS
 62
     7
 10
1016.228669831045
 20
61.29168126173937
 30
0.0
 40
23.719668103661441
  1
90
  7
CHINESET
 72
     1
 11
1035.430305914962
 21
73.151515313570101
 31
0.0
 73
     2
  0
LINE
  5
1014
  8
LOGO
 62
     6
 10
1072.729684602343
 20
94.768199137803137
 30
0.0
 11
993.70325462628159
 21
94.768199137803137
 31
0.0
  0
LINE
  5
1015
  8
LOGO
 62
     6
 10
1072.729684602343
 20
52.072796551212491
 30
0.0
 11
993.70325462628159
 21
52.072796551212527
 31
0.0
  0
LINE
  5
1016
  8
LOGO
 62
     1
 10
1107.0
 20
109.0
 30
0.0
 11
227.0
 21
109.0
 31
0.0
  0
LINE
  5
1017
  8
LOGO
 62
     1
 10
1107.0
 20
-33.318008621968659
 30
0.0
 11
227.0
 21
-33.318008621968659
 31
0.0
  0
LINE
  5
1018
  8
LOGO
  6
CONTINUOUS
 62
     6
 10
497.59552925123489
 20
71.176612505216866
 30
0.0
 11
523.50055859790814
 21
74.598357899022133
 31
0.0
  0
LINE
  5
1019
  8
LOGO
  6
CONTINUOUS
 62
     6
 10
497.59552925123489
 20
61.493466173981737
 30
0.0
 11
523.50055859790814
 21
58.071720780176477
 31
0.0
  0
LINE
  5
101A
  8
LOGO
 62
     1
 10
540.09961896833101
 20
80.536398275606274
 30
0.0
 11
331.36653965611032
 21
80.536398275606274
 31
0.0
  0
LINE
  5
101B
  8
LOGO
 62
     1
 10
540.09961896833101
 20
52.072796551212527
 30
0.0
 11
331.36653965611032
 21
52.072796551212527
 31
0.0
  0
TEXT
  5
101C
  8
LOGO
 62
     6
 10
466.57099448216081
 20
87.652298706704698
 30
0.0
 40
14.231800862196859
  1
1 : 1
  7
CHINESET
 72
     1
 11
491.64607219174582
 21
94.768199137803137
 31
0.0
 73
     2
  0
TEXT
  5
101D
  8
LOGO
 62
     6
 10
466.57099448216081
 20
30.725095257917239
 30
0.0
 40
14.231800862196859
  1
m/m
  7
CHINESET
 72
     1
 11
491.64607219174582
 21
37.840995689015671
 31
0.0
 73
     2
  0
LINE
  5
101E
  8
LOGO
 62
     1
 10
540.09961896833101
 20
23.609194826818928
 30
0.0
 11
226.9999999999998
 21
23.609194826818928
 31
0.0
  0
TEXT
  5
101F
  8
LOGO
  6
CONTINUOUS
 62
     5
 10
231.65830871343391
 20
-5.3598506047847101
 30
0.0
 40
21.347701293295302
  1
金器工業股份有限公司
 41
0.8
  7
LOGO
  0
TEXT
  5
1020
  8
LOGO
  6
CONTINUOUS
 62
     5
 10
237.77100279325779
 20
-26.711734373809058
 30
0.0
 40
14.231800862196859
  1
MINDMAN INDUSTRIAL CO.,LTD
 41
0.85
  7
CHINESET
  0
SOLID
  5
1021
  8
LOGO
 62
     5
 10
241.7657217975617
 20
47.267538022886292
 30
0.0
 11
247.91917904792081
 21
47.267538022884253
 31
0.0
 12
273.59394895459428
 22
105.61928781077729
 32
0.0
 13
279.74740620495282
 23
105.6192878107733
 33
0.0
  0
SOLID
  5
1022
  8
LOGO
 62
     5
 10
250.4654372204871
 20
47.267538022886292
 30
0.0
 11
256.61889447084548
 21
47.267538022886292
 31
0.0
 12
279.74740620495282
 22
100.9511478277439
 32
0.0
 13
273.59394895459428
 23
78.388471243092042
 33
0.0
  0
SOLID
  5
1023
  8
LOGO
 62
     2
 10
247.91917904792081
 20
47.267538022884253
 30
0.0
 11
250.4654372204871
 21
47.267538022886292
 31
0.0
 12
279.74740620495282
 22
105.6192878107733
 32
0.0
 13
282.29366437751708
 23
105.6192878107733
 33
0.0
  0
SOLID
  5
1024
  8
LOGO
 62
     5
 10
248.09475309833951
 20
36.6581289705423
 30
0.0
 11
250.21663490880621
 21
36.6581289705423
 31
0.0
 12
248.09475309833951
 22
26.04871991820028
 32
0.0
 13
250.21663490880621
 23
26.04871991820028
 33
0.0
  0
SOLID
  5
1025
  8
LOGO
 62
     5
 10
231.900220812675
 20
26.04871991820028
 30
0.0
 11
234.022102623146
 21
26.04871991820028
 31
0.0
 12
239.99748695550591
 22
36.6581289705423
 32
0.0
 13
242.11936876597309
 23
36.6581289705423
 33
0.0
  0
SOLID
  5
1026
  8
LOGO
 62
     5
 10
239.99748695550591
 20
36.6581289705423
 30
0.0
 11
242.11936876597309
 21
36.6581289705423
 31
0.0
 12
239.99748695550591
 22
26.04871991820028
 32
0.0
 13
242.11936876597309
 23
26.04871991820028
 33
0.0
  0
SOLID
  5
1027
  8
LOGO
 62
     5
 10
239.99748695550591
 20
26.04871991820028
 30
0.0
 11
242.11936876597309
 21
26.04871991820028
 31
0.0
 12
248.09475309833951
 22
36.6581289705423
 32
0.0
 13
250.21663490880621
 23
36.6581289705423
 33
0.0
  0
LINE
  5
1028
  8
LOGO
 62
     1
 10
227.0
 20
-33.318008621968659
 30
0.0
 11
227.0
 21
109.0
 31
0.0
  0
TEXT
  5
1029
  8
LOGO
 62
     6
 10
343.10142188489488
 20
87.659302545711682
 30
0.0
 40
14.231800862196859
  1
比例 Scale:
 41
0.9
  7
CHINESET
 72
     4
 11
388.29374310489783
 21
94.768199137803137
 31
0.0
  0
TEXT
  5
102A
  8
LOGO
 62
     6
 10
348.07619870413612
 20
59.388890047260666
 30
0.0
 40
14.231800862196859
  1
投影 View:
 41
0.9
  7
CHINESET
 72
     4
 11
388.29374310489783
 21
66.304597413409397
 31
0.0
  0
TEXT
  5
102B
  8
LOGO
 62
     6
 10
349.46761137771699
 20
30.725095257917239
 30
0.0
 40
14.231800862196859
  1
單位 Unit:
 41
0.9
  7
CHINESET
 72
     4
 11
388.29374310489783
 21
37.840995689015671
 31
0.0
  0
POLYLINE
  5
102C
  8
LOGO
 62
     5
 66
     1
 10
0.0
 20
0.0
 30
0.0
 70
     1
 40
2.1252822620880649
 41
2.1252822620880649
  0
VERTEX
  5
1496
  8
LOGO
 62
     5
 10
299.75716517258928
 20
31.353424444370201
 30
0.0
 42
1.0
  0
VERTEX
  5
1497
  8
LOGO
 62
     5
 10
308.25829422094142
 20
31.353424444370201
 30
0.0
 42
1.0
  0
SEQEND
  5
1498
  8
LOGO
 62
     5
  0
LINE
  5
102D
  8
LOGO
 62
     5
 10
320.2753487849057
 20
26.04871991820028
 30
0.0
 11
320.2753487849057
 21
32.414365349604623
 31
0.0
  0
SOLID
  5
102E
  8
LOGO
 62
     5
 10
307.19034022429207
 20
36.6581289705423
 30
0.0
 11
309.31222203475909
 21
36.6581289705423
 31
0.0
 12
307.19034022429207
 22
26.04871991820028
 32
0.0
 13
309.31222203475909
 23
26.04871991820028
 33
0.0
  0
SOLID
  5
102F
  8
LOGO
 62
     5
 10
311.78782154303042
 20
26.04871991820028
 30
0.0
 11
313.90970335350119
 21
26.04871991820028
 31
0.0
 12
311.78782154303042
 22
36.6581289705423
 32
0.0
 13
313.90970335350119
 23
36.6581289705423
 33
0.0
  0
SOLID
  5
1030
  8
LOGO
 62
     5
 10
318.15346697443908
 20
32.414365349604623
 30
0.0
 11
320.2753487849057
 21
32.414365349604331
 31
0.0
 12
318.15346697443908
 22
26.04871991820028
 32
0.0
 13
320.2753487849057
 23
26.04871991820028
 33
0.0
  0
SOLID
  5
1031
  8
LOGO
 62
     5
 10
276.77655948211782
 20
39.840951686246463
 30
0.0
 11
278.89844129258438
 21
39.840951686246463
 31
0.0
 12
276.77655948211782
 22
26.04871991820028
 32
0.0
 13
278.89844129258438
 23
26.04871991820028
 33
0.0
  0
SOLID
  5
1032
  8
LOGO
 62
     5
 10
281.37404080086191
 20
36.6581289705423
 30
0.0
 11
283.49592261132881
 21
36.6581289705423
 31
0.0
 12
281.37404080086191
 22
26.04871991820028
 32
0.0
 13
283.49592261132881
 23
26.04871991820028
 33
0.0
  0
SOLID
  5
1033
  8
LOGO
 62
     5
 10
287.73968623226642
 20
32.414365349604623
 30
0.0
 11
289.86156804273332
 21
32.414365349604623
 31
0.0
 12
287.73968623226642
 22
26.04871991820028
 32
0.0
 13
289.86156804273332
 23
26.04871991820028
 33
0.0
  0
SOLID
  5
1034
  8
LOGO
 62
     5
 10
294.10533166367122
 20
32.414365349604623
 30
0.0
 11
296.2272134741379
 21
32.414365349604623
 31
0.0
 12
294.10533166367122
 22
26.04871991819623
 32
0.0
 13
296.2272134741379
 23
26.04871991819623
 33
0.0
  0
LINE
  5
1035
  8
LOGO
 62
     1
 10
331.36653965611032
 20
23.609194826818779
 30
0.0
 11
331.36653965611032
 21
109.0
 31
0.0
  0
SOLID
  5
1036
  8
LOGO
 62
     5
 10
257.3259054900941
 20
36.6581289705423
 30
0.0
 11
259.44778730056072
 21
36.6581289705423
 31
0.0
 12
257.3259054900941
 22
26.04871991820028
 32
0.0
 13
259.44778730056072
 23
26.04871991820028
 33
0.0
  0
SOLID
  5
1037
  8
LOGO
 62
     5
 10
263.69155092149799
 20
32.414365349604623
 30
0.0
 11
265.81343273196882
 21
32.414365349604623
 31
0.0
 12
263.69155092149799
 22
26.04871991820028
 32
0.0
 13
265.81343273196882
 23
26.04871991820028
 33
0.0
  0
SOLID
  5
1038
  8
LOGO
 62
     5
 10
252.72842417134939
 20
36.6581289705423
 30
0.0
 11
254.85030598182229
 21
36.6581289705423
 31
0.0
 12
252.72842417134939
 22
26.04871991819623
 32
0.0
 13
254.85030598182229
 23
26.04871991820028
 33
0.0
  0
POLYLINE
  5
1039
  8
LOGO
 62
     5
 66
     1
 10
0.0
 20
0.0
 30
0.0
 70
     1
 40
2.1252822620880649
 41
2.1252822620880649
  0
VERTEX
  5
1499
  8
LOGO
 62
     5
 10
269.34338443041668
 20
31.353424444370201
 30
0.0
 42
1.0
  0
VERTEX
  5
149A
  8
LOGO
 62
     5
 10
277.84451347876922
 20
31.353424444370201
 30
0.0
 42
1.0
  0
SEQEND
  5
149B
  8
LOGO
 62
     5
  0
POLYLINE
  5
103A
  8
LOGO
 62
     5
 66
     1
 10
0.0
 20
0.0
 30
0.0
 40
2.1252822620880649
 41
2.1252822620880649
  0
VERTEX
  5
149C
  8
LOGO
 62
     5
 10
319.21950855710242
 20
32.414365349604651
 30
0.0
 42
1.0
  0
VERTEX
  5
149D
  8
LOGO
 62
     5
 10
312.84366177083808
 20
32.414365349604651
 30
0.0
 42
1.0
  0
SEQEND
  5
149E
  8
LOGO
 62
     5
  0
SOLID
  5
103B
  8
LOGO
 62
     5
 10
314.12189153454722
 20
47.267538022884253
 30
0.0
 11
320.2753487849057
 21
47.267538022884253
 31
0.0
 12
314.12189153454722
 22
105.6192878107733
 32
0.0
 13
320.2753487849057
 23
105.61928781077729
 33
0.0
  0
SOLID
  5
103C
  8
LOGO
 62
     5
 10
282.29366437751708
 20
105.6192878107733
 30
0.0
 11
288.44712162787539
 21
105.61928781077729
 31
0.0
 12
282.29366437751708
 22
51.935678005915662
 32
0.0
 13
288.44712162787539
 23
74.498354590567601
 33
0.0
  0
SOLID
  5
103D
  8
LOGO
 62
     5
 10
282.29366437751708
 20
51.935678005915662
 30
0.0
 11
288.44712162787539
 21
74.498354590567601
 31
0.0
 12
311.5756333619828
 22
105.61928781077729
 32
0.0
 13
305.4221761116238
 23
105.61928781077729
 33
0.0
  0
SOLID
  5
103E
  8
LOGO
 62
     5
 10
311.5756333619828
 20
100.9511478277439
 30
0.0
 11
305.4221761116238
 21
78.388471243092042
 31
0.0
 12
311.5756333619828
 22
47.267538022884253
 32
0.0
 13
305.4221761116238
 23
47.267538022884253
 33
0.0
  0
SOLID
  5
103F
  8
LOGO
 62
     2
 10
311.5756333619828
 20
105.61928781077729
 30
0.0
 11
314.12189153454722
 21
105.6192878107733
 31
0.0
 12
311.5756333619828
 22
47.267538022884253
 32
0.0
 13
314.12189153454722
 23
47.267538022884253
 33
0.0
  0
SOLID
  5
1040
  8
LOGO
 62
     5
 10
273.59394895459428
 20
47.267538022886292
 30
0.0
 11
279.74740620495282
 21
47.267538022886292
 31
0.0
 12
273.59394895459428
 22
78.388471243092042
 32
0.0
 13
279.74740620495282
 23
100.9511478277439
 33
0.0
  0
SOLID
  5
1041
  8
LOGO
 62
     2
 10
279.74740620495282
 20
105.6192878107733
 30
0.0
 11
282.29366437751708
 21
105.6192878107733
 31
0.0
 12
279.74740620495282
 22
47.267538022886292
 32
0.0
 13
282.29366437751708
 23
47.267538022886292
 33
0.0
  0
SOLID
  5
1042
  8
LOGO
 62
     5
 10
282.29366437751708
 20
47.267538022886292
 30
0.0
 11
288.44712162787539
 21
47.267538022886292
 31
0.0
 12
311.5756333619828
 22
100.9511478277439
 32
0.0
 13
305.4221761116238
 23
78.388471243092042
 33
0.0
  0
SOLID
  5
1043
  8
LOGO
 62
     2
 10
279.74740620495282
 20
47.267538022886292
 30
0.0
 11
282.29366437751708
 21
47.267538022886292
 31
0.0
 12
311.5756333619828
 22
105.61928781077729
 32
0.0
 13
314.12189153454722
 23
105.6192878107733
 33
0.0
  0
POLYLINE
  5
1044
  8
LOGO
 62
     5
 66
     1
 10
0.0
 20
0.0
 30
0.0
 40
2.1252822620880649
 41
2.1252822620880649
  0
VERTEX
  5
149F
  8
LOGO
 62
     5
 10
288.80572781492981
 20
32.414365349604651
 30
0.0
 42
1.0
  0
VERTEX
  5
14A0
  8
LOGO
 62
     5
 10
282.42988102866542
 20
32.414365349604651
 30
0.0
 42
1.0
  0
SEQEND
  5
14A1
  8
LOGO
 62
     5
  0
POLYLINE
  5
1045
  8
LOGO
 62
     5
 66
     1
 10
0.0
 20
0.0
 30
0.0
 40
2.1252822620880649
 41
2.1252822620880649
  0
VERTEX
  5
14A2
  8
LOGO
 62
     5
 10
264.75759250416212
 20
32.414365349604651
 30
0.0
 42
1.0
  0
VERTEX
  5
14A3
  8
LOGO
 62
     5
 10
258.38174571789762
 20
32.414365349604651
 30
0.0
 42
1.0
  0
SEQEND
  5
14A4
  8
LOGO
 62
     5
  0
SOLID
  5
1046
  8
LOGO
 62
     5
 10
252.72842417134939
 20
38.143446237869412
 30
0.0
 11
254.85030598182229
 21
38.143446237869412
 31
0.0
 12
252.72842417134939
 22
39.840951686246463
 32
0.0
 13
254.85030598182229
 23
39.840951686246463
 33
0.0
  0
POLYLINE
  5
1047
  8
LOGO
 62
     5
 66
     1
 10
0.0
 20
0.0
 30
0.0
 70
     1
  0
VERTEX
  5
14A5
  8
LOGO
 62
     5
 10
300.82490698106312
 20
31.35342444437125
 30
0.0
 42
1.0000000573306349
  0
VERTEX
  5
14A6
  8
LOGO
 62
     5
 10
307.19055241247031
 20
31.35342444437125
 30
0.0
 42
1.0000000573306349
  0
SEQEND
  5
14A7
  8
LOGO
 62
     5
  0
CIRCLE
  5
1048
  8
LOGO
 62
     5
 10
304.0077296967666
 20
31.353424444371271
 30
0.0
 40
3.1828227157030868
  0
POLYLINE
  5
1049
  8
LOGO
 62
     5
 66
     1
 10
0.0
 20
0.0
 30
0.0
 40
2.1252822620880649
 41
2.1252822620880649
  0
VERTEX
  5
14A8
  8
LOGO
 62
     5
 10
295.17137324633438
 20
32.414365349604651
 30
0.0
 42
1.0
  0
VERTEX
  5
14A9
  8
LOGO
 62
     5
 10
288.79552646006988
 20
32.414365349604651
 30
0.0
 42
1.0
  0
SEQEND
  5
14AA
  8
LOGO
 62
     5
  0
LINE
  5
104A
  8
LOGO
 62
     1
 10
445.22094655368522
 20
23.609194826818779
 30
0.0
 11
445.22094655368522
 21
109.0
 31
0.0
  0
CIRCLE
  5
104B
  8
LOGO
  6
CONTINUOUS
 62
     6
 10
471.5729059355557
 20
66.335039339599319
 30
0.0
 40
8.2633185594228298
  0
CIRCLE
  5
104C
  8
LOGO
  6
CONTINUOUS
 62
     6
 10
471.5729059355557
 20
66.335039339599319
 30
0.0
 40
4.8415731656175716
  0
LINE
  5
104D
  8
LOGO
 62
     6
 10
497.59552925123518
 20
61.493466173981737
 30
0.0
 11
497.59552925123489
 21
71.176612505216923
 31
0.0
  0
TEXT
  5
104E
  8
LOGO
  6
CONTINUOUS
 62
     6
 10
770.18876678403728
 20
-15.52825754422261
 30
0.0
 40
11.85983405183072
  1
Model
  7
CHINESET
 72
     4
 11
792.77892688276245
 21
-9.5983405183072534
 31
0.0
  0
TEXT
  5
104F
  8
LOGO
  6
CONTINUOUS
 62
     7
 10
749.29286869271641
 20
61.56066379267709
 30
0.0
 40
23.719668103661441
  1
MRTH
  7
CHINESET
 72
     1
 11
792.77892688276245
 21
73.420497844507821
 31
0.0
 73
     2
  0
LINE
  5
1050
  8
LOGO
 62
     6
 10
849.70613033154984
 20
94.768199137803137
 30
0.0
 11
735.85172343397494
 21
94.768199137803137
 31
0.0
  0
LINE
  5
1051
  8
LOGO
 62
     6
 10
849.70613033154984
 20
52.072796551212527
 30
0.0
 11
735.85172343397494
 21
52.072796551212527
 31
0.0
  0
LINE
  5
1052
  8
LOGO
 62
     6
 10
840.21826309008509
 20
30.725095257917239
 30
0.0
 11
745.33959067543947
 21
30.725095257917239
 31
0.0
  0
LINE
  5
1053
  8
LOGO
 62
     6
 10
840.21826309008509
 20
-21.458174570137992
 30
0.0
 11
745.33959067543947
 21
-21.45817457013808
 31
0.0
  0
TEXT
  5
1054
  8
LOGO
 62
     7
 10
551.7490436523326
 20
73.366807346576707
 30
0.0
 40
28.46360172439373
  1
訂購代號:
  7
CHINESET
  0
TEXT
  5
1055
  8
LOGO
 62
     7
 10
548.3446399631556
 20
46.652902170570677
 30
0.0
 40
18.975734482929148
  1
Order example:
 41
0.8
  7
CHINESET
  0
LINE
  5
1056
  8
LOGO
 62
     1
 10
540.09961896833101
 20
-33.318008621968659
 30
0.0
 11
540.09961896833101
 21
109.0
 31
0.0
  0
LINE
  5
1057
  8
LOGO
 62
     6
 10
523.50055859790814
 20
58.071720780176477
 30
0.0
 11
523.50055859790814
 21
74.598357899022133
 31
0.0
  0
LINE
  5
1058
  8
LOGO
 62
     6
 10
745.33959067543947
 20
30.725095257917239
 30
0.0
 11
745.33959067543947
 21
-21.45817457013808
 31
0.0
  0
LINE
  5
1059
  8
LOGO
 62
     6
 10
735.85172343397494
 20
94.768199137803137
 30
0.0
 11
735.85172343397494
 21
52.072796551212527
 31
0.0
  0
TEXT
  5
105A
  8
LOGO
  6
CONTINUOUS
 62
     7
 10
905.04055080437433
 20
61.291681261739647
 30
0.0
 40
23.719668103661441
  1
80
  7
CHINESET
 72
     1
 11
924.2421868882908
 21
73.151515313570371
 31
0.0
 73
     2
  0
LINE
  5
105B
  8
LOGO
 62
     6
 10
960.11123604329305
 20
-21.458174570137679
 30
0.0
 11
883.94546513198895
 21
-21.4581745701378
 31
0.0
  0
LINE
  5
105C
  8
LOGO
 62
     6
 10
960.11123604329305
 20
52.072796551212811
 30
0.0
 11
883.94546513198895
 21
52.072796551212811
 31
0.0
  0
LINE
  5
105D
  8
LOGO
 62
     6
 10
960.11123604329305
 20
30.725095257917481
 30
0.0
 11
883.94546513198895
 21
30.725095257917481
 31
0.0
  0
LINE
  5
105E
  8
LOGO
 62
     6
 10
960.11123604329305
 20
94.768199137803649
 30
0.0
 11
883.94546513198895
 21
94.768199137803364
 31
0.0
  0
LINE
  5
105F
  8
LOGO
 62
     6
 10
883.94546513198895
 20
30.725095257917481
 30
0.0
 11
883.94546513198895
 21
-21.458174570137679
 31
0.0
  0
LINE
  5
1060
  8
LOGO
 62
     6
 10
840.21826309008543
 20
30.725095257917239
 30
0.0
 11
840.21826309008543
 21
-21.458174570137938
 31
0.0
  0
TEXT
  5
1061
  8
LOGO
 62
     6
 10
773.80319239983328
 20
5.1190598483740706
 30
0.0
 40
18.975734482929148
  1
型式
  7
CHINESET
 72
     4
 11
792.77892688276245
 21
14.12132758535423
 31
0.0
  0
LINE
  5
1062
  8
LOGO
 62
     6
 10
792.77892688276245
 20
52.072796551212527
 30
0.0
 11
792.77892688276245
 21
30.725095257917239
 31
0.0
  0
LINE
  5
1063
  8
LOGO
 62
     6
 10
883.94546513198895
 20
94.768199137803364
 30
0.0
 11
883.94546513198895
 21
52.072796551212811
 31
0.0
  0
LINE
  5
1064
  8
LOGO
 62
     6
 10
849.70613033154984
 20
94.768199137803137
 30
0.0
 11
849.70613033154984
 21
52.072796551212527
 31
0.0
  0
LINE
  5
1065
  8
LOGO
  6
CONTINUOUS
 62
     7
 10
857.70922276705312
 20
73.26926398107787
 30
0.0
 11
876.56195466327586
 21
73.26926398107787
 31
0.0
  0
LINE
  5
1066
  8
LOGO
 62
     6
 10
984.21538738481695
 20
30.725095257917239
 30
0.0
 11
984.21538738481695
 21
-21.45817457013808
 31
0.0
  0
LINE
  5
1067
  8
LOGO
 62
     6
 10
960.11123604329305
 20
30.725095257917481
 30
0.0
 11
960.11123604329305
 21
-21.45817457013754
 31
0.0
  0
TEXT
  5
1068
  8
LOGO
  6
CONTINUOUS
 62
     6
 10
907.34474652346955
 20
-15.52825754422244
 30
0.0
 40
11.85983405183072
  1
Bore
 41
0.8
  7
CHINESET
 72
     4
 11
922.02835058764106
 21
-9.5983405183070811
 31
0.0
  0
TEXT
  5
1069
  8
LOGO
 62
     6
 10
903.88280448833996
 20
4.633460343889773
 30
0.0
 40
18.975734482929148
  1
內徑
 41
0.9
  7
CHINESET
 72
     4
 11
922.02835058764106
 21
14.121327585354351
 31
0.0
  0
LINE
  5
106A
  8
LOGO
  6
CONTINUOUS
 62
     7
 10
967.4670122613461
 20
73.269263981078112
 30
0.0
 11
986.31974415756895
 21
73.269263981078112
 31
0.0
  0
LINE
  5
106B
  8
LOGO
 62
     6
 10
960.11123604329305
 20
94.768199137803649
 30
0.0
 11
960.11123604329305
 21
52.072796551212811
 31
0.0
  0
LINE
  5
106C
  8
LOGO
 62
     6
 10
922.02834949376336
 20
52.072796551212811
 30
0.0
 11
922.02834949376336
 21
30.725095257917481
 31
0.0
  0
LINE
  5
106D
  8
LOGO
 62
     6
 10
993.70325462628182
 20
94.768199137803137
 30
0.0
 11
993.70325462628159
 21
52.072796551212527
 31
0.0
  0
LINE
  5
106E
  8
LOGO
 62
     6
 10
1034.2211916809561
 20
52.072796551212527
 30
0.0
 11
1034.2211916809561
 21
30.725095257917239
 31
0.0
  0
LINE
  5
1074
  8
LOGO
 62
     6
 10
1082.2175518438071
 20
30.725095257917239
 30
0.0
 11
1082.2175518438071
 21
-21.654940098969711
 31
0.0
  0
LINE
  5
1075
  8
LOGO
 62
     6
 10
1072.729684602343
 20
94.768199137803137
 30
0.0
 11
1072.729684602343
 21
52.072796551212491
 31
0.0
  0
LINE
  5
107E
  8
LOGO
 62
     1
 10
1107.0
 20
-33.318008621968659
 30
0.0
 11
1107.0
 21
109.0
 31
0.0
  0
ENDSEC
  0
EOF
