  0
SECTION
  2
HEADER
  9
$ACADVER
  1
AC1009
  9
$INSBASE
 10
0.0
 20
0.0
 30
0.0
  9
$EXTMIN
 10
206.9791289835461
 20
-15.53466603105721
 30
-0.0015258207003583
  9
$EXTMAX
 10
1107.0065944686139
 20
765.0439471810173
 30
0.0000000349246037
  9
$LIMMIN
 10
0.0
 20
0.0
  9
$LIMMAX
 10
1188.0
 20
840.0
  9
$ORTHOMODE
 70
     1
  9
$REGENMODE
 70
     1
  9
$FILLMODE
 70
     1
  9
$QTEXTMODE
 70
     0
  9
$MIRRTEXT
 70
     1
  9
$DRAGMODE
 70
     2
  9
$LTSCALE
 40
1.0
  9
$OSMODE
 70
    39
  9
$ATTMODE
 70
     1
  9
$TEXTSIZE
 40
3.0
  9
$TRACEWID
 40
0.05
  9
$TEXTSTYLE
  7
ITALICT
  9
$CLAYER
  8
0
  9
$CELTYPE
  6
CONTINUOUS
  9
$CECOLOR
 62
   256
  9
$DIMSCALE
 40
1.0
  9
$DIMASZ
 40
3.0
  9
$DIMEXO
 40
1.0
  9
$DIMDLI
 40
1.4824161510814720E+016
  9
$DIMRND
 40
0.0
  9
$DIMDLE
 40
0.0
  9
$DIMEXE
 40
1.0
  9
$DIMTP
 40
0.15
  9
$DIMTM
 40
-0.1
  9
$DIMTXT
 40
3.0
  9
$DIMCEN
 40
2.0
  9
$DIMTSZ
 40
0.0
  9
$DIMTOL
 70
     0
  9
$DIMLIM
 70
     0
  9
$DIMTIH
 70
     0
  9
$DIMTOH
 70
     0
  9
$DIMSE1
 70
     0
  9
$DIMSE2
 70
     0
  9
$DIMTAD
 70
     1
  9
$DIMZIN
 70
     0
  9
$DIMBLK
  1

  9
$DIMASO
 70
     0
  9
$DIMSHO
 70
     0
  9
$DIMPOST
  1

  9
$DIMAPOST
  1

  9
$DIMALT
 70
     0
  9
$DIMALTD
 70
     2
  9
$DIMALTF
 40
25.399999999999999
  9
$DIMLFAC
 40
1.0
  9
$DIMTOFL
 70
     1
  9
$DIMTVP
 40
1.0
  9
$DIMTIX
 70
     0
  9
$DIMSOXD
 70
     0
  9
$DIMSAH
 70
     0
  9
$DIMBLK1
  1

  9
$DIMBLK2
  1

  9
$DIMSTYLE
  2
STANDARD
  9
$DIMCLRD
 70
     0
  9
$DIMCLRE
 70
     0
  9
$DIMCLRT
 70
     0
  9
$DIMTFAC
 40
1.0
  9
$DIMGAP
 40
0.09
  9
$LUNITS
 70
     2
  9
$LUPREC
 70
     2
  9
$SKETCHINC
 40
0.1
  9
$FILLETRAD
 40
0.75
  9
$AUNITS
 70
     0
  9
$AUPREC
 70
     2
  9
$MENU
  1
ACAD
  9
$ELEVATION
 40
0.0
  9
$PELEVATION
 40
0.0
  9
$THICKNESS
 40
0.0
  9
$LIMCHECK
 70
     0
  9
$BLIPMODE
 70
     0
  9
$CHAMFERA
 40
0.0
  9
$CHAMFERB
 40
0.0
  9
$SKPOLY
 70
     1
  9
$TDCREATE
 40
2450580.7034460641
  9
$TDUPDATE
 40
2451939.433998669
  9
$TDINDWG
 40
0.0926102778
  9
$TDUSRTIMER
 40
0.0926102778
  9
$USRTIMER
 70
     1
  9
$ANGBASE
 50
0.0
  9
$ANGDIR
 70
     0
  9
$PDMODE
 70
     0
  9
$PDSIZE
 40
0.0
  9
$PLINEWID
 40
0.0
  9
$COORDS
 70
     2
  9
$SPLFRAME
 70
     0
  9
$SPLINETYPE
 70
     6
  9
$SPLINESEGS
 70
     8
  9
$ATTDIA
 70
     0
  9
$ATTREQ
 70
     1
  9
$HANDLING
 70
 12289
  9
$HANDSEED
  5
1509
  9
$SURFTAB1
 70
     6
  9
$SURFTAB2
 70
     6
  9
$SURFTYPE
 70
     6
  9
$SURFU
 70
     6
  9
$SURFV
 70
     6
  9
$UCSNAME
  2

  9
$UCSORG
 10
0.0
 20
0.0
 30
0.0
  9
$UCSXDIR
 10
1.0
 20
0.0
 30
0.0
  9
$UCSYDIR
 10
0.0
 20
1.0
 30
0.0
  9
$PUCSNAME
  2

  9
$PUCSORG
 10
0.0
 20
0.0
 30
0.0
  9
$PUCSXDIR
 10
1.0
 20
0.0
 30
0.0
  9
$PUCSYDIR
 10
0.0
 20
1.0
 30
0.0
  9
$USERI1
 70
     0
  9
$USERI2
 70
-31485
  9
$USERI3
 70
     0
  9
$USERI4
 70
     0
  9
$USERI5
 70
     0
  9
$USERR1
 40
0.0
  9
$USERR2
 40
0.0
  9
$USERR3
 40
0.0
  9
$USERR4
 40
0.0
  9
$USERR5
 40
0.0
  9
$WORLDVIEW
 70
     1
  9
$SHADEDGE
 70
     3
  9
$SHADEDIF
 70
    70
  9
$TILEMODE
 70
     1
  9
$MAXACTVP
 70
    64
  9
$PLIMCHECK
 70
     0
  9
$PEXTMIN
 10
1.0000000000000000E+020
 20
1.0000000000000000E+020
 30
1.0000000000000000E+020
  9
$PEXTMAX
 10
-1.0000000000000000E+020
 20
-1.0000000000000000E+020
 30
-1.0000000000000000E+020
  9
$PLIMMIN
 10
0.0
 20
0.0
  9
$PLIMMAX
 10
12.0
 20
9.0
  9
$UNITMODE
 70
     0
  9
$VISRETAIN
 70
     1
  9
$PLINEGEN
 70
     0
  9
$PSLTSCALE
 70
     0
  0
ENDSEC
  0
SECTION
  2
TABLES
  0
TABLE
  2
VPORT
 70
     2
  0
VPORT
  2
*ACTIVE
 70
     0
 10
0.0
 20
0.0
 11
1.0
 21
1.0
 12
656.99286172608015
 22
374.75464057497999
 13
0.0
 23
0.0
 14
1.0
 24
1.0
 15
0.0
 25
0.0
 16
0.0
 26
0.0
 36
1.0
 17
0.0
 27
0.0
 37
0.0
 40
789.18793615191362
 41
1.727440147329649
 42
1.0
 43
0.0
 44
0.0
 50
0.0
 51
0.0
 71
     0
 72
   100
 73
     1
 74
     1
 75
     0
 76
     0
 77
     0
 78
     0
  0
ENDTAB
  0
TABLE
  2
LTYPE
 70
     3
  0
LTYPE
  2
CONTINUOUS
 70
     0
  3
Solid line
 72
    65
 73
     0
 40
0.0
  0
LTYPE
  2
CENTER
 70
     0
  3
_______________ _ _______________ _ ___________
 72
    65
 73
     4
 40
18.0
 49
15.0
 49
-1.0
 49
1.0
 49
-1.0
  0
LTYPE
  2
HIDDEN
 70
     0
  3
___ ___ ___ ___ ___ ___ ___ ___ ___ ___ 
 72
    65
 73
     2
 40
4.0
 49
3.0
 49
-1.0
  0
ENDTAB
  0
TABLE
  2
LAYER
 70
     5
  0
LAYER
  2
0
 70
     0
 62
     7
  6
CONTINUOUS
  0
LAYER
  2
DIM
 70
     0
 62
     5
  6
CONTINUOUS
  0
LAYER
  2
HIDDEN
 70
     0
 62
     6
  6
HIDDEN
  0
LAYER
  2
CENTER
 70
     0
 62
     1
  6
CENTER
  0
LAYER
  2
LOGO
 70
     0
 62
     7
  6
CONTINUOUS
  0
ENDTAB
  0
TABLE
  2
STYLE
 70
     8
  0
STYLE
  2
STANDARD
 70
     0
 40
0.0
 41
1.0
 50
0.0
 71
     0
 42
3.0
  3
txt
  4

  0
STYLE
  2
ITALICT
 70
     0
 40
0.0
 41
1.0
 50
0.0
 71
     0
 42
3.0
  3
ITALICT.SHX
  4

  0
STYLE
  2
ROMANSS
 70
     0
 40
0.0
 41
1.0
 50
0.0
 71
     0
 42
3.0
  3
ROMANSS.SHX
  4
LMP
  0
STYLE
  2
CHINESET
 70
     0
 40
0.0
 41
1.0
 50
0.0
 71
     0
 42
4.0
  3
C:\r13\com\fonts\simplex.shx
  4
C:\r13\com\fonts\chineset.shx
  0
STYLE
  2
LOGO
 70
     0
 40
0.0
 41
1.0
 50
0.0
 71
     0
 42
5.0
  3
txt
  4

  0
ENDTAB
  0
TABLE
  2
VIEW
 70
     0
  0
ENDTAB
  0
TABLE
  2
UCS
 70
     0
  0
ENDTAB
  0
TABLE
  2
APPID
 70
     2
  0
APPID
  2
ACAD
 70
     0
  0
APPID
  2
TCAD
 70
     0
  0
ENDTAB
  0
TABLE
  2
DIMSTYLE
 70
     1
  0
DIMSTYLE
  2
STANDARD
 70
     0
  3

  4

  5

  6

  7

 40
1.0
 41
0.18
 42
0.0625
 43
0.38
 44
0.18
 45
0.0
 46
0.0
 47
0.0
 48
0.0
140
0.18
141
0.09
142
0.0
143
25.399999999999999
144
1.0
145
0.0
146
1.0
147
0.09
 71
     0
 72
     0
 73
     1
 74
     1
 75
     0
 76
     0
 77
     0
 78
     0
170
     0
171
     2
172
     0
173
     0
174
     0
175
     0
176
     0
177
     0
178
     0
  0
ENDTAB
  0
ENDSEC
  0
SECTION
  2
BLOCKS
  0
BLOCK
  8
0
  2
$MODEL_SPACE
 70
     0
 10
0.0
 20
0.0
 30
0.0
  3
$MODEL_SPACE
  1

  0
ENDBLK
  5
3F
  8
0
  0
BLOCK
 67
     1
  8
0
  2
$PAPER_SPACE
 70
     0
 10
0.0
 20
0.0
 30
0.0
  3
$PAPER_SPACE
  1

  0
ENDBLK
  5
3D
 67
     1
  8
0
  0
ENDSEC
  0
SECTION
  2
ENTITIES
  0
LINE
  5
B28
  8
0
 62
     4
 10
207.0
 20
110.0
 30
0.0
 11
207.0
 21
765.00000000000023
 31
0.0
  0
LINE
  5
B2A
  8
0
 62
     4
 10
1107.0
 20
110.0
 30
0.0
 11
207.0
 21
110.0
 31
0.0
  0
LINE
  5
B2D
  8
0
 62
     4
 10
207.0
 20
765.00000000000023
 30
0.0
 11
1107.0
 21
764.99999999999977
 31
0.0
  0
LINE
  5
B2E
  8
0
 62
     4
 10
1107.0
 20
764.99999999999977
 30
0.0
 11
1107.0
 21
110.0
 31
0.0
  0
CIRCLE
  5
B31
  8
0
  6
CONTINUOUS
 10
648.88154535456874
 20
171.9534768490789
 30
0.0
 40
46.999999999999829
  0
CIRCLE
  5
B32
  8
0
  6
CONTINUOUS
 10
648.88154535456874
 20
669.94626817692927
 30
0.0
 40
46.999999999999829
  0
POLYLINE
  5
B33
  8
0
  6
CONTINUOUS
 66
     1
 10
0.0
 20
0.0
 30
0.0
  0
VERTEX
  5
142D
  8
0
  6
CONTINUOUS
 10
709.38154535456874
 20
146.95347684907881
 30
0.0
 42
0.0851703918331015
  0
VERTEX
  5
142E
  8
0
  6
CONTINUOUS
 10
708.3495453545695
 20
152.95347684907881
 30
0.0
 42
0.3910851735909245
  0
VERTEX
  5
142F
  8
0
  6
CONTINUOUS
 10
708.81861232916549
 20
156.9284768490792
 30
0.0
  0
SEQEND
  5
1430
  8
0
  6
CONTINUOUS
  0
LINE
  5
B38
  8
0
  6
CONTINUOUS
 10
709.38154535456874
 20
137.9534768490789
 30
0.0
 11
709.38154535456874
 21
155.9534768490789
 31
0.0
  0
LINE
  5
B39
  8
0
  6
CONTINUOUS
 10
709.38154535456863
 20
703.94626817692915
 30
0.0
 11
709.38154535456863
 21
685.94626817692915
 31
0.0
  0
POLYLINE
  5
B3A
  8
0
  6
CONTINUOUS
 66
     1
 10
0.0
 20
0.0
 30
0.0
  0
VERTEX
  5
1431
  8
0
  6
CONTINUOUS
 10
709.38154535456863
 20
694.94626817692915
 30
0.0
 42
-0.0851703918331015
  0
VERTEX
  5
1432
  8
0
  6
CONTINUOUS
 10
708.34954535456939
 20
688.94626817692915
 30
0.0
 42
-0.3910851735909245
  0
VERTEX
  5
1433
  8
0
  6
CONTINUOUS
 10
708.81861232916526
 20
684.97126817692879
 30
0.0
  0
SEQEND
  5
1434
  8
0
  6
CONTINUOUS
  0
LINE
  5
B3F
  8
CENTER
  6
CENTER
 10
990.02423029662373
 20
407.39008900959931
 30
0.0
 11
1021.024230296623
 21
407.39008900959931
 31
0.0
  0
CIRCLE
  5
B40
  8
0
  6
CONTINUOUS
 10
1005.524230296623
 20
407.39008900959931
 30
0.0
 40
9.5
  0
POLYLINE
  5
B41
  8
0
  6
CONTINUOUS
 66
     1
 10
0.0
 20
0.0
 30
0.0
 70
     1
  0
VERTEX
  5
1435
  8
0
  6
CONTINUOUS
 10
1000.039402739322
 20
416.89008900959942
 30
0.0
  0
VERTEX
  5
1436
  8
0
  6
CONTINUOUS
 10
994.55457518202081
 20
407.39008900959931
 30
0.0
  0
VERTEX
  5
1437
  8
0
  6
CONTINUOUS
 10
1000.039402739322
 20
397.89008900959931
 30
0.0
  0
VERTEX
  5
1438
  8
0
  6
CONTINUOUS
 10
1011.009057853925
 20
397.89008900959931
 30
0.0
  0
VERTEX
  5
1439
  8
0
  6
CONTINUOUS
 10
1016.493885411226
 20
407.39008900959931
 30
0.0
  0
VERTEX
  5
143A
  8
0
  6
CONTINUOUS
 10
1011.009057853925
 20
416.89008900959942
 30
0.0
  0
SEQEND
  5
143B
  8
0
  6
CONTINUOUS
  0
LINE
  5
B49
  8
DIM
  6
CONTINUOUS
 10
463.36423189075049
 20
279.89008900959948
 30
0.0
 11
836.3888043142988
 21
279.89008900959948
 31
0.0
  0
LINE
  5
B4A
  8
DIM
  6
CONTINUOUS
 10
596.38154535456874
 20
287.89008900959948
 30
0.0
 11
701.38154535456886
 21
287.89008900959948
 31
0.0
  0
LINE
  5
B4B
  8
DIM
  6
CONTINUOUS
 10
600.88154535456874
 20
295.89008900959948
 30
0.0
 11
696.88154535456874
 21
295.89008900959948
 31
0.0
  0
LINE
  5
B4C
  8
DIM
  6
CONTINUOUS
 10
655.49242997862621
 20
672.1274023156767
 30
0.0
 11
733.80929484939884
 21
687.78390856948863
 31
0.0
  0
LINE
  5
B4D
  8
DIM
  6
CONTINUOUS
 10
610.88154535456874
 20
729.44626817692915
 30
0.0
 11
686.88154535456874
 21
729.44626817692915
 31
0.0
  0
CIRCLE
  5
B4E
  8
CENTER
  6
CENTER
 10
648.88154535456874
 20
171.9534768490789
 30
0.0
 40
39.0
  0
LINE
  5
B4F
  8
CENTER
  6
CENTER
 10
468.38154535456891
 20
207.95347684907881
 30
0.0
 11
829.38154535456863
 21
207.95347684907881
 31
0.0
  0
LINE
  5
B50
  8
CENTER
  6
CENTER
 10
474.3815453545688
 20
171.95347684907881
 30
0.0
 11
823.38154535456886
 21
171.9534768490789
 31
0.0
  0
LINE
  5
B51
  8
0
 10
596.38154535456874
 20
120.4534768490788
 30
0.0
 11
701.38154535456874
 21
120.4534768490789
 31
0.0
  0
LINE
  5
B52
  8
0
 10
596.38154535456874
 20
255.45347684907881
 30
0.0
 11
701.38154535456874
 21
255.45347684907881
 31
0.0
  0
CIRCLE
  5
B53
  8
0
  6
CONTINUOUS
 10
648.88154535456874
 20
171.9534768490789
 30
0.0
 40
47.999999999999822
  0
CIRCLE
  5
B54
  8
CENTER
  6
CENTER
 10
648.88154535456874
 20
669.94626817692927
 30
0.0
 40
39.0
  0
CIRCLE
  5
B55
  8
0
  6
CONTINUOUS
 10
648.88154535456874
 20
669.94626817692927
 30
0.0
 40
47.999999999999822
  0
LINE
  5
B56
  8
0
 10
596.38154535456874
 20
586.44626817692927
 30
0.0
 11
701.38154535456874
 21
586.44626817692927
 31
0.0
  0
LINE
  5
B57
  8
0
 10
596.38154535456874
 20
721.44626817692915
 30
0.0
 11
701.38154535456874
 21
721.44626817692915
 31
0.0
  0
LINE
  5
B58
  8
0
 10
600.88154535456874
 20
488.89008900959931
 30
0.0
 11
696.88154535456874
 21
488.89008900959942
 31
0.0
  0
LINE
  5
B59
  8
0
 10
600.88154535456874
 20
371.89008900959931
 30
0.0
 11
696.88154535456874
 21
371.89008900959931
 31
0.0
  0
LINE
  5
B5A
  8
0
 10
601.88154535456874
 20
370.89008900959942
 30
0.0
 11
695.88154535456874
 21
370.89008900959931
 31
0.0
  0
LINE
  5
B5B
  8
0
 10
601.88154535456874
 20
489.89008900959942
 30
0.0
 11
695.88154535456874
 21
489.89008900959942
 31
0.0
  0
LINE
  5
B5C
  8
0
 10
596.38154535456874
 20
382.89008900959931
 30
0.0
 11
701.38154535456874
 21
382.89008900959931
 31
0.0
  0
LINE
  5
B5D
  8
0
 10
596.38154535456874
 20
477.89008900959931
 30
0.0
 11
701.38154535456874
 21
477.89008900959931
 31
0.0
  0
LINE
  5
B5E
  8
CENTER
  6
CENTER
 10
468.38154535456869
 20
430.39008900959931
 30
0.0
 11
829.38154535456863
 21
430.39008900959931
 31
0.0
  0
LINE
  5
B5F
  8
CENTER
  6
CENTER
 10
468.38154535456891
 20
633.94626817692915
 30
0.0
 11
829.38154535456863
 21
633.94626817692915
 31
0.0
  0
LINE
  5
B60
  8
CENTER
  6
CENTER
 10
474.3815453545688
 20
669.94626817692927
 30
0.0
 11
823.38154535456886
 21
669.94626817692927
 31
0.0
  0
LINE
  5
B61
  8
0
 10
515.38154535456874
 20
382.89008900959931
 30
0.0
 11
515.38154535456874
 21
477.89008900959931
 31
0.0
  0
LINE
  5
B62
  8
0
 10
477.38154535456869
 20
383.14008900959931
 30
0.0
 11
477.38154535456869
 21
477.64008900959942
 31
0.0
  0
LINE
  5
B63
  8
0
 10
596.38154535456874
 20
477.89008900959931
 30
0.0
 11
596.38154535456874
 21
382.89008900959931
 31
0.0
  0
LINE
  5
B64
  8
CENTER
  6
CENTER
 10
648.88154535456874
 20
543.89008900959936
 30
0.0
 11
648.88154535456874
 21
317.57276577571957
 31
0.0
  0
LINE
  5
B65
  8
CENTER
  6
CENTER
 10
607.88154535456874
 20
202.9534768490789
 30
0.0
 11
607.88154535456874
 21
222.95347684907881
 31
0.0
  0
LINE
  5
B66
  8
CENTER
  6
CENTER
 10
648.88154535456874
 20
117.4534768490788
 30
0.0
 11
648.88154535456874
 21
258.45347684907881
 31
0.0
  0
LINE
  5
B67
  8
0
 10
515.38154535456874
 20
160.4534768490789
 30
0.0
 11
515.38154535456874
 21
255.4534768490787
 31
0.0
  0
LINE
  5
B68
  8
0
 10
477.3815453545688
 20
160.7034768490789
 30
0.0
 11
477.3815453545688
 21
255.2034768490787
 31
0.0
  0
LINE
  5
B69
  8
0
 10
471.3815453545688
 20
186.4534768490789
 30
0.0
 11
471.3815453545688
 21
229.4534768490787
 31
0.0
  0
LINE
  5
B6A
  8
0
 10
596.38154535456874
 20
120.4534768490788
 30
0.0
 11
596.38154535456874
 21
255.45347684907881
 31
0.0
  0
CIRCLE
  5
B6B
  8
0
  6
CONTINUOUS
 10
607.88154535456874
 20
212.95347684907881
 30
0.0
 40
4.25
  0
ARC
  5
B6C
  8
0
  6
CONTINUOUS
 62
     2
 10
607.88154535456874
 20
212.95347684907881
 30
0.0
 40
5.0
 50
244.7996045918776
 51
198.7093473556057
  0
LINE
  5
B6D
  8
0
 62
     7
 10
596.38154535456874
 20
183.317255333698
 30
0.0
 11
515.38154535456874
 21
183.31725533369811
 31
0.0
  0
LINE
  5
B6E
  8
0
 10
596.38154535456874
 20
164.4534768490789
 30
0.0
 11
515.38154535456874
 21
164.4534768490789
 31
0.0
  0
LINE
  5
B6F
  8
0
 10
515.38154535456874
 20
160.4534768490789
 30
0.0
 11
477.3815453545688
 21
160.7034768490789
 31
0.0
  0
LINE
  5
B70
  8
HIDDEN
  6
HIDDEN
 10
483.38154535456891
 20
166.9534768490789
 30
0.0
 11
483.38154535456891
 21
176.9534768490789
 31
0.0
  0
LINE
  5
B71
  8
HIDDEN
  6
HIDDEN
 10
499.38154535456891
 20
166.9534768490789
 30
0.0
 11
499.38154535456891
 21
176.9534768490789
 31
0.0
  0
LINE
  5
B72
  8
HIDDEN
  6
HIDDEN
 10
477.38154535456891
 20
166.9534768490789
 30
0.0
 11
499.38154535456891
 21
166.9534768490789
 31
0.0
  0
LINE
  5
B73
  8
HIDDEN
  6
HIDDEN
 10
477.38154535456891
 20
176.9534768490789
 30
0.0
 11
499.38154535456891
 21
176.9534768490789
 31
0.0
  0
ARC
  5
B74
  8
0
 10
472.38154535456891
 20
186.4534768490789
 30
0.0
 40
1.0
 50
180.0
 51
270.0
  0
LINE
  5
B75
  8
0
 10
472.38154535456891
 20
185.4534768490789
 30
0.0
 11
477.3815453545688
 21
185.4534768490789
 31
0.0
  0
LINE
  5
B76
  8
HIDDEN
  6
HIDDEN
 10
483.38154535456891
 20
176.2034768490789
 30
0.0
 11
502.3815453545688
 21
176.2034768490789
 31
0.0
  0
LINE
  5
B77
  8
HIDDEN
  6
HIDDEN
 10
483.38154535456891
 20
167.7034768490789
 30
0.0
 11
502.3815453545688
 21
167.7034768490789
 31
0.0
  0
LINE
  5
B78
  8
HIDDEN
  6
HIDDEN
 10
502.3815453545688
 20
167.70347684907881
 30
0.0
 11
504.83528399862467
 21
171.9534768490789
 31
0.0
  0
LINE
  5
B79
  8
HIDDEN
  6
HIDDEN
 10
502.3815453545688
 20
176.2034768490789
 30
0.0
 11
504.83528399862479
 21
171.9534768490789
 31
0.0
  0
LINE
  5
B7A
  8
HIDDEN
  6
HIDDEN
 10
502.3815453545688
 20
167.7034768490789
 30
0.0
 11
502.3815453545688
 21
176.2034768490789
 31
0.0
  0
LINE
  5
B7B
  8
CENTER
  6
CENTER
 10
597.88154535456874
 20
130.95347684907881
 30
0.0
 11
617.88154535456874
 21
130.95347684907881
 31
0.0
  0
LINE
  5
B7C
  8
CENTER
  6
CENTER
 10
597.88154535456874
 20
212.95347684907881
 30
0.0
 11
617.88154535456874
 21
212.95347684907881
 31
0.0
  0
LINE
  5
B7D
  8
CENTER
  6
CENTER
 10
615.64752663880097
 20
138.71945813331101
 30
0.0
 11
626.96123513778559
 21
150.0331666322958
 31
0.0
  0
ARC
  5
B7E
  8
0
  6
CONTINUOUS
 62
     2
 10
621.30438088829328
 20
144.37631238280341
 30
0.0
 40
4.0
 50
202.52441221510509
 51
149.49721034531461
  0
CIRCLE
  5
B7F
  8
0
  6
CONTINUOUS
 10
621.30438088829328
 20
144.37631238280341
 30
0.0
 40
3.399999999999999
  0
LINE
  5
B80
  8
CENTER
  6
CENTER
 10
607.88154535456874
 20
120.9534768490788
 30
0.0
 11
607.88154535456874
 21
140.95347684907881
 31
0.0
  0
ARC
  5
B81
  8
0
  6
CONTINUOUS
 62
     2
 10
607.88154535456874
 20
130.95347684907881
 30
0.0
 40
5.0
 50
244.79960459187899
 51
198.7093473556057
  0
CIRCLE
  5
B82
  8
0
  6
CONTINUOUS
 10
607.88154535456874
 20
130.95347684907881
 30
0.0
 40
4.25
  0
LINE
  5
B83
  8
0
 10
596.38154535456874
 20
251.45347684907881
 30
0.0
 11
515.38154535456874
 21
251.45347684907881
 31
0.0
  0
LINE
  5
B84
  8
0
 62
     7
 10
596.38154535456874
 20
232.58969836445939
 30
0.0
 11
515.38154535456874
 21
232.58969836445939
 31
0.0
  0
LINE
  5
B85
  8
CENTER
  6
CENTER
 10
474.3815453545688
 20
243.95347684907861
 30
0.0
 11
596.38154535456874
 21
243.9534768490787
 31
0.0
  0
LINE
  5
B86
  8
0
 10
596.38154535456874
 20
386.89008900959931
 30
0.0
 11
515.38154535456874
 21
386.89008900959931
 31
0.0
  0
LINE
  5
B87
  8
0
 62
     7
 10
596.38154535456874
 20
405.75386749421841
 30
0.0
 11
515.38154535456874
 21
405.75386749421858
 31
0.0
  0
LINE
  5
B88
  8
0
 62
     7
 10
596.38154535456874
 20
455.02631052498009
 30
0.0
 11
515.38154535456874
 21
455.02631052498009
 31
0.0
  0
LINE
  5
B89
  8
CENTER
  6
CENTER
 10
474.38154535456869
 20
466.39008900959942
 30
0.0
 11
596.38154535456874
 21
466.39008900959942
 31
0.0
  0
LINE
  5
B8A
  8
CENTER
  6
CENTER
 10
474.38154535456869
 20
394.39008900959931
 30
0.0
 11
596.38154535456874
 21
394.39008900959931
 31
0.0
  0
LINE
  5
B8B
  8
DIM
  6
CONTINUOUS
 10
471.38154535456869
 20
406.61369424478329
 30
0.0
 11
471.38154535456869
 21
278.12972621181319
 31
0.0
  0
LINE
  5
B8C
  8
DIM
  6
CONTINUOUS
 10
477.38154535456869
 20
382.14008900959931
 30
0.0
 11
477.38154535456869
 21
278.40245679025122
 31
0.0
  0
LINE
  5
B8D
  8
0
 10
515.38154535456874
 20
255.4534768490787
 30
0.0
 11
477.3815453545688
 21
255.2034768490787
 31
0.0
  0
LINE
  5
B8E
  8
CENTER
  6
CENTER
 10
508.38154535456869
 20
240.39732339543411
 30
0.0
 11
508.38154535456869
 21
260.56823283830499
 31
0.0
  0
LINE
  5
B8F
  8
CENTER
  6
CENTER
 10
496.3815453545688
 20
240.92680885393969
 30
0.0
 11
496.3815453545688
 21
259.9647428085409
 31
0.0
  0
LINE
  5
B90
  8
HIDDEN
  6
HIDDEN
 10
477.38154535456891
 20
248.9534768490787
 30
0.0
 11
499.38154535456891
 21
248.95347684907881
 31
0.0
  0
LINE
  5
B91
  8
HIDDEN
  6
HIDDEN
 10
477.38154535456891
 20
238.95347684907881
 30
0.0
 11
499.38154535456891
 21
238.9534768490787
 31
0.0
  0
ARC
  5
B92
  8
0
 10
472.38154535456891
 20
229.4534768490787
 30
0.0
 40
1.0
 50
90.0
 51
180.0
  0
LINE
  5
B93
  8
0
 10
472.38154535456891
 20
230.4534768490787
 30
0.0
 11
477.3815453545688
 21
230.4534768490787
 31
0.0
  0
LINE
  5
B94
  8
HIDDEN
  6
HIDDEN
 10
483.38154535456891
 20
248.2034768490787
 30
0.0
 11
502.3815453545688
 21
248.20347684907881
 31
0.0
  0
LINE
  5
B95
  8
HIDDEN
  6
HIDDEN
 10
483.38154535456891
 20
239.7034768490787
 30
0.0
 11
502.3815453545688
 21
239.7034768490787
 31
0.0
  0
LINE
  5
B96
  8
HIDDEN
  6
HIDDEN
 10
483.38154535456891
 20
248.9534768490787
 30
0.0
 11
483.38154535456891
 21
238.95347684907881
 31
0.0
  0
LINE
  5
B97
  8
HIDDEN
  6
HIDDEN
 10
499.38154535456891
 20
248.95347684907881
 30
0.0
 11
499.38154535456891
 21
238.95347684907881
 31
0.0
  0
LINE
  5
B98
  8
HIDDEN
  6
HIDDEN
 10
502.3815453545688
 20
248.2034768490789
 30
0.0
 11
504.83528399862467
 21
243.95347684907881
 31
0.0
  0
LINE
  5
B99
  8
HIDDEN
  6
HIDDEN
 10
502.3815453545688
 20
248.20347684907881
 30
0.0
 11
502.3815453545688
 21
239.7034768490787
 31
0.0
  0
LINE
  5
B9A
  8
HIDDEN
  6
HIDDEN
 10
502.3815453545688
 20
239.7034768490787
 30
0.0
 11
504.83528399862479
 21
243.95347684907881
 31
0.0
  0
SOLID
  5
B9B
  8
DIM
  6
CONTINUOUS
 10
480.3815453545688
 20
280.39008900959948
 30
0.0
 11
480.3815453545688
 21
279.39008900959948
 31
0.0
 12
477.3815453545688
 22
279.89008900959948
 32
0.0
 13
477.3815453545688
 23
279.89008900959948
 33
0.0
  0
SOLID
  5
B9C
  8
DIM
  6
CONTINUOUS
 10
468.38154535456891
 20
280.39008900959948
 30
0.0
 11
468.38154535456891
 21
279.39008900959948
 31
0.0
 12
471.3815453545688
 22
279.89008900959948
 32
0.0
 13
471.3815453545688
 23
279.89008900959948
 33
0.0
  0
TEXT
  5
B9D
  8
DIM
  6
CONTINUOUS
 10
464.75315245079418
 20
281.39008900959948
 30
0.0
 40
3.0
  1
6
  7
ROMANSS
 72
     1
 11
465.68172387936568
 21
282.89008900959948
 31
0.0
 73
     2
  0
LINE
  5
B9F
  8
0
 10
515.38154535456874
 20
382.89008900959931
 30
0.0
 11
477.38154535456869
 21
383.14008900959931
 31
0.0
  0
LINE
  5
BA0
  8
0
  6
CONTINUOUS
 10
512.93996733947222
 20
442.4445449004736
 30
0.0
 11
511.63154535456869
 21
441.68912711527599
 31
0.0
  0
LINE
  5
BA1
  8
0
  6
CONTINUOUS
 10
511.63154535456869
 20
439.09105090392262
 30
0.0
 11
512.93996733947222
 21
438.33563311872501
 31
0.0
  0
LINE
  5
BA2
  8
CENTER
  6
CENTER
 10
515.38154535456874
 20
440.39008900959931
 30
0.0
 11
501.38154535456869
 21
440.39008900959931
 31
0.0
  0
CIRCLE
  5
BA3
  8
0
 10
508.38154535456869
 20
440.39008900959931
 30
0.0
 40
5.0
  0
CIRCLE
  5
BA4
  8
0
 10
508.38154535456869
 20
440.39008900959931
 30
0.0
 40
5.2999999999999989
  0
CIRCLE
  5
BA5
  8
0
 10
496.38154535456869
 20
423.39008900959931
 30
0.0
 40
5.5
  0
CIRCLE
  5
BA6
  8
0
 10
496.38154535456869
 20
423.39008900959931
 30
0.0
 40
7.5
  0
ARC
  5
BA7
  8
0
 62
     2
 10
496.38154535456869
 20
423.39008900959931
 30
0.0
 40
8.3000000000000007
 50
77.189608741317514
 51
29.609685868556721
  0
LINE
  5
BA8
  8
0
 10
471.38154535456869
 20
408.89008900959942
 30
0.0
 11
471.38154535456869
 21
451.89008900959931
 31
0.0
  0
LINE
  5
BA9
  8
CENTER
  6
CENTER
 10
496.38154535456869
 20
408.89008900959942
 30
0.0
 11
496.38154535456869
 21
437.89008900959942
 31
0.0
  0
CIRCLE
  5
BAA
  8
0
 10
496.38154535456869
 20
423.39008900959931
 30
0.0
 40
11.5
  0
LINE
  5
BAB
  8
HIDDEN
  6
HIDDEN
 10
477.38154535456869
 20
389.39008900959931
 30
0.0
 11
499.38154535456869
 21
389.39008900959931
 31
0.0
  0
LINE
  5
BAC
  8
HIDDEN
  6
HIDDEN
 10
477.38154535456869
 20
399.39008900959931
 30
0.0
 11
499.38154535456869
 21
399.39008900959931
 31
0.0
  0
ARC
  5
BAD
  8
0
 10
472.38154535456869
 20
408.89008900959942
 30
0.0
 40
1.0
 50
180.0
 51
270.0
  0
LINE
  5
BAE
  8
0
 10
472.38154535456869
 20
407.89008900959931
 30
0.0
 11
477.38154535456869
 21
407.89008900959931
 31
0.0
  0
LINE
  5
BAF
  8
HIDDEN
  6
HIDDEN
 10
483.38154535456869
 20
398.64008900959931
 30
0.0
 11
502.38154535456869
 21
398.64008900959931
 31
0.0
  0
LINE
  5
BB0
  8
HIDDEN
  6
HIDDEN
 10
483.38154535456869
 20
390.14008900959931
 30
0.0
 11
502.38154535456869
 21
390.14008900959931
 31
0.0
  0
LINE
  5
BB1
  8
HIDDEN
  6
HIDDEN
 10
483.38154535456869
 20
389.39008900959931
 30
0.0
 11
483.38154535456869
 21
399.39008900959931
 31
0.0
  0
LINE
  5
BB2
  8
HIDDEN
  6
HIDDEN
 10
499.38154535456869
 20
389.39008900959931
 30
0.0
 11
499.38154535456869
 21
399.39008900959931
 31
0.0
  0
LINE
  5
BB3
  8
HIDDEN
  6
HIDDEN
 10
502.38154535456869
 20
390.14008900959919
 30
0.0
 11
504.83528399862462
 21
394.39008900959931
 31
0.0
  0
LINE
  5
BB4
  8
HIDDEN
  6
HIDDEN
 10
502.38154535456869
 20
390.14008900959931
 30
0.0
 11
502.38154535456869
 21
398.64008900959931
 31
0.0
  0
LINE
  5
BB5
  8
HIDDEN
  6
HIDDEN
 10
502.38154535456869
 20
398.64008900959931
 30
0.0
 11
504.83528399862479
 21
394.39008900959919
 31
0.0
  0
LINE
  5
BB6
  8
CENTER
  6
CENTER
 10
510.88154535456869
 20
423.39008900959931
 30
0.0
 11
481.88154535456869
 21
423.39008900959931
 31
0.0
  0
LINE
  5
BB7
  8
HIDDEN
  6
HIDDEN
 10
477.38154535456869
 20
471.39008900959942
 30
0.0
 11
499.38154535456869
 21
471.39008900959942
 31
0.0
  0
LINE
  5
BB8
  8
HIDDEN
  6
HIDDEN
 10
477.38154535456869
 20
461.39008900959931
 30
0.0
 11
499.38154535456869
 21
461.39008900959931
 31
0.0
  0
ARC
  5
BB9
  8
0
 10
472.38154535456869
 20
451.89008900959931
 30
0.0
 40
1.0
 50
90.0
 51
180.0
  0
LINE
  5
BBA
  8
0
 10
472.38154535456869
 20
452.89008900959931
 30
0.0
 11
477.38154535456869
 21
452.89008900959931
 31
0.0
  0
ARC
  5
BBB
  8
0
  6
CONTINUOUS
 10
508.38154535456869
 20
440.39008900959931
 30
0.0
 40
3.5
 50
218.21321070173829
 51
261.78678929826179
  0
ARC
  5
BBC
  8
0
  6
CONTINUOUS
 10
508.38154535456869
 20
440.39008900959931
 30
0.0
 40
3.5
 50
278.21321070173809
 51
321.78678929826242
  0
LINE
  5
BBD
  8
CENTER
  6
CENTER
 10
508.38154535456869
 20
433.39008900959942
 30
0.0
 11
508.38154535456869
 21
447.39008900959931
 31
0.0
  0
LINE
  5
BBE
  8
0
  6
CONTINUOUS
 10
507.88154535456869
 20
435.41515182406619
 30
0.0
 11
507.88154535456869
 21
436.92598739446152
 31
0.0
  0
LINE
  5
BBF
  8
0
  6
CONTINUOUS
 10
508.88154535456869
 20
435.41515182406619
 30
0.0
 11
508.88154535456869
 21
436.92598739446152
 31
0.0
  0
LINE
  5
BC0
  8
0
  6
CONTINUOUS
 10
503.8231233696651
 20
442.4445449004736
 30
0.0
 11
505.13154535456869
 21
441.68912711527599
 31
0.0
  0
LINE
  5
BC1
  8
0
  6
CONTINUOUS
 10
505.13154535456869
 20
439.09105090392262
 30
0.0
 11
503.8231233696651
 21
438.33563311872501
 31
0.0
  0
LINE
  5
BC2
  8
0
  6
CONTINUOUS
 10
504.3231233696651
 20
443.31057030425808
 30
0.0
 11
505.63154535456869
 21
442.55515251906053
 31
0.0
  0
LINE
  5
BC3
  8
0
  6
CONTINUOUS
 10
505.63154535456869
 20
438.2250255001382
 30
0.0
 11
504.3231233696651
 21
437.46960771494059
 31
0.0
  0
ARC
  5
BC4
  8
0
  6
CONTINUOUS
 10
508.38154535456869
 20
440.39008900959931
 30
0.0
 40
3.5
 50
158.2132107017386
 51
201.78678929826131
  0
LINE
  5
BC5
  8
0
  6
CONTINUOUS
 10
512.43996733947233
 20
443.31057030425808
 30
0.0
 11
511.13154535456869
 21
442.55515251906053
 31
0.0
  0
ARC
  5
BC6
  8
0
  6
CONTINUOUS
 10
508.38154535456869
 20
440.39008900959931
 30
0.0
 40
3.5
 50
338.21321070173769
 51
21.786789298262239
  0
LINE
  5
BC7
  8
0
  6
CONTINUOUS
 10
511.13154535456869
 20
438.2250255001382
 30
0.0
 11
512.43996733947233
 21
437.46960771494059
 31
0.0
  0
CIRCLE
  5
BC8
  8
0
  6
CONTINUOUS
 10
508.38154535456869
 20
440.39008900959931
 30
0.0
 40
2.5
  0
POLYLINE
  5
BC9
  8
0
  6
CONTINUOUS
 66
     1
 10
0.0
 20
0.0
 30
0.0
 70
     1
  0
VERTEX
  5
143C
  8
0
  6
CONTINUOUS
 10
509.24757075835311
 20
438.89008900959931
 30
0.0
  0
VERTEX
  5
143D
  8
0
  6
CONTINUOUS
 10
510.11359616213753
 20
440.39008900959931
 30
0.0
  0
VERTEX
  5
143E
  8
0
  6
CONTINUOUS
 10
509.24757075835311
 20
441.89008900959942
 30
0.0
  0
VERTEX
  5
143F
  8
0
  6
CONTINUOUS
 10
507.51551995078432
 20
441.89008900959942
 30
0.0
  0
VERTEX
  5
1440
  8
0
  6
CONTINUOUS
 10
506.64949454699979
 20
440.39008900959931
 30
0.0
  0
VERTEX
  5
1441
  8
0
  6
CONTINUOUS
 10
507.51551995078432
 20
438.89008900959931
 30
0.0
  0
SEQEND
  5
1442
  8
0
  6
CONTINUOUS
  0
LINE
  5
BD1
  8
0
  6
CONTINUOUS
 10
507.88154535456869
 20
443.85419062473721
 30
0.0
 11
507.88154535456869
 21
445.36502619513249
 31
0.0
  0
LINE
  5
BD2
  8
0
  6
CONTINUOUS
 10
508.88154535456869
 20
443.85419062473721
 30
0.0
 11
508.88154535456869
 21
445.36502619513249
 31
0.0
  0
ARC
  5
BD3
  8
0
  6
CONTINUOUS
 10
508.38154535456869
 20
440.39008900959931
 30
0.0
 40
3.5
 50
38.213210701738312
 51
81.786789298261766
  0
ARC
  5
BD4
  8
0
  6
CONTINUOUS
 10
508.38154535456869
 20
440.39008900959931
 30
0.0
 40
3.5
 50
98.213210701738234
 51
141.7867892982616
  0
LINE
  5
BD5
  8
HIDDEN
  6
HIDDEN
 10
483.38154535456869
 20
470.64008900959931
 30
0.0
 11
502.38154535456869
 21
470.64008900959931
 31
0.0
  0
LINE
  5
BD6
  8
HIDDEN
  6
HIDDEN
 10
483.38154535456869
 20
462.14008900959931
 30
0.0
 11
502.38154535456869
 21
462.14008900959931
 31
0.0
  0
LINE
  5
BD7
  8
HIDDEN
  6
HIDDEN
 10
483.38154535456869
 20
471.39008900959942
 30
0.0
 11
483.38154535456869
 21
461.39008900959931
 31
0.0
  0
LINE
  5
BD8
  8
HIDDEN
  6
HIDDEN
 10
502.38154535456869
 20
462.14008900959931
 30
0.0
 11
504.83528399862479
 21
466.39008900959948
 31
0.0
  0
LINE
  5
BD9
  8
HIDDEN
  6
HIDDEN
 10
502.38154535456869
 20
470.64008900959942
 30
0.0
 11
504.83528399862462
 21
466.39008900959942
 31
0.0
  0
LINE
  5
BDA
  8
HIDDEN
  6
HIDDEN
 10
499.38154535456869
 20
471.39008900959942
 30
0.0
 11
499.38154535456869
 21
461.39008900959931
 31
0.0
  0
LINE
  5
BDB
  8
HIDDEN
  6
HIDDEN
 10
502.38154535456869
 20
470.64008900959931
 30
0.0
 11
502.38154535456869
 21
462.14008900959931
 31
0.0
  0
LINE
  5
BDC
  8
DIM
  6
CONTINUOUS
 10
596.38154535456874
 20
380.60864435850613
 30
0.0
 11
596.38154535456874
 21
286.89008900959948
 31
0.0
  0
LINE
  5
BDD
  8
0
 10
600.88154535456874
 20
382.89008900959931
 30
0.0
 11
600.88154535456874
 21
371.89008900959942
 31
0.0
  0
SOLID
  5
BDE
  8
DIM
  6
CONTINUOUS
 10
603.88154535456874
 20
296.39008900959948
 30
0.0
 11
603.88154535456874
 21
295.39008900959948
 31
0.0
 12
600.88154535456874
 22
295.89008900959948
 32
0.0
 13
600.88154535456874
 23
295.89008900959948
 33
0.0
  0
LINE
  5
BDF
  8
0
 10
600.88154535456874
 20
371.89008900959942
 30
0.0
 11
601.88154535456874
 21
370.89008900959942
 31
0.0
  0
SOLID
  5
BE0
  8
DIM
  6
CONTINUOUS
 10
599.38154535456874
 20
288.39008900959948
 30
0.0
 11
599.38154535456874
 21
287.39008900959948
 31
0.0
 12
596.38154535456874
 22
287.89008900959948
 32
0.0
 13
596.38154535456874
 23
287.89008900959948
 33
0.0
  0
LINE
  5
BE1
  8
DIM
  6
CONTINUOUS
 10
600.88154535456874
 20
369.60864435850618
 30
0.0
 11
600.88154535456874
 21
294.89008900959948
 31
0.0
  0
LINE
  5
BE2
  8
0
  6
CONTINUOUS
 10
701.38154535456874
 20
157.9034768490796
 30
0.0
 11
708.2556793037603
 21
157.9034768490796
 31
0.0
  0
LINE
  5
BE3
  8
CENTER
  6
CENTER
 10
623.88154535456874
 20
240.88576857236379
 30
0.0
 11
623.88154535456874
 21
269.45347684907881
 31
0.0
  0
LINE
  5
BE4
  8
0
  6
CONTINUOUS
 10
612.93154535456802
 20
255.45347684907881
 30
0.0
 11
612.93154535456802
 21
262.32761079827048
 31
0.0
  0
LINE
  5
BE5
  8
0
  6
CONTINUOUS
 10
634.83154535456936
 20
255.45347684907881
 30
0.0
 11
634.83154535456936
 21
262.32761079827048
 31
0.0
  0
LINE
  5
BE6
  8
0
  6
CONTINUOUS
 10
617.88154535456874
 20
255.45347684907881
 30
0.0
 11
617.88154535456874
 21
262.42147684907962
 31
0.0
  0
LINE
  5
BE7
  8
0
  6
CONTINUOUS
 10
629.88154535456874
 20
255.45347684907881
 30
0.0
 11
629.88154535456874
 21
262.42147684907962
 31
0.0
  0
LINE
  5
BE8
  8
0
  6
CONTINUOUS
 10
634.83154535456936
 20
262.32761079827048
 30
0.0
 11
632.88154535456874
 21
263.45347684907881
 31
0.0
  0
LINE
  5
BE9
  8
0
  6
CONTINUOUS
 10
614.88154535456874
 20
263.45347684907881
 30
0.0
 11
632.88154535456874
 21
263.45347684907881
 31
0.0
  0
POLYLINE
  5
BEA
  8
0
  6
CONTINUOUS
 66
     1
 10
0.0
 20
0.0
 30
0.0
  0
VERTEX
  5
1443
  8
0
  6
CONTINUOUS
 10
623.88154535456874
 20
263.45347684907881
 30
0.0
 42
0.0851703918331015
  0
VERTEX
  5
1444
  8
0
  6
CONTINUOUS
 10
617.88154535456874
 20
262.42147684907962
 30
0.0
 42
0.3910851735909245
  0
VERTEX
  5
1445
  8
0
  6
CONTINUOUS
 10
613.90654535456838
 20
262.89054382367561
 30
0.0
  0
SEQEND
  5
1446
  8
0
  6
CONTINUOUS
  0
LINE
  5
BEF
  8
0
  6
CONTINUOUS
 10
612.93154535456802
 20
262.32761079827048
 30
0.0
 11
614.88154535456874
 21
263.45347684907881
 31
0.0
  0
LINE
  5
BF0
  8
0
  6
CONTINUOUS
 10
617.88154535456874
 20
264.45347684907881
 30
0.0
 11
629.88154535456874
 21
264.45347684907892
 31
0.0
  0
LINE
  5
BF1
  8
0
  6
CONTINUOUS
 10
619.88154535456874
 20
266.45347684907881
 30
0.0
 11
627.88154535456874
 21
266.45347684907881
 31
0.0
  0
POLYLINE
  5
BF2
  8
0
  6
CONTINUOUS
 66
     1
 10
0.0
 20
0.0
 30
0.0
  0
VERTEX
  5
1447
  8
0
  6
CONTINUOUS
 10
623.88154535456874
 20
263.45347684907881
 30
0.0
 42
-0.0851703918331015
  0
VERTEX
  5
1448
  8
0
  6
CONTINUOUS
 10
629.88154535456874
 20
262.42147684907962
 30
0.0
 42
-0.3910851735909245
  0
VERTEX
  5
1449
  8
0
  6
CONTINUOUS
 10
633.85654535456899
 20
262.89054382367561
 30
0.0
  0
SEQEND
  5
144A
  8
0
  6
CONTINUOUS
  0
LINE
  5
BF7
  8
0
  6
CONTINUOUS
 62
     2
 10
619.08154535456936
 20
263.45347684907898
 30
0.0
 11
619.08154535456936
 21
265.6534768490796
 31
0.0
  0
LINE
  5
BF8
  8
0
  6
CONTINUOUS
 10
617.88154535456874
 20
263.45347684907881
 30
0.0
 11
617.88154535456874
 21
264.45347684907881
 31
0.0
  0
LINE
  5
BF9
  8
0
  6
CONTINUOUS
 10
617.88154535456874
 20
264.45347684907881
 30
0.0
 11
619.88154535456874
 21
266.45347684907881
 31
0.0
  0
LINE
  5
BFA
  8
0
  6
CONTINUOUS
 10
629.88154535456874
 20
263.45347684907881
 30
0.0
 11
629.88154535456874
 21
264.45347684907881
 31
0.0
  0
LINE
  5
BFB
  8
0
  6
CONTINUOUS
 62
     2
 10
628.6815453545679
 20
263.45347684907898
 30
0.0
 11
628.6815453545679
 21
265.6534768490796
 31
0.0
  0
LINE
  5
BFC
  8
0
  6
CONTINUOUS
 10
629.88154535456874
 20
264.45347684907881
 30
0.0
 11
627.88154535456874
 21
266.45347684907881
 31
0.0
  0
TEXT
  5
BFD
  8
DIM
  6
CONTINUOUS
 10
645.02440249742585
 20
281.39008900959948
 30
0.0
 40
3.0
  1
343
  7
ROMANSS
 72
     1
 11
648.88154535456874
 21
282.89008900959948
 31
0.0
 73
     2
  0
LINE
  5
BFE
  8
0
  6
CONTINUOUS
 10
708.2556793037603
 20
157.9034768490796
 30
0.0
 11
709.38154535456874
 21
155.9534768490789
 31
0.0
  0
TEXT
  5
BFF
  8
DIM
  6
CONTINUOUS
 10
645.3101167831403
 20
289.39008900959948
 30
0.0
 40
3.0
  1
105
  7
ROMANSS
 72
     1
 11
648.88154535456874
 21
290.89008900959948
 31
0.0
 73
     2
  0
TEXT
  5
C00
  8
DIM
  6
CONTINUOUS
 10
645.16725964028319
 20
297.39008900959948
 30
0.0
 40
3.0
  1
%%c96
  7
ROMANSS
 72
     1
 11
648.88154535456874
 21
298.89008900959948
 31
0.0
 73
     2
  0
POLYLINE
  5
C01
  8
0
  6
CONTINUOUS
 66
     1
 10
0.0
 20
0.0
 30
0.0
 70
     1
  0
VERTEX
  5
144B
  8
0
  6
CONTINUOUS
 10
618.39671779726723
 20
416.89008900959942
 30
0.0
  0
VERTEX
  5
144C
  8
0
  6
CONTINUOUS
 10
612.91189023996583
 20
407.39008900959931
 30
0.0
  0
VERTEX
  5
144D
  8
0
  6
CONTINUOUS
 10
618.39671779726723
 20
397.89008900959931
 30
0.0
  0
VERTEX
  5
144E
  8
0
  6
CONTINUOUS
 10
629.36637291187014
 20
397.89008900959931
 30
0.0
  0
VERTEX
  5
144F
  8
0
  6
CONTINUOUS
 10
634.85120046917154
 20
407.39008900959931
 30
0.0
  0
VERTEX
  5
1450
  8
0
  6
CONTINUOUS
 10
629.36637291187014
 20
416.89008900959942
 30
0.0
  0
SEQEND
  5
1451
  8
0
  6
CONTINUOUS
  0
LINE
  5
C09
  8
CENTER
  6
CENTER
 10
608.38154535456874
 20
407.39008900959931
 30
0.0
 11
639.38154535456874
 21
407.39008900959931
 31
0.0
  0
ARC
  5
C0A
  8
0
  6
CONTINUOUS
 62
     2
 10
623.88154535456874
 20
407.39008900959931
 30
0.0
 40
5.0999999999999988
 50
162.22254855360339
 51
111.813746502519
  0
CIRCLE
  5
C0B
  8
0
  6
CONTINUOUS
 10
623.88154535456874
 20
407.39008900959931
 30
0.0
 40
6.0
  0
CIRCLE
  5
C0C
  8
0
  6
CONTINUOUS
 10
623.88154535456874
 20
407.39008900959931
 30
0.0
 40
9.5
  0
LINE
  5
C0D
  8
CENTER
  6
CENTER
 10
623.88154535456874
 20
422.89008900959931
 30
0.0
 11
623.88154535456874
 21
391.89008900959931
 31
0.0
  0
POLYLINE
  5
C0E
  8
0
  6
CONTINUOUS
 66
     1
 10
0.0
 20
0.0
 30
0.0
 70
     1
  0
VERTEX
  5
1452
  8
0
  6
CONTINUOUS
 10
622.14949454700059
 20
410.39008900959931
 30
0.0
  0
VERTEX
  5
1453
  8
0
  6
CONTINUOUS
 10
620.41744373943061
 20
407.39008900959931
 30
0.0
  0
VERTEX
  5
1454
  8
0
  6
CONTINUOUS
 10
622.14949454700059
 20
404.39008900959942
 30
0.0
  0
VERTEX
  5
1455
  8
0
  6
CONTINUOUS
 10
625.61359616213679
 20
404.39008900959942
 30
0.0
  0
VERTEX
  5
1456
  8
0
  6
CONTINUOUS
 10
627.34564696970688
 20
407.39008900959931
 30
0.0
  0
VERTEX
  5
1457
  8
0
  6
CONTINUOUS
 10
625.61359616213679
 20
410.39008900959931
 30
0.0
  0
SEQEND
  5
1458
  8
0
  6
CONTINUOUS
  0
CIRCLE
  5
C16
  8
0
  6
CONTINUOUS
 10
648.88154535456874
 20
430.39008900959931
 30
0.0
 40
4.0
  0
POLYLINE
  5
C17
  8
0
  6
CONTINUOUS
 66
     1
 10
0.0
 20
0.0
 30
0.0
 70
     1
 40
1.0
 41
1.0
  0
VERTEX
  5
1459
  8
0
  6
CONTINUOUS
 10
649.38154535456874
 20
430.39008900959931
 30
0.0
 42
1.0
  0
VERTEX
  5
145A
  8
0
  6
CONTINUOUS
 10
648.38154535456874
 20
430.39008900959931
 30
0.0
 42
1.0
  0
SEQEND
  5
145B
  8
0
  6
CONTINUOUS
  0
CIRCLE
  5
C1B
  8
0
  6
CONTINUOUS
 10
648.88154535456874
 20
669.94626817692927
 30
0.0
 40
13.00000000000005
  0
SOLID
  5
C1C
  8
DIM
  6
CONTINUOUS
 10
623.38154535456874
 20
662.94626817692915
 30
0.0
 11
624.38154535456874
 21
662.94626817692915
 31
0.0
 12
623.88154535456874
 22
665.94626817692927
 32
0.0
 13
623.88154535456874
 23
665.94626817692927
 33
0.0
  0
LINE
  5
C1D
  8
0
 10
477.3815453545688
 20
681.19626817692915
 30
0.0
 11
477.3815453545688
 21
586.69626817692927
 31
0.0
  0
LINE
  5
C1E
  8
0
 10
515.38154535456874
 20
681.44626817692915
 30
0.0
 11
515.38154535456874
 21
586.44626817692927
 31
0.0
  0
CIRCLE
  5
C1F
  8
0
  6
CONTINUOUS
 10
648.88154535456874
 20
669.94626817692927
 30
0.0
 40
17.5
  0
CIRCLE
  5
C20
  8
0
  6
CONTINUOUS
 10
648.88154535456874
 20
669.94626817692927
 30
0.0
 40
14.00000000000005
  0
LINE
  5
C21
  8
0
 10
596.38154535456874
 20
721.44626817692915
 30
0.0
 11
596.38154535456874
 21
586.44626817692927
 31
0.0
  0
LINE
  5
C22
  8
CENTER
  6
CENTER
 10
648.88154535456874
 20
726.90674087956086
 30
0.0
 11
648.88154535456874
 21
583.44626817692915
 31
0.0
  0
LINE
  5
C23
  8
0
 10
596.38154535456874
 20
590.44626817692927
 30
0.0
 11
515.38154535456874
 21
590.44626817692927
 31
0.0
  0
LINE
  5
C24
  8
0
 62
     7
 10
596.38154535456874
 20
609.31004666154865
 30
0.0
 11
515.38154535456874
 21
609.31004666154865
 31
0.0
  0
LINE
  5
C25
  8
0
 62
     7
 10
596.38154535456874
 20
658.58248969230988
 30
0.0
 11
515.38154535456874
 21
658.58248969230988
 31
0.0
  0
LINE
  5
C26
  8
0
 10
596.38154535456874
 20
473.89008900959948
 30
0.0
 11
515.38154535456874
 21
473.89008900959948
 31
0.0
  0
LINE
  5
C27
  8
CENTER
  6
CENTER
 10
474.3815453545688
 20
597.94626817692949
 30
0.0
 11
596.38154535456874
 21
597.94626817692938
 31
0.0
  0
LINE
  5
C28
  8
0
 10
515.38154535456874
 20
477.89008900959931
 30
0.0
 11
477.38154535456869
 21
477.64008900959942
 31
0.0
  0
LINE
  5
C29
  8
0
 10
515.38154535456874
 20
586.44626817692927
 30
0.0
 11
477.3815453545688
 21
586.69626817692927
 31
0.0
  0
LINE
  5
C2A
  8
0
 10
471.3815453545688
 20
655.44626817692915
 30
0.0
 11
471.3815453545688
 21
612.44626817692927
 31
0.0
  0
LINE
  5
C2B
  8
HIDDEN
  6
HIDDEN
 10
477.38154535456891
 20
592.94626817692927
 30
0.0
 11
499.38154535456891
 21
592.94626817692915
 31
0.0
  0
LINE
  5
C2C
  8
HIDDEN
  6
HIDDEN
 10
477.38154535456891
 20
602.94626817692927
 30
0.0
 11
499.38154535456891
 21
602.94626817692938
 31
0.0
  0
ARC
  5
C2D
  8
0
 10
472.38154535456891
 20
612.44626817692927
 30
0.0
 40
1.0
 50
180.0
 51
270.0
  0
LINE
  5
C2E
  8
0
 10
472.38154535456891
 20
611.44626817692927
 30
0.0
 11
477.3815453545688
 21
611.44626817692927
 31
0.0
  0
LINE
  5
C2F
  8
HIDDEN
  6
HIDDEN
 10
483.38154535456891
 20
592.94626817692927
 30
0.0
 11
483.38154535456891
 21
602.94626817692927
 31
0.0
  0
LINE
  5
C30
  8
CENTER
  6
CENTER
 10
496.3815453545688
 20
600.43820898402225
 30
0.0
 11
496.38154535456903
 21
581.11949338117029
 31
0.0
  0
LINE
  5
C31
  8
CENTER
  6
CENTER
 10
508.38154535456869
 20
600.42600429741105
 30
0.0
 11
508.38154535456869
 21
581.33151218770308
 31
0.0
  0
LINE
  5
C32
  8
HIDDEN
  6
HIDDEN
 10
499.38154535456891
 20
592.94626817692915
 30
0.0
 11
499.38154535456891
 21
602.94626817692927
 31
0.0
  0
LINE
  5
C33
  8
HIDDEN
  6
HIDDEN
 10
502.3815453545688
 20
593.69626817692915
 30
0.0
 11
504.83528399862467
 21
597.94626817692915
 31
0.0
  0
LINE
  5
C34
  8
HIDDEN
  6
HIDDEN
 10
502.3815453545688
 20
593.69626817692915
 30
0.0
 11
502.3815453545688
 21
602.19626817692927
 31
0.0
  0
LINE
  5
C35
  8
HIDDEN
  6
HIDDEN
 10
483.38154535456891
 20
593.69626817692927
 30
0.0
 11
502.3815453545688
 21
593.69626817692915
 31
0.0
  0
LINE
  5
C36
  8
HIDDEN
  6
HIDDEN
 10
483.38154535456891
 20
602.19626817692927
 30
0.0
 11
502.3815453545688
 21
602.19626817692927
 31
0.0
  0
LINE
  5
C37
  8
HIDDEN
  6
HIDDEN
 10
502.3815453545688
 20
602.19626817692927
 30
0.0
 11
504.83528399862479
 21
597.94626817692915
 31
0.0
  0
ARC
  5
C38
  8
0
 10
472.38154535456891
 20
655.44626817692915
 30
0.0
 40
1.0
 50
90.0
 51
180.0
  0
LINE
  5
C39
  8
0
 10
472.38154535456891
 20
656.44626817692915
 30
0.0
 11
477.3815453545688
 21
656.44626817692915
 31
0.0
  0
LINE
  5
C3A
  8
DIM
  6
CONTINUOUS
 10
630.38154535456874
 20
490.89008900959948
 30
0.0
 11
579.38154535456874
 21
490.89008900959948
 31
0.0
  0
LINE
  5
C3B
  8
DIM
  6
CONTINUOUS
 10
634.88154535456874
 20
540.89008900959948
 30
0.0
 11
579.38154535456874
 21
540.89008900959948
 31
0.0
  0
LINE
  5
C3C
  8
DIM
  6
CONTINUOUS
 10
630.88154535456874
 20
493.39008900959931
 30
0.0
 11
587.38154535456874
 21
493.39008900959931
 31
0.0
  0
LINE
  5
C3D
  8
DIM
  6
CONTINUOUS
 10
630.88154535456874
 20
538.39008900959936
 30
0.0
 11
587.38154535456874
 21
538.39008900959936
 31
0.0
  0
LINE
  5
C3E
  8
0
 10
601.88154535456874
 20
489.89008900959942
 30
0.0
 11
600.88154535456874
 21
488.89008900959942
 31
0.0
  0
LINE
  5
C3F
  8
DIM
  6
CONTINUOUS
 10
580.38154535456874
 20
537.89008900959936
 30
0.0
 11
580.38154535456874
 21
482.95712285213841
 31
0.0
  0
LINE
  5
C40
  8
DIM
  6
CONTINUOUS
 10
588.38154535456874
 20
535.39008900959936
 30
0.0
 11
588.38154535456874
 21
496.39008900959942
 31
0.0
  0
SOLID
  5
C41
  8
DIM
  6
CONTINUOUS
 10
587.88154535456874
 20
496.39008900959942
 30
0.0
 11
588.88154535456874
 21
496.39008900959942
 31
0.0
 12
588.38154535456874
 22
493.39008900959931
 32
0.0
 13
588.38154535456874
 23
493.39008900959931
 33
0.0
  0
LINE
  5
C42
  8
DIM
  6
CONTINUOUS
 10
600.82467853335515
 20
489.89008900959942
 30
0.0
 11
579.38154535456874
 21
489.89008900959942
 31
0.0
  0
TEXT
  5
C43
  8
DIM
  6
CONTINUOUS
 10
578.88154535456874
 20
484.58096389327437
 30
0.0
 40
3.0
  1
1
 50
90.0
  7
ROMANSS
 72
     1
 11
577.38154535456874
 21
484.93810675041721
 31
0.0
 73
     2
  0
SOLID
  5
C44
  8
DIM
  6
CONTINUOUS
 10
579.88154535456874
 20
486.89008900959948
 30
0.0
 11
580.88154535456874
 21
486.89008900959948
 31
0.0
 12
580.38154535456874
 22
489.89008900959942
 32
0.0
 13
580.38154535456874
 23
489.89008900959942
 33
0.0
  0
SOLID
  5
C45
  8
DIM
  6
CONTINUOUS
 10
579.88154535456874
 20
493.89008900959942
 30
0.0
 11
580.88154535456874
 21
493.89008900959942
 31
0.0
 12
580.38154535456874
 22
490.89008900959948
 32
0.0
 13
580.38154535456874
 23
490.89008900959948
 33
0.0
  0
LINE
  5
C46
  8
0
 10
600.88154535456874
 20
488.89008900959942
 30
0.0
 11
600.88154535456874
 21
477.89008900959931
 31
0.0
  0
TEXT
  5
C47
  8
DIM
  6
CONTINUOUS
 10
586.88154535456874
 20
513.46151758102803
 30
0.0
 40
3.0
  1
45
 50
90.0
  7
ROMANSS
 72
     1
 11
585.38154535456874
 21
515.89008900959948
 31
0.0
 73
     2
  0
TEXT
  5
C48
  8
DIM
  6
CONTINUOUS
 10
578.88154535456874
 20
513.46151758102803
 30
0.0
 40
3.0
  1
50
 50
90.0
  7
ROMANSS
 72
     1
 11
577.38154535456874
 21
515.89008900959948
 31
0.0
 73
     2
  0
SOLID
  5
C49
  8
DIM
  6
CONTINUOUS
 10
579.88154535456874
 20
537.89008900959936
 30
0.0
 11
580.88154535456874
 21
537.89008900959936
 31
0.0
 12
580.38154535456874
 22
540.89008900959948
 32
0.0
 13
580.38154535456874
 23
540.89008900959948
 33
0.0
  0
SOLID
  5
C4A
  8
DIM
  6
CONTINUOUS
 10
587.88154535456874
 20
535.39008900959936
 30
0.0
 11
588.88154535456874
 21
535.39008900959936
 31
0.0
 12
588.38154535456874
 22
538.39008900959936
 32
0.0
 13
588.38154535456874
 23
538.39008900959936
 33
0.0
  0
LINE
  5
C4B
  8
0
 10
631.88154535456874
 20
538.39008900959936
 30
0.0
 11
631.88154535456874
 21
493.39008900959931
 31
0.0
  0
LINE
  5
C4C
  8
0
 10
634.88154535456874
 20
539.89008900959936
 30
0.0
 11
634.88154535456874
 21
490.89008900959948
 31
0.0
  0
LINE
  5
C4D
  8
0
 10
662.88154535456874
 20
539.89008900959936
 30
0.0
 11
662.88154535456874
 21
490.89008900959948
 31
0.0
  0
LINE
  5
C4E
  8
0
 10
631.88154535456874
 20
493.39008900959931
 30
0.0
 11
634.88154535456874
 21
493.39008900959931
 31
0.0
  0
LINE
  5
C4F
  8
0
 10
631.38154535456874
 20
490.89008900959948
 30
0.0
 11
666.38154535456874
 21
490.89008900959948
 31
0.0
  0
LINE
  5
C50
  8
0
 10
631.38154535456874
 20
490.89008900959948
 30
0.0
 11
631.38154535456874
 21
489.89008900959942
 31
0.0
  0
LINE
  5
C51
  8
0
 10
666.38154535456874
 20
490.89008900959948
 30
0.0
 11
666.38154535456874
 21
489.89008900959942
 31
0.0
  0
SOLID
  5
C52
  8
DIM
  6
CONTINUOUS
 10
634.88154535456874
 20
557.39008900959948
 30
0.0
 11
634.88154535456874
 21
556.39008900959936
 31
0.0
 12
631.88154535456874
 22
556.89008900959948
 32
0.0
 13
631.88154535456874
 23
556.89008900959948
 33
0.0
  0
LINE
  5
C53
  8
0
 10
631.88154535456874
 20
538.39008900959936
 30
0.0
 11
634.88154535456874
 21
538.39008900959936
 31
0.0
  0
LINE
  5
C54
  8
DIM
  6
CONTINUOUS
 10
631.88154535456874
 20
539.39008900959936
 30
0.0
 11
631.88154535456874
 21
557.89008900959948
 31
0.0
  0
LINE
  5
C55
  8
DIM
  6
CONTINUOUS
 10
662.88154535456874
 20
540.89008900959948
 30
0.0
 11
662.88154535456874
 21
557.89008900959948
 31
0.0
  0
LINE
  5
C56
  8
DIM
  6
CONTINUOUS
 10
634.88154535456874
 20
540.89008900959948
 30
0.0
 11
634.88154535456874
 21
549.89008900959948
 31
0.0
  0
LINE
  5
C57
  8
DIM
  6
CONTINUOUS
 10
662.88154535456874
 20
540.89008900959948
 30
0.0
 11
662.88154535456874
 21
549.89008900959948
 31
0.0
  0
LINE
  5
C58
  8
0
 10
634.88154535456874
 20
539.89008900959936
 30
0.0
 11
662.88154535456874
 21
539.89008900959936
 31
0.0
  0
LINE
  5
C59
  8
0
 10
635.88154535456874
 20
540.89008900959948
 30
0.0
 11
661.88154535456874
 21
540.89008900959948
 31
0.0
  0
LINE
  5
C5A
  8
0
 10
635.88154535456874
 20
540.89008900959948
 30
0.0
 11
634.88154535456874
 21
539.89008900959936
 31
0.0
  0
LINE
  5
C5B
  8
0
 10
661.88154535456874
 20
540.89008900959948
 30
0.0
 11
662.88154535456874
 21
539.89008900959936
 31
0.0
  0
LINE
  5
C5C
  8
DIM
  6
CONTINUOUS
 10
659.88154535456874
 20
556.89008900959948
 30
0.0
 11
634.88154535456874
 21
556.89008900959948
 31
0.0
  0
TEXT
  5
C5D
  8
DIM
  6
CONTINUOUS
 10
642.38154535456874
 20
550.39008900959936
 30
0.0
 40
3.0
  1
%%c28h6
  7
ROMANSS
 72
     1
 11
648.88154535456874
 21
551.89008900959936
 31
0.0
 73
     2
  0
LINE
  5
C5E
  8
DIM
  6
CONTINUOUS
 10
659.88154535456874
 20
548.89008900959948
 30
0.0
 11
637.88154535456874
 21
548.89008900959948
 31
0.0
  0
SOLID
  5
C5F
  8
DIM
  6
CONTINUOUS
 10
637.88154535456874
 20
549.39008900959948
 30
0.0
 11
637.88154535456874
 21
548.39008900959936
 31
0.0
 12
634.88154535456874
 22
548.89008900959948
 32
0.0
 13
634.88154535456874
 23
548.89008900959948
 33
0.0
  0
TEXT
  5
C60
  8
DIM
  6
CONTINUOUS
 10
645.59583106885441
 20
558.39008900959936
 30
0.0
 40
3.0
  1
31
  7
ROMANSS
 72
     1
 11
647.38154535456874
 21
559.89008900959936
 31
0.0
 73
     2
  0
SOLID
  5
C61
  8
DIM
  6
CONTINUOUS
 10
659.88154535456874
 20
549.39008900959948
 30
0.0
 11
659.88154535456874
 21
548.39008900959936
 31
0.0
 12
662.88154535456874
 22
548.89008900959948
 32
0.0
 13
662.88154535456874
 23
548.89008900959948
 33
0.0
  0
SOLID
  5
C62
  8
DIM
  6
CONTINUOUS
 10
659.88154535456874
 20
557.39008900959948
 30
0.0
 11
659.88154535456874
 21
556.39008900959936
 31
0.0
 12
662.88154535456874
 22
556.89008900959948
 32
0.0
 13
662.88154535456874
 23
556.89008900959948
 33
0.0
  0
LINE
  5
C63
  8
CENTER
  6
CENTER
 10
597.88154535456874
 20
628.94626817692915
 30
0.0
 11
617.88154535456874
 21
628.94626817692915
 31
0.0
  0
LINE
  5
C64
  8
0
  6
CONTINUOUS
 10
634.83154535456936
 20
579.57213422773748
 30
0.0
 11
632.88154535456874
 21
578.44626817692927
 31
0.0
  0
LINE
  5
C65
  8
CENTER
  6
CENTER
 10
623.88154535456874
 20
601.01397645364432
 30
0.0
 11
623.88154535456874
 21
572.44626817692915
 31
0.0
  0
LINE
  5
C66
  8
0
  6
CONTINUOUS
 10
614.88154535456874
 20
578.44626817692927
 30
0.0
 11
632.88154535456874
 21
578.44626817692927
 31
0.0
  0
POLYLINE
  5
C67
  8
0
  6
CONTINUOUS
 66
     1
 10
0.0
 20
0.0
 30
0.0
  0
VERTEX
  5
145C
  8
0
  6
CONTINUOUS
 10
623.88154535456874
 20
578.44626817692927
 30
0.0
 42
-0.0851703918331015
  0
VERTEX
  5
145D
  8
0
  6
CONTINUOUS
 10
617.88154535456874
 20
579.47826817692851
 30
0.0
 42
-0.3910851735909245
  0
VERTEX
  5
145E
  8
0
  6
CONTINUOUS
 10
613.90654535456838
 20
579.00920120233252
 30
0.0
  0
SEQEND
  5
145F
  8
0
  6
CONTINUOUS
  0
LINE
  5
C6C
  8
0
  6
CONTINUOUS
 10
612.93154535456802
 20
586.44626817692927
 30
0.0
 11
612.93154535456802
 21
579.57213422773748
 31
0.0
  0
LINE
  5
C6D
  8
0
  6
CONTINUOUS
 10
612.93154535456802
 20
579.57213422773748
 30
0.0
 11
614.88154535456874
 21
578.44626817692927
 31
0.0
  0
LINE
  5
C6E
  8
0
  6
CONTINUOUS
 10
617.88154535456874
 20
586.44626817692927
 30
0.0
 11
617.88154535456874
 21
579.47826817692851
 31
0.0
  0
LINE
  5
C6F
  8
0
  6
CONTINUOUS
 10
629.88154535456874
 20
586.44626817692927
 30
0.0
 11
629.88154535456874
 21
579.47826817692851
 31
0.0
  0
LINE
  5
C70
  8
0
  6
CONTINUOUS
 10
619.88154535456874
 20
575.44626817692915
 30
0.0
 11
627.88154535456874
 21
575.44626817692915
 31
0.0
  0
LINE
  5
C71
  8
0
  6
CONTINUOUS
 10
617.88154535456874
 20
577.44626817692915
 30
0.0
 11
629.88154535456874
 21
577.44626817692915
 31
0.0
  0
POLYLINE
  5
C72
  8
0
  6
CONTINUOUS
 66
     1
 10
0.0
 20
0.0
 30
0.0
  0
VERTEX
  5
1460
  8
0
  6
CONTINUOUS
 10
623.88154535456874
 20
578.44626817692927
 30
0.0
 42
0.0851703918331015
  0
VERTEX
  5
1461
  8
0
  6
CONTINUOUS
 10
629.88154535456874
 20
579.47826817692851
 30
0.0
 42
0.3910851735909245
  0
VERTEX
  5
1462
  8
0
  6
CONTINUOUS
 10
633.85654535456899
 20
579.00920120233252
 30
0.0
  0
SEQEND
  5
1463
  8
0
  6
CONTINUOUS
  0
LINE
  5
C77
  8
0
  6
CONTINUOUS
 10
617.88154535456874
 20
577.44626817692915
 30
0.0
 11
619.88154535456874
 21
575.44626817692915
 31
0.0
  0
LINE
  5
C78
  8
0
  6
CONTINUOUS
 10
617.88154535456874
 20
578.44626817692927
 30
0.0
 11
617.88154535456874
 21
577.44626817692915
 31
0.0
  0
LINE
  5
C79
  8
0
  6
CONTINUOUS
 62
     2
 10
619.08154535456936
 20
578.44626817692915
 30
0.0
 11
619.08154535456936
 21
576.24626817692854
 31
0.0
  0
LINE
  5
C7A
  8
0
  6
CONTINUOUS
 10
629.88154535456874
 20
577.44626817692915
 30
0.0
 11
627.88154535456874
 21
575.44626817692915
 31
0.0
  0
LINE
  5
C7B
  8
0
  6
CONTINUOUS
 10
629.88154535456874
 20
578.44626817692927
 30
0.0
 11
629.88154535456874
 21
577.44626817692915
 31
0.0
  0
LINE
  5
C7C
  8
0
  6
CONTINUOUS
 62
     2
 10
628.6815453545679
 20
578.44626817692915
 30
0.0
 11
628.6815453545679
 21
576.24626817692854
 31
0.0
  0
LINE
  5
C7D
  8
0
  6
CONTINUOUS
 10
634.83154535456936
 20
586.44626817692927
 30
0.0
 11
634.83154535456936
 21
579.57213422773748
 31
0.0
  0
LINE
  5
C7E
  8
0
  6
CONTINUOUS
 10
701.38154535456863
 20
683.99626817692842
 30
0.0
 11
708.25567930376019
 21
683.99626817692842
 31
0.0
  0
LINE
  5
C7F
  8
0
  6
CONTINUOUS
 10
708.25567930376019
 20
683.99626817692842
 30
0.0
 11
709.38154535456863
 21
685.94626817692915
 31
0.0
  0
CIRCLE
  5
C80
  8
0
  6
CONTINUOUS
 10
607.88154535456874
 20
628.94626817692915
 30
0.0
 40
4.25
  0
ARC
  5
C81
  8
0
  6
CONTINUOUS
 62
     2
 10
607.88154535456874
 20
628.94626817692915
 30
0.0
 40
5.0
 50
161.29065264439251
 51
115.2003954081225
  0
LINE
  5
C82
  8
CENTER
  6
CENTER
 10
607.88154535456874
 20
638.94626817692915
 30
0.0
 11
607.88154535456874
 21
618.94626817692915
 31
0.0
  0
LINE
  5
C83
  8
DIM
  6
CONTINUOUS
 10
623.88154535456874
 20
662.94626817692915
 30
0.0
 11
623.88154535456874
 21
659.94626817692915
 31
0.0
  0
LINE
  5
C84
  8
0
 10
596.38154535456874
 20
677.44626817692927
 30
0.0
 11
515.38154535456874
 21
677.44626817692927
 31
0.0
  0
LINE
  5
C85
  8
0
 10
515.38154535456874
 20
681.44626817692915
 30
0.0
 11
477.3815453545688
 21
681.19626817692915
 31
0.0
  0
LINE
  5
C86
  8
HIDDEN
  6
HIDDEN
 10
477.38154535456891
 20
674.94626817692915
 30
0.0
 11
499.38154535456891
 21
674.94626817692915
 31
0.0
  0
LINE
  5
C87
  8
HIDDEN
  6
HIDDEN
 10
477.38154535456891
 20
664.94626817692927
 30
0.0
 11
499.38154535456891
 21
664.94626817692927
 31
0.0
  0
LINE
  5
C88
  8
HIDDEN
  6
HIDDEN
 10
483.38154535456891
 20
665.69626817692915
 30
0.0
 11
502.3815453545688
 21
665.69626817692915
 31
0.0
  0
LINE
  5
C89
  8
HIDDEN
  6
HIDDEN
 10
483.38154535456891
 20
674.19626817692915
 30
0.0
 11
502.3815453545688
 21
674.19626817692915
 31
0.0
  0
LINE
  5
C8A
  8
HIDDEN
  6
HIDDEN
 10
483.38154535456891
 20
674.94626817692915
 30
0.0
 11
483.38154535456891
 21
664.94626817692927
 31
0.0
  0
LINE
  5
C8B
  8
HIDDEN
  6
HIDDEN
 10
502.3815453545688
 20
674.19626817692938
 30
0.0
 11
504.83528399862467
 21
669.94626817692927
 31
0.0
  0
LINE
  5
C8C
  8
HIDDEN
  6
HIDDEN
 10
502.3815453545688
 20
665.69626817692915
 30
0.0
 11
504.83528399862479
 21
669.94626817692927
 31
0.0
  0
LINE
  5
C8D
  8
HIDDEN
  6
HIDDEN
 10
502.3815453545688
 20
674.19626817692915
 30
0.0
 11
502.3815453545688
 21
665.69626817692915
 31
0.0
  0
LINE
  5
C8E
  8
HIDDEN
  6
HIDDEN
 10
499.38154535456891
 20
674.94626817692915
 30
0.0
 11
499.38154535456891
 21
664.94626817692927
 31
0.0
  0
LINE
  5
C8F
  8
CENTER
  6
CENTER
 10
597.88154535456874
 20
710.94626817692927
 30
0.0
 11
617.88154535456874
 21
710.94626817692927
 31
0.0
  0
SOLID
  5
C90
  8
DIM
  6
CONTINUOUS
 10
569.5880213800649
 20
672.93634616492989
 30
0.0
 11
568.58819783884314
 21
672.95513143625885
 31
0.0
 12
569.03175379546713
 22
669.94626817692927
 32
0.0
 13
569.03175379546713
 23
669.94626817692927
 33
0.0
  0
CIRCLE
  5
C91
  8
0
  6
CONTINUOUS
 10
607.88154535456874
 20
710.94626817692927
 30
0.0
 40
4.25
  0
ARC
  5
C92
  8
0
  6
CONTINUOUS
 62
     2
 10
607.88154535456874
 20
710.94626817692927
 30
0.0
 40
5.0
 50
161.29065264439421
 51
115.2003954081208
  0
LINE
  5
C93
  8
CENTER
  6
CENTER
 10
607.88154535456874
 20
720.94626817692915
 30
0.0
 11
607.88154535456874
 21
700.94626817692915
 31
0.0
  0
LINE
  5
C94
  8
0
 10
631.88154535456874
 20
665.94626817692927
 30
0.0
 11
635.46513748956988
 21
665.94626817692927
 31
0.0
  0
LINE
  5
C95
  8
0
 10
631.88154535456874
 20
673.94626817692927
 30
0.0
 11
635.46513748956988
 21
673.94626817692927
 31
0.0
  0
SOLID
  5
C96
  8
DIM
  6
CONTINUOUS
 10
623.38154535456874
 20
676.94626817692915
 30
0.0
 11
624.38154535456874
 21
676.94626817692915
 31
0.0
 12
623.88154535456874
 22
673.94626817692927
 32
0.0
 13
623.88154535456874
 23
673.94626817692927
 33
0.0
  0
LINE
  5
C97
  8
DIM
  6
CONTINUOUS
 10
630.88154535456874
 20
673.94626817692927
 30
0.0
 11
622.88154535456874
 21
673.94626817692927
 31
0.0
  0
LINE
  5
C98
  8
DIM
  6
CONTINUOUS
 10
630.88154535456874
 20
665.94626817692927
 30
0.0
 11
622.88154535456874
 21
665.94626817692927
 31
0.0
  0
LINE
  5
C99
  8
DIM
  6
CONTINUOUS
 10
623.88154535456874
 20
665.94626817692927
 30
0.0
 11
623.88154535456874
 21
673.94626817692927
 31
0.0
  0
LINE
  5
C9A
  8
0
 10
631.88154535456874
 20
673.94626817692927
 30
0.0
 11
631.88154535456874
 21
665.94626817692927
 31
0.0
  0
TEXT
  5
C9B
  8
DIM
  6
CONTINUOUS
 10
622.38154535456886
 20
680.82126817692915
 30
0.0
 40
3.0
  1
8
 50
90.0
  7
ROMANSS
 72
     1
 11
620.88154535456874
 21
681.82126817692915
 31
0.0
 73
     2
  0
LINE
  5
C9C
  8
DIM
  6
CONTINUOUS
 10
623.88154535456874
 20
679.94626817692915
 30
0.0
 11
623.88154535456874
 21
682.69626817692915
 31
0.0
  0
LINE
  5
C9D
  8
DIM
  6
CONTINUOUS
 10
623.88154535456874
 20
676.94626817692915
 30
0.0
 11
623.88154535456874
 21
679.94626817692915
 31
0.0
  0
ARC
  5
C9E
  8
0
  6
CONTINUOUS
 62
     2
 10
621.30438088829328
 20
697.52343264320461
 30
0.0
 40
4.0
 50
210.50278965468681
 51
157.4755877848952
  0
LINE
  5
C9F
  8
CENTER
  6
CENTER
 10
615.64752663880097
 20
703.18028689269704
 30
0.0
 11
626.96123513778559
 21
691.86657839371219
 31
0.0
  0
CIRCLE
  5
CA0
  8
0
  6
CONTINUOUS
 10
621.30438088829328
 20
697.52343264320461
 30
0.0
 40
3.399999999999999
  0
CIRCLE
  5
CA1
  8
0
  6
CONTINUOUS
 10
648.88154535456874
 20
669.94626817692927
 30
0.0
 40
3.399999999999999
  0
ARC
  5
CA2
  8
0
  6
CONTINUOUS
 62
     2
 10
648.88154535456874
 20
669.94626817692927
 30
0.0
 40
4.0
 50
153.95518686272919
 51
110.5741396147375
  0
SOLID
  5
CA3
  8
DIM
  6
CONTINUOUS
 10
655.59044671051925
 20
671.63710371250829
 30
0.0
 11
655.39441324673305
 21
672.61770091884534
 31
0.0
 12
652.55063835961505
 22
671.53930192431835
 32
0.0
 13
652.55063835961505
 23
671.53930192431835
 33
0.0
  0
SOLID
  5
CA4
  8
DIM
  6
CONTINUOUS
 10
610.88154535456874
 20
729.94626817692915
 30
0.0
 11
610.88154535456874
 21
728.94626817692915
 31
0.0
 12
607.88154535456874
 22
729.44626817692915
 32
0.0
 13
607.88154535456874
 23
729.44626817692915
 33
0.0
  0
LINE
  5
CA5
  8
DIM
  6
CONTINUOUS
 10
607.88154535456874
 20
721.94626817692915
 30
0.0
 11
607.88154535456874
 21
730.44626817692915
 31
0.0
  0
TEXT
  5
CA6
  8
DIM
  6
CONTINUOUS
 10
646.45297392599718
 20
730.94626817692915
 30
0.0
 40
3.0
  1
82
  7
ROMANSS
 72
     1
 11
648.88154535456874
 21
732.44626817692927
 31
0.0
 73
     2
  0
TEXT
  5
CA7
  8
DIM
  6
CONTINUOUS
 10
586.4589963710597
 20
722.44095710728959
 30
0.0
 40
3.0
  1
90%%p5%%d
 50
45.000000000000007
  7
ROMANSS
 72
     1
 11
589.94402264976475
 21
728.0473037295543
 31
0.0
 73
     2
  0
LINE
  5
CA8
  8
DIM
  6
CONTINUOUS
 10
797.30441538186619
 20
447.92887469099742
 30
0.0
 11
779.70094762787471
 21
492.80700814992377
 31
0.0
  0
LINE
  5
CA9
  8
0
 10
701.38154535456874
 20
477.89008900959931
 30
0.0
 11
701.38154535456874
 21
382.89008900959931
 31
0.0
  0
LINE
  5
CAA
  8
0
 10
820.38154535456863
 20
477.64008900959942
 30
0.0
 11
820.38154535456863
 21
383.14008900959931
 31
0.0
  0
LINE
  5
CAB
  8
0
 10
782.38154535456874
 20
477.89008900959931
 30
0.0
 11
782.38154535456874
 21
382.89008900959931
 31
0.0
  0
LINE
  5
CAC
  8
0
 10
826.38154535456874
 20
186.4534768490789
 30
0.0
 11
826.38154535456874
 21
229.4534768490787
 31
0.0
  0
LINE
  5
CAD
  8
0
 10
820.38154535456863
 20
160.7034768490789
 30
0.0
 11
820.38154535456863
 21
255.2034768490787
 31
0.0
  0
LINE
  5
CAE
  8
0
 10
782.38154535456874
 20
160.4534768490789
 30
0.0
 11
782.38154535456874
 21
255.4534768490787
 31
0.0
  0
CIRCLE
  5
CAF
  8
0
  6
CONTINUOUS
 10
689.88154535456874
 20
212.95347684907881
 30
0.0
 40
4.25
  0
ARC
  5
CB0
  8
0
  6
CONTINUOUS
 62
     2
 10
689.88154535456874
 20
212.95347684907881
 30
0.0
 40
5.0
 50
244.7996045918776
 51
198.7093473556057
  0
LINE
  5
CB1
  8
CENTER
  6
CENTER
 10
689.88154535456874
 20
202.9534768490789
 30
0.0
 11
689.88154535456874
 21
222.95347684907881
 31
0.0
  0
LINE
  5
CB2
  8
0
 10
701.38154535456874
 20
120.4534768490789
 30
0.0
 11
701.38154535456874
 21
255.45347684907881
 31
0.0
  0
LINE
  5
CB3
  8
0
 62
     7
 10
701.38154535456874
 20
183.317255333698
 30
0.0
 11
782.38154535456874
 21
183.31725533369811
 31
0.0
  0
LINE
  5
CB4
  8
0
 10
701.38154535456874
 20
164.4534768490789
 30
0.0
 11
782.38154535456874
 21
164.4534768490789
 31
0.0
  0
LINE
  5
CB5
  8
CENTER
  6
CENTER
 10
679.88154535456874
 20
130.95347684907881
 30
0.0
 11
699.88154535456874
 21
130.95347684907881
 31
0.0
  0
CIRCLE
  5
CB6
  8
0
  6
CONTINUOUS
 10
689.88154535456874
 20
130.95347684907881
 30
0.0
 40
4.25
  0
ARC
  5
CB7
  8
0
  6
CONTINUOUS
 62
     2
 10
689.88154535456874
 20
130.95347684907881
 30
0.0
 40
5.0
 50
244.79960459187899
 51
198.7093473556057
  0
LINE
  5
CB8
  8
CENTER
  6
CENTER
 10
689.88154535456874
 20
120.9534768490788
 30
0.0
 11
689.88154535456874
 21
140.95347684907881
 31
0.0
  0
LINE
  5
CB9
  8
CENTER
  6
CENTER
 10
679.88154535456874
 20
212.95347684907881
 30
0.0
 11
699.88154535456874
 21
212.95347684907881
 31
0.0
  0
LINE
  5
CBA
  8
CENTER
  6
CENTER
 10
670.80185557135167
 20
193.8737870658619
 30
0.0
 11
682.1155640703364
 21
205.1874955648467
 31
0.0
  0
CIRCLE
  5
CBB
  8
0
  6
CONTINUOUS
 10
676.45870982084409
 20
199.53064131535419
 30
0.0
 40
3.399999999999999
  0
ARC
  5
CBC
  8
0
  6
CONTINUOUS
 62
     2
 10
676.45870982084409
 20
199.53064131535419
 30
0.0
 40
4.0
 50
202.52441221510509
 51
149.49721034531461
  0
LINE
  5
CBD
  8
0
 10
825.38154535456874
 20
185.4534768490789
 30
0.0
 11
820.38154535456863
 21
185.4534768490789
 31
0.0
  0
LINE
  5
CBE
  8
HIDDEN
  6
HIDDEN
 10
814.38154535456874
 20
166.9534768490789
 30
0.0
 11
814.38154535456874
 21
176.9534768490789
 31
0.0
  0
LINE
  5
CBF
  8
HIDDEN
  6
HIDDEN
 10
798.38154535456874
 20
166.9534768490789
 30
0.0
 11
798.38154535456874
 21
176.9534768490789
 31
0.0
  0
LINE
  5
CC0
  8
0
 10
782.38154535456874
 20
160.4534768490789
 30
0.0
 11
820.38154535456863
 21
160.7034768490789
 31
0.0
  0
LINE
  5
CC1
  8
HIDDEN
  6
HIDDEN
 10
820.38154535456863
 20
166.9534768490789
 30
0.0
 11
798.38154535456874
 21
166.9534768490789
 31
0.0
  0
LINE
  5
CC2
  8
HIDDEN
  6
HIDDEN
 10
820.38154535456863
 20
176.9534768490789
 30
0.0
 11
798.38154535456874
 21
176.9534768490789
 31
0.0
  0
LINE
  5
CC3
  8
HIDDEN
  6
HIDDEN
 10
814.38154535456874
 20
167.7034768490789
 30
0.0
 11
795.38154535456874
 21
167.7034768490789
 31
0.0
  0
LINE
  5
CC4
  8
HIDDEN
  6
HIDDEN
 10
814.38154535456874
 20
176.2034768490789
 30
0.0
 11
795.38154535456874
 21
176.2034768490789
 31
0.0
  0
LINE
  5
CC5
  8
HIDDEN
  6
HIDDEN
 10
795.38154535456874
 20
176.2034768490789
 30
0.0
 11
792.92780671051264
 21
171.9534768490789
 31
0.0
  0
LINE
  5
CC6
  8
HIDDEN
  6
HIDDEN
 10
795.38154535456874
 20
167.70347684907881
 30
0.0
 11
792.92780671051275
 21
171.9534768490789
 31
0.0
  0
LINE
  5
CC7
  8
HIDDEN
  6
HIDDEN
 10
795.38154535456874
 20
167.7034768490789
 30
0.0
 11
795.38154535456874
 21
176.2034768490789
 31
0.0
  0
ARC
  5
CC8
  8
0
 10
825.38154535456874
 20
186.4534768490789
 30
0.0
 40
1.0
 50
270.0
 51
0.0
  0
LINE
  5
CC9
  8
0
 10
701.38154535456874
 20
251.45347684907881
 30
0.0
 11
782.38154535456874
 21
251.45347684907881
 31
0.0
  0
LINE
  5
CCA
  8
0
 62
     7
 10
701.38154535456874
 20
232.58969836445939
 30
0.0
 11
782.38154535456874
 21
232.58969836445939
 31
0.0
  0
LINE
  5
CCB
  8
CENTER
  6
CENTER
 10
701.38154535456874
 20
243.95347684907881
 30
0.0
 11
823.38154535456886
 21
243.95347684907881
 31
0.0
  0
LINE
  5
CCC
  8
CENTER
  6
CENTER
 10
823.38154535456874
 20
394.39008900959931
 30
0.0
 11
701.38154535456874
 21
394.39008900959931
 31
0.0
  0
LINE
  5
CCD
  8
CENTER
  6
CENTER
 10
823.38154535456874
 20
466.39008900959942
 30
0.0
 11
701.38154535456874
 21
466.39008900959942
 31
0.0
  0
LINE
  5
CCE
  8
0
 62
     7
 10
701.38154535456874
 20
455.02631052498032
 30
0.0
 11
782.38154535456874
 21
455.02631052498009
 31
0.0
  0
LINE
  5
CCF
  8
0
 62
     7
 10
701.38154535456874
 20
405.75386749421858
 30
0.0
 11
782.38154535456874
 21
405.75386749421858
 31
0.0
  0
LINE
  5
CD0
  8
0
 10
701.38154535456874
 20
386.89008900959919
 30
0.0
 11
782.38154535456874
 21
386.89008900959919
 31
0.0
  0
LINE
  5
CD1
  8
DIM
  6
CONTINUOUS
 10
701.38154535456886
 20
380.6122284747928
 30
0.0
 11
701.38154535456886
 21
286.89008900959948
 31
0.0
  0
LINE
  5
CD2
  8
0
 10
696.88154535456874
 20
382.89008900959931
 30
0.0
 11
696.88154535456874
 21
371.89008900959931
 31
0.0
  0
LINE
  5
CD3
  8
0
  6
CONTINUOUS
 10
701.38154535456874
 20
152.9534768490789
 30
0.0
 11
708.3495453545695
 21
152.9534768490789
 31
0.0
  0
LINE
  5
CD4
  8
0
  6
CONTINUOUS
 10
701.38154535456874
 20
140.9534768490789
 30
0.0
 11
708.3495453545695
 21
140.9534768490789
 31
0.0
  0
LINE
  5
CD5
  8
0
  6
CONTINUOUS
 10
701.38154535456874
 20
136.0034768490782
 30
0.0
 11
708.2556793037603
 21
136.0034768490782
 31
0.0
  0
LINE
  5
CD6
  8
CENTER
  6
CENTER
 10
686.81383707785358
 20
146.9534768490789
 30
0.0
 11
715.38154535456874
 21
146.9534768490789
 31
0.0
  0
SOLID
  5
CD7
  8
DIM
  6
CONTINUOUS
 10
698.38154535456874
 20
288.39008900959948
 30
0.0
 11
698.38154535456874
 21
287.39008900959948
 31
0.0
 12
701.38154535456886
 22
287.89008900959948
 32
0.0
 13
701.38154535456886
 23
287.89008900959948
 33
0.0
  0
POLYLINE
  5
CD8
  8
0
  6
CONTINUOUS
 66
     1
 10
0.0
 20
0.0
 30
0.0
  0
VERTEX
  5
1464
  8
0
  6
CONTINUOUS
 10
709.38154535456874
 20
146.95347684907881
 30
0.0
 42
-0.0851703918331015
  0
VERTEX
  5
1465
  8
0
  6
CONTINUOUS
 10
708.3495453545695
 20
140.9534768490789
 30
0.0
 42
-0.3910851735909245
  0
VERTEX
  5
1466
  8
0
  6
CONTINUOUS
 10
708.81861232916549
 20
136.9784768490785
 30
0.0
  0
SEQEND
  5
1467
  8
0
  6
CONTINUOUS
  0
LINE
  5
CDD
  8
0
  6
CONTINUOUS
 10
708.2556793037603
 20
136.0034768490782
 30
0.0
 11
709.38154535456874
 21
137.9534768490789
 31
0.0
  0
LINE
  5
CDE
  8
0
  6
CONTINUOUS
 10
712.38154535456874
 20
142.9534768490789
 30
0.0
 11
712.38154535456874
 21
150.9534768490789
 31
0.0
  0
LINE
  5
CDF
  8
0
  6
CONTINUOUS
 10
710.38154535456874
 20
140.9534768490789
 30
0.0
 11
710.38154535456874
 21
152.9534768490789
 31
0.0
  0
LINE
  5
CE0
  8
0
  6
CONTINUOUS
 10
710.38154535456874
 20
152.9534768490789
 30
0.0
 11
712.38154535456874
 21
150.9534768490789
 31
0.0
  0
LINE
  5
CE1
  8
0
  6
CONTINUOUS
 62
     2
 10
709.38154535456874
 20
151.7534768490782
 30
0.0
 11
711.58154535456936
 21
151.7534768490782
 31
0.0
  0
LINE
  5
CE2
  8
0
  6
CONTINUOUS
 10
709.38154535456874
 20
152.9534768490789
 30
0.0
 11
710.38154535456874
 21
152.9534768490789
 31
0.0
  0
LINE
  5
CE3
  8
0
  6
CONTINUOUS
 10
710.38154535456874
 20
140.9534768490789
 30
0.0
 11
712.38154535456874
 21
142.9534768490789
 31
0.0
  0
LINE
  5
CE4
  8
0
  6
CONTINUOUS
 10
709.38154535456874
 20
140.9534768490789
 30
0.0
 11
710.38154535456874
 21
140.9534768490789
 31
0.0
  0
LINE
  5
CE5
  8
0
  6
CONTINUOUS
 62
     2
 10
709.38154535456874
 20
142.1534768490796
 30
0.0
 11
711.58154535456936
 21
142.1534768490796
 31
0.0
  0
LINE
  5
CE6
  8
DIM
  6
CONTINUOUS
 10
696.88154535456874
 20
369.6122284747928
 30
0.0
 11
696.88154535456874
 21
294.89008900959948
 31
0.0
  0
SOLID
  5
CE7
  8
DIM
  6
CONTINUOUS
 10
693.88154535456874
 20
296.39008900959948
 30
0.0
 11
693.88154535456874
 21
295.39008900959948
 31
0.0
 12
696.88154535456874
 22
295.89008900959948
 32
0.0
 13
696.88154535456874
 23
295.89008900959948
 33
0.0
  0
LINE
  5
CE8
  8
0
 10
696.88154535456874
 20
371.89008900959931
 30
0.0
 11
695.88154535456874
 21
370.89008900959931
 31
0.0
  0
ARC
  5
CE9
  8
0
  6
CONTINUOUS
 62
     2
 10
1005.524230296623
 20
407.39008900959931
 30
0.0
 40
5.0999999999999988
 50
162.22254855360339
 51
111.813746502519
  0
CIRCLE
  5
CEA
  8
0
  6
CONTINUOUS
 10
1005.524230296623
 20
407.39008900959931
 30
0.0
 40
6.0
  0
LINE
  5
CEB
  8
CENTER
  6
CENTER
 10
1005.524230296623
 20
422.89008900959931
 30
0.0
 11
1005.524230296623
 21
391.89008900959931
 31
0.0
  0
POLYLINE
  5
CEC
  8
0
  6
CONTINUOUS
 66
     1
 10
0.0
 20
0.0
 30
0.0
 70
     1
  0
VERTEX
  5
1468
  8
0
  6
CONTINUOUS
 10
1003.792179489055
 20
410.39008900959931
 30
0.0
  0
VERTEX
  5
1469
  8
0
  6
CONTINUOUS
 10
1002.060128681485
 20
407.39008900959931
 30
0.0
  0
VERTEX
  5
146A
  8
0
  6
CONTINUOUS
 10
1003.792179489055
 20
404.39008900959942
 30
0.0
  0
VERTEX
  5
146B
  8
0
  6
CONTINUOUS
 10
1007.256281104192
 20
404.39008900959942
 30
0.0
  0
VERTEX
  5
146C
  8
0
  6
CONTINUOUS
 10
1008.988331911761
 20
407.39008900959931
 30
0.0
  0
VERTEX
  5
146D
  8
0
  6
CONTINUOUS
 10
1007.256281104192
 20
410.39008900959931
 30
0.0
  0
SEQEND
  5
146E
  8
0
  6
CONTINUOUS
  0
LINE
  5
CF4
  8
DIM
  6
CONTINUOUS
 10
826.38154535456874
 20
406.61369424478329
 30
0.0
 11
826.38154535456852
 21
278.16231391862419
 31
0.0
  0
LINE
  5
CF5
  8
DIM
  6
CONTINUOUS
 10
820.38154535456863
 20
382.14008900959931
 30
0.0
 11
820.38154535456863
 21
278.34055731125108
 31
0.0
  0
LINE
  5
CF6
  8
0
 10
825.38154535456874
 20
230.4534768490787
 30
0.0
 11
820.38154535456863
 21
230.4534768490787
 31
0.0
  0
LINE
  5
CF7
  8
CENTER
  6
CENTER
 10
789.38154535456874
 20
240.7110435351573
 30
0.0
 11
789.38154535456874
 21
260.56823283830499
 31
0.0
  0
LINE
  5
CF8
  8
CENTER
  6
CENTER
 10
801.38154535456874
 20
239.86099110049861
 30
0.0
 11
801.38154535456874
 21
259.9647428085409
 31
0.0
  0
LINE
  5
CF9
  8
0
 10
782.38154535456874
 20
255.4534768490787
 30
0.0
 11
820.38154535456863
 21
255.2034768490787
 31
0.0
  0
LINE
  5
CFA
  8
HIDDEN
  6
HIDDEN
 10
820.38154535456863
 20
238.95347684907881
 30
0.0
 11
798.38154535456874
 21
238.9534768490787
 31
0.0
  0
LINE
  5
CFB
  8
HIDDEN
  6
HIDDEN
 10
820.38154535456863
 20
248.9534768490787
 30
0.0
 11
798.38154535456874
 21
248.95347684907881
 31
0.0
  0
LINE
  5
CFC
  8
HIDDEN
  6
HIDDEN
 10
814.38154535456874
 20
239.7034768490787
 30
0.0
 11
795.38154535456874
 21
239.7034768490787
 31
0.0
  0
LINE
  5
CFD
  8
HIDDEN
  6
HIDDEN
 10
814.38154535456874
 20
248.2034768490787
 30
0.0
 11
795.38154535456874
 21
248.20347684907881
 31
0.0
  0
LINE
  5
CFE
  8
HIDDEN
  6
HIDDEN
 10
795.38154535456874
 20
248.20347684907881
 30
0.0
 11
795.38154535456874
 21
239.7034768490787
 31
0.0
  0
LINE
  5
CFF
  8
HIDDEN
  6
HIDDEN
 10
795.38154535456874
 20
248.2034768490789
 30
0.0
 11
792.92780671051275
 21
243.95347684907881
 31
0.0
  0
LINE
  5
D00
  8
HIDDEN
  6
HIDDEN
 10
798.38154535456874
 20
248.95347684907881
 30
0.0
 11
798.38154535456874
 21
238.95347684907881
 31
0.0
  0
LINE
  5
D01
  8
HIDDEN
  6
HIDDEN
 10
795.38154535456874
 20
239.7034768490787
 30
0.0
 11
792.92780671051264
 21
243.95347684907881
 31
0.0
  0
LINE
  5
D02
  8
HIDDEN
  6
HIDDEN
 10
814.38154535456874
 20
248.9534768490787
 30
0.0
 11
814.38154535456874
 21
238.95347684907881
 31
0.0
  0
SOLID
  5
D03
  8
DIM
  6
CONTINUOUS
 10
817.38154535456886
 20
280.39008900959948
 30
0.0
 11
817.38154535456886
 21
279.39008900959948
 31
0.0
 12
820.38154535456874
 22
279.89008900959948
 32
0.0
 13
820.38154535456874
 23
279.89008900959948
 33
0.0
  0
ARC
  5
D04
  8
0
 10
825.38154535456874
 20
229.4534768490787
 30
0.0
 40
1.0
 50
0.0
 51
90.0
  0
SOLID
  5
D05
  8
DIM
  6
CONTINUOUS
 10
829.38154535456874
 20
280.39008900959948
 30
0.0
 11
829.38154535456874
 21
279.39008900959948
 31
0.0
 12
826.38154535456886
 22
279.89008900959948
 32
0.0
 13
826.38154535456886
 23
279.89008900959948
 33
0.0
  0
TEXT
  5
D06
  8
DIM
  6
CONTINUOUS
 10
831.64144379157278
 20
281.39008900959948
 30
0.0
 40
3.0
  1
6
  7
ROMANSS
 72
     1
 11
832.57001522014411
 21
282.89008900959948
 31
0.0
 73
     2
  0
LINE
  5
D07
  8
0
 10
825.38154535456874
 20
452.89008900959931
 30
0.0
 11
820.38154535456863
 21
452.89008900959931
 31
0.0
  0
LINE
  5
D08
  8
0
 10
825.38154535456874
 20
407.89008900959931
 30
0.0
 11
820.38154535456863
 21
407.89008900959931
 31
0.0
  0
CIRCLE
  5
D09
  8
0
 10
789.38154535456874
 20
420.39008900959931
 30
0.0
 40
5.2999999999999989
  0
LINE
  5
D0A
  8
CENTER
  6
CENTER
 10
801.38154535456874
 20
451.89008900959931
 30
0.0
 11
801.38154535456874
 21
422.89008900959931
 31
0.0
  0
LINE
  5
D0B
  8
CENTER
  6
CENTER
 10
789.38154535456874
 20
427.39008900959931
 30
0.0
 11
789.38154535456874
 21
413.39008900959931
 31
0.0
  0
POLYLINE
  5
D0C
  8
0
  6
CONTINUOUS
 66
     1
 10
0.0
 20
0.0
 30
0.0
 70
     1
  0
VERTEX
  5
146F
  8
0
  6
CONTINUOUS
 10
788.51551995078444
 20
421.89008900959931
 30
0.0
  0
VERTEX
  5
1470
  8
0
  6
CONTINUOUS
 10
787.6494945469999
 20
420.39008900959931
 30
0.0
  0
VERTEX
  5
1471
  8
0
  6
CONTINUOUS
 10
788.51551995078444
 20
418.89008900959931
 30
0.0
  0
VERTEX
  5
1472
  8
0
  6
CONTINUOUS
 10
790.24757075835328
 20
418.89008900959931
 30
0.0
  0
VERTEX
  5
1473
  8
0
  6
CONTINUOUS
 10
791.11359616213758
 20
420.39008900959931
 30
0.0
  0
VERTEX
  5
1474
  8
0
  6
CONTINUOUS
 10
790.24757075835328
 20
421.89008900959931
 30
0.0
  0
SEQEND
  5
1475
  8
0
  6
CONTINUOUS
  0
CIRCLE
  5
D14
  8
0
 10
789.38154535456874
 20
420.39008900959931
 30
0.0
 40
5.0
  0
ARC
  5
D15
  8
0
  6
CONTINUOUS
 10
789.38154535456874
 20
420.39008900959931
 30
0.0
 40
3.5
 50
98.213210701738234
 51
141.7867892982616
  0
ARC
  5
D16
  8
0
  6
CONTINUOUS
 10
789.38154535456874
 20
420.39008900959931
 30
0.0
 40
3.5
 50
218.21321070173761
 51
261.78678929826179
  0
CIRCLE
  5
D17
  8
0
  6
CONTINUOUS
 10
789.38154535456874
 20
420.39008900959931
 30
0.0
 40
2.5
  0
LINE
  5
D18
  8
CENTER
  6
CENTER
 10
782.38154535456874
 20
420.39008900959931
 30
0.0
 11
796.38154535456874
 21
420.39008900959931
 31
0.0
  0
LINE
  5
D19
  8
0
 10
782.38154535456874
 20
382.89008900959931
 30
0.0
 11
820.38154535456863
 21
383.14008900959931
 31
0.0
  0
LINE
  5
D1A
  8
0
  6
CONTINUOUS
 10
786.63154535456874
 20
422.55515251906053
 30
0.0
 11
785.32312336966515
 21
423.31057030425808
 31
0.0
  0
ARC
  5
D1B
  8
0
  6
CONTINUOUS
 10
789.38154535456874
 20
420.39008900959931
 30
0.0
 40
3.5
 50
158.21321070173769
 51
201.78678929826131
  0
LINE
  5
D1C
  8
0
  6
CONTINUOUS
 10
786.13154535456874
 20
421.68912711527599
 30
0.0
 11
784.82312336966538
 21
422.44454490047372
 31
0.0
  0
LINE
  5
D1D
  8
0
  6
CONTINUOUS
 10
785.32312336966515
 20
417.46960771494048
 30
0.0
 11
786.63154535456874
 21
418.22502550013832
 31
0.0
  0
LINE
  5
D1E
  8
0
  6
CONTINUOUS
 10
784.82312336966538
 20
418.3356331187249
 30
0.0
 11
786.13154535456874
 21
419.09105090392262
 31
0.0
  0
LINE
  5
D1F
  8
HIDDEN
  6
HIDDEN
 10
814.38154535456874
 20
398.64008900959931
 30
0.0
 11
795.38154535456874
 21
398.64008900959931
 31
0.0
  0
LINE
  5
D20
  8
HIDDEN
  6
HIDDEN
 10
820.38154535456863
 20
399.39008900959931
 30
0.0
 11
798.38154535456874
 21
399.39008900959931
 31
0.0
  0
LINE
  5
D21
  8
HIDDEN
  6
HIDDEN
 10
814.38154535456874
 20
390.14008900959931
 30
0.0
 11
795.38154535456874
 21
390.14008900959931
 31
0.0
  0
LINE
  5
D22
  8
HIDDEN
  6
HIDDEN
 10
820.38154535456863
 20
389.39008900959931
 30
0.0
 11
798.38154535456874
 21
389.39008900959931
 31
0.0
  0
LINE
  5
D23
  8
HIDDEN
  6
HIDDEN
 10
798.38154535456874
 20
389.39008900959931
 30
0.0
 11
798.38154535456874
 21
399.39008900959931
 31
0.0
  0
LINE
  5
D24
  8
HIDDEN
  6
HIDDEN
 10
795.38154535456874
 20
390.14008900959931
 30
0.0
 11
795.38154535456874
 21
398.64008900959931
 31
0.0
  0
LINE
  5
D25
  8
HIDDEN
  6
HIDDEN
 10
795.38154535456874
 20
390.14008900959919
 30
0.0
 11
792.92780671051275
 21
394.39008900959931
 31
0.0
  0
LINE
  5
D26
  8
HIDDEN
  6
HIDDEN
 10
795.38154535456874
 20
398.64008900959931
 30
0.0
 11
792.92780671051264
 21
394.39008900959919
 31
0.0
  0
LINE
  5
D27
  8
HIDDEN
  6
HIDDEN
 10
814.38154535456874
 20
389.39008900959931
 30
0.0
 11
814.38154535456874
 21
399.39008900959931
 31
0.0
  0
ARC
  5
D28
  8
0
  6
CONTINUOUS
 10
789.38154535456874
 20
420.39008900959931
 30
0.0
 40
3.5
 50
38.213210701738312
 51
81.786789298261766
  0
ARC
  5
D29
  8
0
  6
CONTINUOUS
 10
789.38154535456874
 20
420.39008900959931
 30
0.0
 40
3.5
 50
338.21321070173849
 51
21.786789298262239
  0
LINE
  5
D2A
  8
0
  6
CONTINUOUS
 10
788.88154535456874
 20
425.36502619513249
 30
0.0
 11
788.88154535456874
 21
423.8541906247371
 31
0.0
  0
LINE
  5
D2B
  8
0
  6
CONTINUOUS
 10
789.88154535456874
 20
425.36502619513249
 30
0.0
 11
789.88154535456874
 21
423.8541906247371
 31
0.0
  0
LINE
  5
D2C
  8
0
  6
CONTINUOUS
 10
792.13154535456874
 20
422.55515251906053
 30
0.0
 11
793.43996733947233
 21
423.31057030425808
 31
0.0
  0
LINE
  5
D2D
  8
0
  6
CONTINUOUS
 10
792.63154535456874
 20
421.68912711527599
 30
0.0
 11
793.93996733947233
 21
422.44454490047372
 31
0.0
  0
ARC
  5
D2E
  8
0
  6
CONTINUOUS
 10
789.38154535456874
 20
420.39008900959931
 30
0.0
 40
3.5
 50
278.21321070173809
 51
321.78678929826242
  0
LINE
  5
D2F
  8
0
  6
CONTINUOUS
 10
788.88154535456874
 20
416.92598739446157
 30
0.0
 11
788.88154535456874
 21
415.4151518240663
 31
0.0
  0
LINE
  5
D30
  8
0
  6
CONTINUOUS
 10
789.88154535456874
 20
416.92598739446157
 30
0.0
 11
789.88154535456874
 21
415.4151518240663
 31
0.0
  0
LINE
  5
D31
  8
0
  6
CONTINUOUS
 10
793.43996733947233
 20
417.46960771494048
 30
0.0
 11
792.13154535456874
 21
418.22502550013832
 31
0.0
  0
LINE
  5
D32
  8
0
  6
CONTINUOUS
 10
793.93996733947233
 20
418.3356331187249
 30
0.0
 11
792.63154535456874
 21
419.09105090392262
 31
0.0
  0
CIRCLE
  5
D33
  8
0
 10
801.38154535456874
 20
437.39008900959942
 30
0.0
 40
11.5
  0
ARC
  5
D34
  8
0
 62
     2
 10
801.38154535456874
 20
437.39008900959942
 30
0.0
 40
8.3000000000000007
 50
257.18960874131659
 51
209.60968586855631
  0
CIRCLE
  5
D35
  8
0
 10
801.38154535456874
 20
437.39008900959942
 30
0.0
 40
7.5
  0
CIRCLE
  5
D36
  8
0
 10
801.38154535456874
 20
437.39008900959942
 30
0.0
 40
5.5
  0
LINE
  5
D37
  8
CENTER
  6
CENTER
 10
786.88154535456874
 20
437.39008900959942
 30
0.0
 11
815.88154535456863
 21
437.39008900959942
 31
0.0
  0
SOLID
  5
D38
  8
DIM
  6
CONTINUOUS
 10
796.83894358935186
 20
447.74629317393362
 30
0.0
 11
797.76988717438087
 21
448.11145620806121
 31
0.0
 12
798.39990448424919
 22
445.13604393591032
 32
0.0
 13
798.39990448424919
 23
445.13604393591032
 33
0.0
  0
LINE
  5
D39
  8
HIDDEN
  6
HIDDEN
 10
814.38154535456874
 20
470.64008900959931
 30
0.0
 11
795.38154535456874
 21
470.64008900959931
 31
0.0
  0
LINE
  5
D3A
  8
HIDDEN
  6
HIDDEN
 10
814.38154535456874
 20
462.14008900959931
 30
0.0
 11
795.38154535456874
 21
462.14008900959931
 31
0.0
  0
LINE
  5
D3B
  8
HIDDEN
  6
HIDDEN
 10
820.38154535456863
 20
461.39008900959931
 30
0.0
 11
798.38154535456874
 21
461.39008900959931
 31
0.0
  0
LINE
  5
D3C
  8
HIDDEN
  6
HIDDEN
 10
820.38154535456863
 20
471.39008900959942
 30
0.0
 11
798.38154535456874
 21
471.39008900959942
 31
0.0
  0
LINE
  5
D3D
  8
HIDDEN
  6
HIDDEN
 10
795.38154535456874
 20
470.64008900959942
 30
0.0
 11
792.92780671051275
 21
466.39008900959942
 31
0.0
  0
LINE
  5
D3E
  8
HIDDEN
  6
HIDDEN
 10
795.38154535456874
 20
462.14008900959931
 30
0.0
 11
792.92780671051264
 21
466.39008900959948
 31
0.0
  0
LINE
  5
D3F
  8
HIDDEN
  6
HIDDEN
 10
795.38154535456874
 20
470.64008900959931
 30
0.0
 11
795.38154535456874
 21
462.14008900959931
 31
0.0
  0
LINE
  5
D40
  8
HIDDEN
  6
HIDDEN
 10
798.38154535456874
 20
471.39008900959942
 30
0.0
 11
798.38154535456874
 21
461.39008900959931
 31
0.0
  0
LINE
  5
D41
  8
HIDDEN
  6
HIDDEN
 10
814.38154535456874
 20
471.39008900959942
 30
0.0
 11
814.38154535456874
 21
461.39008900959931
 31
0.0
  0
LINE
  5
D42
  8
DIM
  6
CONTINUOUS
 10
834.38154535456874
 20
410.89008900959931
 30
0.0
 11
834.38154535456874
 21
449.89008900959942
 31
0.0
  0
LINE
  5
D43
  8
0
 10
826.38154535456874
 20
451.89008900959931
 30
0.0
 11
826.38154535456874
 21
408.89008900959942
 31
0.0
  0
LINE
  5
D44
  8
DIM
  6
CONTINUOUS
 10
826.38154535456874
 20
407.89008900959931
 30
0.0
 11
835.38154535456874
 21
407.89008900959931
 31
0.0
  0
ARC
  5
D45
  8
0
 10
825.38154535456874
 20
408.89008900959942
 30
0.0
 40
1.0
 50
270.0
 51
0.0
  0
SOLID
  5
D46
  8
DIM
  6
CONTINUOUS
 10
833.88154535456874
 20
410.89008900959931
 30
0.0
 11
834.88154535456874
 21
410.89008900959931
 31
0.0
 12
834.38154535456874
 22
407.89008900959931
 32
0.0
 13
834.38154535456874
 23
407.89008900959931
 33
0.0
  0
TEXT
  5
D47
  8
DIM
  6
CONTINUOUS
 10
832.88154535456863
 20
426.60437472388509
 30
0.0
 40
3.0
  1
%%c45
 50
90.0
  7
ROMANSS
 72
     1
 11
831.38154535456874
 21
430.39008900959931
 31
0.0
 73
     2
  0
LINE
  5
D48
  8
DIM
  6
CONTINUOUS
 10
826.38154535456874
 20
452.89008900959931
 30
0.0
 11
835.38154535456874
 21
452.89008900959931
 31
0.0
  0
ARC
  5
D49
  8
0
 10
825.38154535456874
 20
451.89008900959931
 30
0.0
 40
1.0
 50
0.0
 51
90.0
  0
SOLID
  5
D4A
  8
DIM
  6
CONTINUOUS
 10
833.88154535456874
 20
449.89008900959942
 30
0.0
 11
834.88154535456874
 21
449.89008900959942
 31
0.0
 12
834.38154535456874
 22
452.89008900959931
 32
0.0
 13
834.38154535456874
 23
452.89008900959931
 33
0.0
  0
LINE
  5
D4B
  8
DIM
  6
CONTINUOUS
 10
761.2867139086776
 20
631.94626817692927
 30
0.0
 11
761.2867139086776
 21
707.94626817692915
 31
0.0
  0
LINE
  5
D4C
  8
0
 10
701.38154535456874
 20
721.44626817692915
 30
0.0
 11
701.38154535456874
 21
586.44626817692927
 31
0.0
  0
LINE
  5
D4D
  8
0
 10
782.38154535456874
 20
681.44626817692915
 30
0.0
 11
782.38154535456874
 21
586.44626817692927
 31
0.0
  0
LINE
  5
D4E
  8
0
 10
820.38154535456863
 20
681.19626817692915
 30
0.0
 11
820.38154535456863
 21
586.69626817692927
 31
0.0
  0
LINE
  5
D4F
  8
DIM
  6
CONTINUOUS
 10
700.88154535456874
 20
628.94626817692915
 30
0.0
 11
762.54841280115716
 21
628.94626817692915
 31
0.0
  0
LINE
  5
D50
  8
CENTER
  6
CENTER
 10
701.38154535456874
 20
597.94626817692915
 30
0.0
 11
823.38154535456886
 21
597.94626817692915
 31
0.0
  0
LINE
  5
D51
  8
0
 62
     7
 10
701.38154535456874
 20
658.58248969230988
 30
0.0
 11
782.38154535456874
 21
658.58248969230988
 31
0.0
  0
LINE
  5
D52
  8
0
 10
701.38154535456874
 20
590.44626817692927
 30
0.0
 11
782.38154535456874
 21
590.44626817692927
 31
0.0
  0
LINE
  5
D53
  8
0
 62
     7
 10
701.38154535456874
 20
609.31004666154865
 30
0.0
 11
782.38154535456874
 21
609.31004666154865
 31
0.0
  0
LINE
  5
D54
  8
0
 10
701.38154535456874
 20
473.89008900959931
 30
0.0
 11
782.38154535456874
 21
473.89008900959931
 31
0.0
  0
LINE
  5
D55
  8
0
 10
696.88154535456874
 20
488.89008900959942
 30
0.0
 11
696.88154535456874
 21
477.89008900959931
 31
0.0
  0
LINE
  5
D56
  8
0
 10
695.88154535456874
 20
489.89008900959942
 30
0.0
 11
696.88154535456874
 21
488.89008900959942
 31
0.0
  0
LINE
  5
D57
  8
CENTER
  6
CENTER
 10
686.81383707785346
 20
694.94626817692915
 30
0.0
 11
715.38154535456863
 21
694.94626817692915
 31
0.0
  0
LINE
  5
D58
  8
0
  6
CONTINUOUS
 10
708.25567930376019
 20
705.89626817692977
 30
0.0
 11
709.38154535456863
 21
703.94626817692915
 31
0.0
  0
POLYLINE
  5
D59
  8
0
  6
CONTINUOUS
 66
     1
 10
0.0
 20
0.0
 30
0.0
  0
VERTEX
  5
1476
  8
0
  6
CONTINUOUS
 10
709.38154535456863
 20
694.94626817692915
 30
0.0
 42
0.0851703918331015
  0
VERTEX
  5
1477
  8
0
  6
CONTINUOUS
 10
708.34954535456939
 20
700.94626817692915
 30
0.0
 42
0.3910851735909245
  0
VERTEX
  5
1478
  8
0
  6
CONTINUOUS
 10
708.81861232916526
 20
704.92126817692952
 30
0.0
  0
SEQEND
  5
1479
  8
0
  6
CONTINUOUS
  0
LINE
  5
D5E
  8
0
  6
CONTINUOUS
 10
701.38154535456863
 20
700.94626817692915
 30
0.0
 11
708.34954535456939
 21
700.94626817692915
 31
0.0
  0
LINE
  5
D5F
  8
0
  6
CONTINUOUS
 10
701.38154535456863
 20
688.94626817692915
 30
0.0
 11
708.34954535456939
 21
688.94626817692915
 31
0.0
  0
LINE
  5
D60
  8
0
  6
CONTINUOUS
 10
710.38154535456863
 20
700.94626817692915
 30
0.0
 11
710.38154535456874
 21
688.94626817692915
 31
0.0
  0
LINE
  5
D61
  8
0
  6
CONTINUOUS
 10
712.38154535456863
 20
698.94626817692915
 30
0.0
 11
712.38154535456863
 21
690.94626817692915
 31
0.0
  0
LINE
  5
D62
  8
0
  6
CONTINUOUS
 10
709.38154535456863
 20
688.94626817692915
 30
0.0
 11
710.38154535456863
 21
688.94626817692915
 31
0.0
  0
LINE
  5
D63
  8
0
  6
CONTINUOUS
 62
     2
 10
709.38154535456874
 20
690.14626817692988
 30
0.0
 11
711.58154535456924
 21
690.14626817692988
 31
0.0
  0
LINE
  5
D64
  8
0
  6
CONTINUOUS
 10
710.38154535456863
 20
688.94626817692915
 30
0.0
 11
712.38154535456863
 21
690.94626817692915
 31
0.0
  0
LINE
  5
D65
  8
0
  6
CONTINUOUS
 62
     2
 10
709.38154535456874
 20
699.74626817692842
 30
0.0
 11
711.58154535456924
 21
699.74626817692842
 31
0.0
  0
LINE
  5
D66
  8
0
  6
CONTINUOUS
 10
709.38154535456863
 20
700.94626817692915
 30
0.0
 11
710.38154535456863
 21
700.94626817692915
 31
0.0
  0
LINE
  5
D67
  8
0
  6
CONTINUOUS
 10
710.38154535456863
 20
700.94626817692915
 30
0.0
 11
712.38154535456863
 21
698.94626817692915
 31
0.0
  0
LINE
  5
D68
  8
0
  6
CONTINUOUS
 10
701.38154535456863
 20
705.89626817692977
 30
0.0
 11
708.25567930376019
 21
705.89626817692977
 31
0.0
  0
LINE
  5
D69
  8
CENTER
  6
CENTER
 10
679.88154535456874
 20
628.94626817692915
 30
0.0
 11
699.88154535456874
 21
628.94626817692915
 31
0.0
  0
LINE
  5
D6A
  8
CENTER
  6
CENTER
 10
670.80185557135167
 20
648.02595796014623
 30
0.0
 11
682.1155640703364
 21
636.71224946116138
 31
0.0
  0
CIRCLE
  5
D6B
  8
0
  6
CONTINUOUS
 10
676.45870982084409
 20
642.3691037106538
 30
0.0
 40
3.399999999999999
  0
ARC
  5
D6C
  8
0
  6
CONTINUOUS
 62
     2
 10
676.45870982084409
 20
642.3691037106538
 30
0.0
 40
4.0
 50
210.50278965468459
 51
157.4755877848952
  0
CIRCLE
  5
D6D
  8
0
  6
CONTINUOUS
 10
689.88154535456874
 20
628.94626817692915
 30
0.0
 40
4.25
  0
ARC
  5
D6E
  8
0
  6
CONTINUOUS
 62
     2
 10
689.88154535456874
 20
628.94626817692915
 30
0.0
 40
5.0
 50
161.29065264439251
 51
115.2003954081225
  0
LINE
  5
D6F
  8
CENTER
  6
CENTER
 10
689.88154535456874
 20
638.94626817692915
 30
0.0
 11
689.88154535456874
 21
618.94626817692915
 31
0.0
  0
TEXT
  5
D70
  8
DIM
  6
CONTINUOUS
 10
783.12708139382255
 20
494.30700814992377
 30
0.0
 40
3.0
  1
2-G3/8
  7
ROMANSS
 11
783.12708139382255
 21
495.80700814992377
 31
0.0
 73
     2
  0
LINE
  5
D71
  8
DIM
  6
CONTINUOUS
 10
779.70094762787471
 20
492.80700814992377
 30
0.0
 11
798.50208139382255
 21
492.80700814992377
 31
0.0
  0
LINE
  5
D72
  8
0
 10
782.38154535456874
 20
477.89008900959931
 30
0.0
 11
820.38154535456863
 21
477.64008900959942
 31
0.0
  0
LINE
  5
D73
  8
0
 10
825.38154535456874
 20
656.44626817692915
 30
0.0
 11
820.38154535456863
 21
656.44626817692915
 31
0.0
  0
LINE
  5
D74
  8
0
 10
825.38154535456874
 20
611.44626817692927
 30
0.0
 11
820.38154535456863
 21
611.44626817692927
 31
0.0
  0
LINE
  5
D75
  8
0
 10
782.38154535456874
 20
586.44626817692927
 30
0.0
 11
820.38154535456863
 21
586.69626817692927
 31
0.0
  0
LINE
  5
D76
  8
HIDDEN
  6
HIDDEN
 10
814.38154535456874
 20
592.94626817692927
 30
0.0
 11
814.38154535456874
 21
602.94626817692927
 31
0.0
  0
LINE
  5
D77
  8
CENTER
  6
CENTER
 10
801.38154535456874
 20
600.9562389807179
 30
0.0
 11
801.38154535456886
 21
581.28353286931406
 31
0.0
  0
LINE
  5
D78
  8
HIDDEN
  6
HIDDEN
 10
795.38154535456874
 20
593.69626817692915
 30
0.0
 11
795.38154535456874
 21
602.19626817692927
 31
0.0
  0
LINE
  5
D79
  8
HIDDEN
  6
HIDDEN
 10
798.38154535456874
 20
592.94626817692915
 30
0.0
 11
798.38154535456874
 21
602.94626817692927
 31
0.0
  0
LINE
  5
D7A
  8
HIDDEN
  6
HIDDEN
 10
795.38154535456874
 20
593.69626817692915
 30
0.0
 11
792.92780671051275
 21
597.94626817692915
 31
0.0
  0
LINE
  5
D7B
  8
CENTER
  6
CENTER
 10
789.38154535456874
 20
600.77232274755966
 30
0.0
 11
789.38154535456874
 21
581.33151218770308
 31
0.0
  0
LINE
  5
D7C
  8
HIDDEN
  6
HIDDEN
 10
820.38154535456863
 20
592.94626817692927
 30
0.0
 11
798.38154535456874
 21
592.94626817692915
 31
0.0
  0
LINE
  5
D7D
  8
HIDDEN
  6
HIDDEN
 10
814.38154535456874
 20
593.69626817692927
 30
0.0
 11
795.38154535456874
 21
593.69626817692915
 31
0.0
  0
LINE
  5
D7E
  8
HIDDEN
  6
HIDDEN
 10
820.38154535456863
 20
602.94626817692927
 30
0.0
 11
798.38154535456874
 21
602.94626817692938
 31
0.0
  0
LINE
  5
D7F
  8
HIDDEN
  6
HIDDEN
 10
814.38154535456874
 20
602.19626817692927
 30
0.0
 11
795.38154535456874
 21
602.19626817692927
 31
0.0
  0
LINE
  5
D80
  8
HIDDEN
  6
HIDDEN
 10
795.38154535456874
 20
602.19626817692927
 30
0.0
 11
792.92780671051264
 21
597.94626817692915
 31
0.0
  0
LINE
  5
D81
  8
0
 10
826.38154535456874
 20
655.44626817692915
 30
0.0
 11
826.38154535456874
 21
612.44626817692927
 31
0.0
  0
ARC
  5
D82
  8
0
 10
825.38154535456874
 20
612.44626817692927
 30
0.0
 40
1.0
 50
270.0
 51
0.0
  0
SOLID
  5
D83
  8
DIM
  6
CONTINUOUS
 10
760.7867139086776
 20
631.94626817692927
 30
0.0
 11
761.7867139086776
 21
631.94626817692927
 31
0.0
 12
761.2867139086776
 22
628.94626817692915
 32
0.0
 13
761.2867139086776
 23
628.94626817692915
 33
0.0
  0
ARC
  5
D84
  8
0
 10
825.38154535456874
 20
655.44626817692915
 30
0.0
 40
1.0
 50
0.0
 51
90.0
  0
LINE
  5
D85
  8
DIM
  6
CONTINUOUS
 10
700.88154535456874
 20
710.94626817692927
 30
0.0
 11
762.54841280115716
 21
710.94626817692927
 31
0.0
  0
LINE
  5
D86
  8
0
 10
701.38154535456874
 20
677.44626817692927
 30
0.0
 11
782.38154535456874
 21
677.44626817692927
 31
0.0
  0
TEXT
  5
D87
  8
DIM
  6
CONTINUOUS
 10
717.25042072492886
 20
732.18507098734426
 30
0.0
 40
3.0
  1
2x4-M10x15L
  7
ROMANSS
 11
717.25042072492886
 21
733.68507098734426
 31
0.0
 73
     2
  0
LINE
  5
D88
  8
DIM
  6
CONTINUOUS
 10
716.25042072492886
 20
730.68507098734437
 30
0.0
 11
744.37542072492886
 21
730.68507098734437
 31
0.0
  0
CIRCLE
  5
D89
  8
0
  6
CONTINUOUS
 10
689.88154535456874
 20
710.94626817692927
 30
0.0
 40
4.25
  0
ARC
  5
D8A
  8
0
  6
CONTINUOUS
 62
     2
 10
689.88154535456874
 20
710.94626817692927
 30
0.0
 40
5.0
 50
161.29065264439421
 51
115.2003954081208
  0
LINE
  5
D8B
  8
CENTER
  6
CENTER
 10
689.88154535456874
 20
720.94626817692915
 30
0.0
 11
689.88154535456874
 21
700.94626817692915
 31
0.0
  0
SOLID
  5
D8C
  8
DIM
  6
CONTINUOUS
 10
645.89146736656812
 20
749.23979215143311
 30
0.0
 11
645.87268209523916
 21
750.23961569265487
 31
0.0
 12
648.88154535456874
 22
749.79605973603077
 32
0.0
 13
648.88154535456874
 23
749.79605973603077
 33
0.0
  0
LINE
  5
D8D
  8
DIM
  6
CONTINUOUS
 10
695.73670392701365
 20
716.38335604591214
 30
0.0
 11
713.25042072492886
 21
730.68507098734437
 31
0.0
  0
LINE
  5
D8E
  8
CENTER
  6
CENTER
 10
679.88154535456874
 20
710.94626817692927
 30
0.0
 11
699.88154535456874
 21
710.94626817692927
 31
0.0
  0
SOLID
  5
D8F
  8
DIM
  6
CONTINUOUS
 10
696.05295590675723
 20
715.99607748297797
 30
0.0
 11
695.42045194726995
 21
716.77063460884608
 31
0.0
 12
693.41303254940954
 22
714.48584416745041
 32
0.0
 13
693.41303254940954
 23
714.48584416745041
 33
0.0
  0
SOLID
  5
D90
  8
DIM
  6
CONTINUOUS
 10
686.88154535456874
 20
729.94626817692915
 30
0.0
 11
686.88154535456874
 21
728.94626817692915
 31
0.0
 12
689.88154535456874
 22
729.44626817692915
 32
0.0
 13
689.88154535456874
 23
729.44626817692915
 33
0.0
  0
LINE
  5
D91
  8
DIM
  6
CONTINUOUS
 10
689.88154535456874
 20
721.94626817692915
 30
0.0
 11
689.88154535456874
 21
730.44626817692915
 31
0.0
  0
LINE
  5
D92
  8
DIM
  6
CONTINUOUS
 10
713.25042072492886
 20
730.68507098734437
 30
0.0
 11
716.25042072492886
 21
730.68507098734437
 31
0.0
  0
TEXT
  5
D93
  8
DIM
  6
CONTINUOUS
 10
734.80929484939884
 20
689.28390856948863
 30
0.0
 40
3.0
  1
M8x15L
  7
ROMANSS
 11
734.80929484939884
 21
690.78390856948863
 31
0.0
 73
     2
  0
LINE
  5
D94
  8
DIM
  6
CONTINUOUS
 10
733.80929484939884
 20
687.78390856948863
 30
0.0
 11
748.93429484939884
 21
687.78390856948863
 31
0.0
  0
LINE
  5
D95
  8
0
 10
782.38154535456874
 20
681.44626817692915
 30
0.0
 11
820.38154535456863
 21
681.19626817692915
 31
0.0
  0
LINE
  5
D96
  8
HIDDEN
  6
HIDDEN
 10
820.38154535456863
 20
674.94626817692915
 30
0.0
 11
798.38154535456874
 21
674.94626817692915
 31
0.0
  0
LINE
  5
D97
  8
HIDDEN
  6
HIDDEN
 10
820.38154535456863
 20
664.94626817692927
 30
0.0
 11
798.38154535456874
 21
664.94626817692927
 31
0.0
  0
LINE
  5
D98
  8
HIDDEN
  6
HIDDEN
 10
814.38154535456874
 20
665.69626817692915
 30
0.0
 11
795.38154535456874
 21
665.69626817692915
 31
0.0
  0
LINE
  5
D99
  8
HIDDEN
  6
HIDDEN
 10
814.38154535456874
 20
674.19626817692915
 30
0.0
 11
795.38154535456874
 21
674.19626817692915
 31
0.0
  0
LINE
  5
D9A
  8
HIDDEN
  6
HIDDEN
 10
795.38154535456874
 20
665.69626817692915
 30
0.0
 11
792.92780671051264
 21
669.94626817692927
 31
0.0
  0
LINE
  5
D9B
  8
HIDDEN
  6
HIDDEN
 10
795.38154535456874
 20
674.19626817692915
 30
0.0
 11
795.38154535456874
 21
665.69626817692915
 31
0.0
  0
LINE
  5
D9C
  8
HIDDEN
  6
HIDDEN
 10
795.38154535456874
 20
674.19626817692938
 30
0.0
 11
792.92780671051275
 21
669.94626817692927
 31
0.0
  0
LINE
  5
D9D
  8
HIDDEN
  6
HIDDEN
 10
798.38154535456874
 20
674.94626817692915
 30
0.0
 11
798.38154535456874
 21
664.94626817692927
 31
0.0
  0
LINE
  5
D9E
  8
HIDDEN
  6
HIDDEN
 10
814.38154535456874
 20
674.94626817692915
 30
0.0
 11
814.38154535456874
 21
664.94626817692927
 31
0.0
  0
SOLID
  5
D9F
  8
DIM
  6
CONTINUOUS
 10
760.7867139086776
 20
707.94626817692915
 30
0.0
 11
761.7867139086776
 21
707.94626817692915
 31
0.0
 12
761.2867139086776
 22
710.94626817692927
 32
0.0
 13
761.2867139086776
 23
710.94626817692927
 33
0.0
  0
TEXT
  5
DA0
  8
DIM
  6
CONTINUOUS
 10
759.78671390867748
 20
680.79499156145653
 30
0.0
 40
3.0
  1
82
 50
90.0
  7
ROMANSS
 72
     1
 11
758.2867139086776
 21
683.22356299002797
 31
0.0
 73
     2
  0
LINE
  5
DA1
  8
0
 10
281.57055548304959
 20
477.89008900959931
 30
0.0
 11
281.57055548304959
 21
382.89008900959931
 31
0.0
  0
ARC
  5
DA2
  8
0
 10
405.07055548304947
 20
466.39008900959942
 30
0.0
 40
11.25
 50
0.0
 51
90.0
  0
ARC
  5
DA3
  8
0
 10
405.07055548304947
 20
466.39008900959942
 30
0.0
 40
11.5
 50
0.0
 51
90.0
  0
CIRCLE
  5
DA4
  8
0
 10
405.07055548304947
 20
466.39008900959942
 30
0.0
 40
9.0
  0
LINE
  5
DA5
  8
0
 10
416.57055548304942
 20
477.89008900959931
 30
0.0
 11
416.57055548304942
 21
382.89008900959942
 31
0.0
  0
LINE
  5
DA6
  8
CENTER
  6
CENTER
 10
369.07055548304959
 20
480.89008900959931
 30
0.0
 11
369.07055548304959
 21
379.89008900959931
 31
0.0
  0
LINE
  5
DA7
  8
0
 10
379.07055548304942
 20
472.14008900959931
 30
0.0
 11
379.07055548304942
 21
452.02339666238328
 31
0.0
  0
LINE
  5
DA8
  8
0
 10
367.77055548304958
 20
472.14008900959931
 30
0.0
 11
367.77055548304958
 21
454.72956312059858
 31
0.0
  0
LINE
  5
DA9
  8
0
 10
370.37055548304949
 20
472.14008900959931
 30
0.0
 11
370.37055548304949
 21
454.72956312059858
 31
0.0
  0
LINE
  5
DAA
  8
0
 10
359.07055548304959
 20
472.14008900959931
 30
0.0
 11
359.07055548304959
 21
452.02339666238328
 31
0.0
  0
ARC
  5
DAB
  8
0
 10
344.72977929941101
 20
472.14008900959931
 30
0.0
 40
1.5
 50
90.0
 51
206.25121393499771
  0
LINE
  5
DAC
  8
CENTER
  6
CENTER
 10
405.07055548304947
 20
476.89008900959931
 30
0.0
 11
405.07055548304947
 21
455.89008900959931
 31
0.0
  0
ARC
  5
DAD
  8
0
 10
393.41133166668823
 20
472.14008900959931
 30
0.0
 40
1.5
 50
333.74878606499351
 51
90.0
  0
ARC
  5
DAE
  8
0
 10
333.07055548304947
 20
466.39008900959942
 30
0.0
 40
11.25
 50
90.0
 51
180.0
  0
ARC
  5
DAF
  8
0
 10
333.07055548304947
 20
466.39008900959942
 30
0.0
 40
11.5
 50
90.0
 51
180.0
  0
CIRCLE
  5
DB0
  8
0
 10
333.07055548304947
 20
466.39008900959942
 30
0.0
 40
9.0
  0
LINE
  5
DB1
  8
CENTER
  6
CENTER
 10
333.07055548304947
 20
543.89008900959936
 30
0.0
 11
333.07055548304947
 21
315.81006460769743
 31
0.0
  0
LINE
  5
DB2
  8
CENTER
  6
CENTER
 10
419.523772520389
 20
423.39008900959931
 30
0.0
 11
403.52097906945482
 21
423.39008900959931
 31
0.0
  0
LINE
  5
DB3
  8
CENTER
  6
CENTER
 10
420.01057313559119
 20
440.39008900959931
 30
0.0
 11
404.0019528744744
 21
440.39008900959931
 31
0.0
  0
ARC
  5
DB4
  8
0
 10
405.07055548304947
 20
394.39008900959931
 30
0.0
 40
11.25
 50
270.0
 51
0.0
  0
ARC
  5
DB5
  8
0
 10
405.07055548304947
 20
394.39008900959931
 30
0.0
 40
11.5
 50
270.0
 51
0.0
  0
LINE
  5
DB6
  8
CENTER
  6
CENTER
 10
431.57055548304942
 20
407.39008900959931
 30
0.0
 11
396.35713146167302
 21
407.39008900959931
 31
0.0
  0
LINE
  5
DB7
  8
0
 10
416.57055548304942
 20
382.89008900959942
 30
0.0
 11
281.57055548304959
 21
382.89008900959931
 31
0.0
  0
LINE
  5
DB8
  8
CENTER
  6
CENTER
 10
419.57055548304942
 20
430.39008900959931
 30
0.0
 11
277.4480352408691
 21
430.39008900959919
 31
0.0
  0
LINE
  5
DB9
  8
0
 10
285.07055548304947
 20
382.89008900959931
 30
0.0
 11
285.07055548304947
 21
371.89008900959931
 31
0.0
  0
LINE
  5
DBA
  8
0
 10
381.07055548304947
 20
382.89008900959931
 30
0.0
 11
381.07055548304942
 21
371.89008900959942
 31
0.0
  0
LINE
  5
DBB
  8
0
 10
381.07055548304942
 20
371.89008900959931
 30
0.0
 11
285.07055548304947
 21
371.89008900959931
 31
0.0
  0
LINE
  5
DBC
  8
0
 10
380.07055548304942
 20
370.89008900959942
 30
0.0
 11
286.07055548304947
 21
370.89008900959931
 31
0.0
  0
LINE
  5
DBD
  8
0
 10
285.07055548304947
 20
371.89008900959931
 30
0.0
 11
286.07055548304947
 21
370.89008900959931
 31
0.0
  0
LINE
  5
DBE
  8
0
 10
381.07055548304942
 20
371.89008900959942
 30
0.0
 11
380.07055548304942
 21
370.89008900959942
 31
0.0
  0
LINE
  5
DBF
  8
0
 10
344.72977929941101
 20
387.14008900959931
 30
0.0
 11
366.27055548304958
 21
387.14008900959931
 31
0.0
  0
ARC
  5
DC0
  8
0
 10
369.07055548304959
 20
430.39008900959931
 30
0.0
 40
35.5
 50
229.9885419755561
 51
251.4071774505733
  0
LINE
  5
DC1
  8
0
 10
343.3377346502358
 20
401.82884105203919
 30
0.0
 11
353.33834084594042
 21
411.82944724774387
 31
0.0
  0
ARC
  5
DC2
  8
0
 10
369.07055548304959
 20
430.39008900959931
 30
0.0
 40
23.0
 50
186.56242786863399
 51
216.7867892982616
  0
ARC
  5
DC3
  8
0
 10
349.44925354941421
 20
415.71853454427003
 30
0.0
 40
1.5
 50
315.00000000000301
 51
36.786789298263038
  0
ARC
  5
DC4
  8
0
 10
369.07055548304959
 20
430.39008900959931
 30
0.0
 40
35.5
 50
108.5928225494267
 51
130.01145802444381
  0
LINE
  5
DC5
  8
0
 10
343.3377346502358
 20
458.95133696715931
 30
0.0
 11
353.33834084594042
 21
448.95073077145457
 31
0.0
  0
ARC
  5
DC6
  8
0
 10
369.07055548304959
 20
430.39008900959931
 30
0.0
 40
23.0
 50
143.21321070173809
 51
173.43757213136581
  0
ARC
  5
DC7
  8
0
 10
349.44925354941449
 20
445.0616434749287
 30
0.0
 40
1.5
 50
323.2132107017369
 51
45.0
  0
CIRCLE
  5
DC8
  8
0
 10
369.07055548304959
 20
430.39008900959931
 30
0.0
 40
22.5
  0
LINE
  5
DC9
  8
0
 10
405.07055548304947
 20
383.14008900959931
 30
0.0
 11
333.07055548304947
 21
383.14008900959931
 31
0.0
  0
LINE
  5
DCA
  8
0
 10
325.82055548304959
 20
406.0493128259605
 30
0.0
 11
325.82055548304959
 21
427.59008900959941
 31
0.0
  0
LINE
  5
DCB
  8
0
 10
321.82055548304947
 20
466.39008900959942
 30
0.0
 11
321.82055548304947
 21
394.39008900959931
 31
0.0
  0
LINE
  5
DCC
  8
0
 10
321.57055548304959
 20
466.39008900959942
 30
0.0
 11
321.57055548304959
 21
394.39008900959931
 31
0.0
  0
CIRCLE
  5
DCD
  8
0
 10
333.07055548304947
 20
394.39008900959931
 30
0.0
 40
9.0
  0
LINE
  5
DCE
  8
CENTER
  6
CENTER
 10
343.57055548304947
 20
394.39008900959931
 30
0.0
 11
322.57055548304947
 21
394.39008900959931
 31
0.0
  0
POLYLINE
  5
DCF
  8
0
  6
CONTINUOUS
 66
     1
 10
0.0
 20
0.0
 30
0.0
 70
     1
  0
VERTEX
  5
147A
  8
0
  6
CONTINUOUS
 10
335.95730682899767
 20
399.39008900959931
 30
0.0
  0
VERTEX
  5
147B
  8
0
  6
CONTINUOUS
 10
338.84405817494581
 20
394.39008900959931
 30
0.0
  0
VERTEX
  5
147C
  8
0
  6
CONTINUOUS
 10
335.95730682899767
 20
389.39008900959931
 30
0.0
  0
VERTEX
  5
147D
  8
0
  6
CONTINUOUS
 10
330.18380413710139
 20
389.39008900959931
 30
0.0
  0
VERTEX
  5
147E
  8
0
  6
CONTINUOUS
 10
327.29705279115348
 20
394.39008900959931
 30
0.0
  0
VERTEX
  5
147F
  8
0
  6
CONTINUOUS
 10
330.18380413710139
 20
399.39008900959931
 30
0.0
  0
SEQEND
  5
1480
  8
0
  6
CONTINUOUS
  0
ARC
  5
DD7
  8
0
 10
333.07055548304947
 20
394.39008900959931
 30
0.0
 40
11.25
 50
180.0
 51
270.0
  0
ARC
  5
DD8
  8
0
 10
333.07055548304947
 20
394.39008900959931
 30
0.0
 40
11.5
 50
180.0
 51
270.0
  0
ARC
  5
DD9
  8
0
 10
333.07055548304947
 20
394.39008900959931
 30
0.0
 40
11.5
 50
333.74878606508207
 51
29.381501724351899
  0
ARC
  5
DDA
  8
0
 10
344.72977929941101
 20
388.64008900959931
 30
0.0
 40
1.5
 50
153.74878606500999
 51
270.0
  0
ARC
  5
DDB
  8
0
 10
344.39839482201552
 20
400.76818088025942
 30
0.0
 40
1.5
 50
134.99999999999841
 51
209.38150172435169
  0
ARC
  5
DDC
  8
0
 10
333.07055548304947
 20
394.39008900959931
 30
0.0
 40
11.5
 50
60.618498275648491
 51
116.2512139349553
  0
LINE
  5
DDD
  8
0
 10
327.32055548304959
 20
420.39008900959931
 30
0.0
 11
347.43724783026562
 21
420.39008900959931
 31
0.0
  0
ARC
  5
DDE
  8
0
 10
327.32055548304959
 20
406.0493128259605
 30
0.0
 40
1.5
 50
180.0
 51
296.25121393495692
  0
ARC
  5
DDF
  8
0
 10
327.32055548304959
 20
418.89008900959931
 30
0.0
 40
1.5
 50
90.0
 51
180.0
  0
LINE
  5
DE0
  8
0
 10
340.50930752548959
 20
404.65726817678541
 30
0.0
 11
350.50991372119421
 21
414.65787437249008
 31
0.0
  0
ARC
  5
DE1
  8
0
 10
369.07055548304959
 20
430.39008900959931
 30
0.0
 40
35.5
 50
198.5928225494265
 51
220.0114580244437
  0
ARC
  5
DE2
  8
0
 10
342.6464575204605
 20
408.20863173412948
 30
0.0
 40
1.0
 50
220.0114580244414
 51
315.0
  0
ARC
  5
DE3
  8
0
 10
339.44864735370982
 20
405.71792834856529
 30
0.0
 40
1.5
 50
240.61849827564819
 51
315.00000000000301
  0
ARC
  5
DE4
  8
0
 10
346.88909820757982
 20
403.96599104701022
 30
0.0
 40
1.0
 50
135.0
 51
229.98854197555599
  0
ARC
  5
DE5
  8
0
 10
336.37116710956462
 20
419.39008900959931
 30
0.0
 40
1.0
 50
90.0
 51
198.59282254942551
  0
ARC
  5
DE6
  8
0
 10
347.43724783026562
 20
418.89008900959931
 30
0.0
 40
1.5
 50
27.994561732254301
 51
90.0
  0
LINE
  5
DE7
  8
0
 10
325.82055548304959
 20
454.73086519323812
 30
0.0
 11
325.82055548304959
 21
433.19008900959932
 31
0.0
  0
ARC
  5
DE8
  8
0
 10
369.07055548304959
 20
430.39008900959931
 30
0.0
 40
35.5
 50
139.98854197555599
 51
161.4071774505733
  0
LINE
  5
DE9
  8
0
 10
340.50930752548959
 20
456.12290984241309
 30
0.0
 11
350.50991372119421
 21
446.12230364670842
 31
0.0
  0
LINE
  5
DEA
  8
0
 10
327.32055548304959
 20
440.39008900959931
 30
0.0
 11
347.43724783026562
 21
440.39008900959931
 31
0.0
  0
LINE
  5
DEB
  8
0
 10
327.32055548304959
 20
431.69008900959921
 30
0.0
 11
344.73108137205043
 21
431.69008900959921
 31
0.0
  0
LINE
  5
DEC
  8
0
 10
327.32055548304959
 20
429.0900890095993
 30
0.0
 11
344.73108137205043
 21
429.0900890095993
 31
0.0
  0
ARC
  5
DED
  8
0
 10
327.32055548304959
 20
427.59008900959941
 30
0.0
 40
1.5
 50
90.0
 51
180.0
  0
ARC
  5
DEE
  8
0
 10
327.32055548304959
 20
433.19008900959932
 30
0.0
 40
1.5
 50
180.0
 51
270.0
  0
ARC
  5
DEF
  8
0
 10
327.32055548304959
 20
441.89008900959942
 30
0.0
 40
1.5
 50
180.0
 51
270.0
  0
ARC
  5
DF0
  8
0
 10
344.73108137205043
 20
427.59008900959941
 30
0.0
 40
1.5
 50
6.5624278686345097
 51
90.0
  0
ARC
  5
DF1
  8
0
 10
344.73108137205043
 20
433.19008900959932
 30
0.0
 40
1.5
 50
270.0
 51
353.43757213136541
  0
ARC
  5
DF2
  8
0
 10
336.37116710956462
 20
441.39008900959942
 30
0.0
 40
1.0
 50
161.40717745057441
 51
270.0
  0
ARC
  5
DF3
  8
0
 10
347.43724783026562
 20
441.89008900959942
 30
0.0
 40
1.5
 50
270.0
 51
332.00543826774759
  0
LINE
  5
DF4
  8
CENTER
  6
CENTER
 10
343.57055548304947
 20
466.39008900959942
 30
0.0
 11
322.57055548304947
 21
466.39008900959942
 31
0.0
  0
POLYLINE
  5
DF5
  8
0
  6
CONTINUOUS
 66
     1
 10
0.0
 20
0.0
 30
0.0
 70
     1
  0
VERTEX
  5
1481
  8
0
  6
CONTINUOUS
 10
335.95730682899767
 20
471.39008900959942
 30
0.0
  0
VERTEX
  5
1482
  8
0
  6
CONTINUOUS
 10
338.84405817494581
 20
466.39008900959942
 30
0.0
  0
VERTEX
  5
1483
  8
0
  6
CONTINUOUS
 10
335.95730682899767
 20
461.39008900959931
 30
0.0
  0
VERTEX
  5
1484
  8
0
  6
CONTINUOUS
 10
330.18380413710139
 20
461.39008900959931
 30
0.0
  0
VERTEX
  5
1485
  8
0
  6
CONTINUOUS
 10
327.29705279115348
 20
466.39008900959942
 30
0.0
  0
VERTEX
  5
1486
  8
0
  6
CONTINUOUS
 10
330.18380413710139
 20
471.39008900959919
 30
0.0
  0
SEQEND
  5
1487
  8
0
  6
CONTINUOUS
  0
ARC
  5
DFD
  8
0
 10
333.07055548304947
 20
466.39008900959942
 30
0.0
 40
11.5
 50
243.74878606504441
 51
299.38150172435149
  0
ARC
  5
DFE
  8
0
 10
327.32055548304959
 20
454.73086519323812
 30
0.0
 40
1.5
 50
63.748786065044058
 51
180.0
  0
ARC
  5
DFF
  8
0
 10
344.39839482201552
 20
460.01199713893919
 30
0.0
 40
1.5
 50
150.61849827564831
 51
225.0
  0
ARC
  5
E00
  8
0
 10
342.6464575204605
 20
452.57154628506908
 30
0.0
 40
1.0
 50
45.0
 51
139.98854197555389
  0
ARC
  5
E01
  8
0
 10
339.44864735370982
 20
455.06224967063332
 30
0.0
 40
1.5
 50
45.0
 51
119.38150172435159
  0
ARC
  5
E02
  8
0
 10
346.88909820757982
 20
456.81418697218828
 30
0.0
 40
1.0
 50
130.0114580244414
 51
225.0
  0
ARC
  5
E03
  8
0
 10
333.07055548304947
 20
466.39008900959942
 30
0.0
 40
11.5
 50
330.61849827564839
 51
26.25121393492735
  0
LINE
  5
E04
  8
0
 10
412.32055548304942
 20
406.0493128259605
 30
0.0
 11
412.32055548304942
 21
427.59008900959941
 31
0.0
  0
ARC
  5
E05
  8
0
 10
369.07055548304959
 20
430.39008900959931
 30
0.0
 40
23.0
 50
323.21321070173821
 51
353.43757213136593
  0
ARC
  5
E06
  8
0
 10
369.07055548304959
 20
430.39008900959931
 30
0.0
 40
35.5
 50
288.59282254942661
 51
310.01145802444381
  0
ARC
  5
E07
  8
0
 10
383.74210994837881
 20
410.7687870759641
 30
0.0
 40
1.5
 50
45.000000000001521
 51
126.78678929826
  0
LINE
  5
E08
  8
0
 10
393.41133166668823
 20
387.14008900959931
 30
0.0
 11
371.87055548304949
 21
387.14008900959931
 31
0.0
  0
LINE
  5
E09
  8
0
 10
370.37055548304949
 20
388.64008900959931
 30
0.0
 11
370.37055548304949
 21
406.05061489859997
 31
0.0
  0
LINE
  5
E0A
  8
0
 10
367.77055548304958
 20
388.64008900959931
 30
0.0
 11
367.77055548304958
 21
406.05061489859997
 31
0.0
  0
LINE
  5
E0B
  8
0
 10
379.07055548304942
 20
388.64008900959931
 30
0.0
 11
379.07055548304942
 21
408.75678135681528
 31
0.0
  0
LINE
  5
E0C
  8
0
 10
359.07055548304959
 20
388.64008900959931
 30
0.0
 11
359.07055548304959
 21
408.75678135681528
 31
0.0
  0
ARC
  5
E0D
  8
0
 10
366.27055548304958
 20
388.64008900959931
 30
0.0
 40
1.5
 50
270.0
 51
0.0
  0
ARC
  5
E0E
  8
0
 10
357.57055548304947
 20
388.64008900959931
 30
0.0
 40
1.5
 50
270.0
 51
0.0
  0
ARC
  5
E0F
  8
0
 10
358.07055548304947
 20
397.6907006361144
 30
0.0
 40
1.0
 50
251.4071774505743
 51
0.0
  0
ARC
  5
E10
  8
0
 10
371.87055548304949
 20
388.64008900959931
 30
0.0
 40
1.5
 50
180.0
 51
270.0
  0
ARC
  5
E11
  8
0
 10
380.57055548304942
 20
388.64008900959931
 30
0.0
 40
1.5
 50
180.0
 51
270.0
  0
ARC
  5
E12
  8
0
 10
380.07055548304942
 20
397.6907006361144
 30
0.0
 40
1.0
 50
180.0
 51
288.59282254942548
  0
ARC
  5
E13
  8
0
 10
366.27055548304958
 20
406.05061489859997
 30
0.0
 40
1.5
 50
0.0
 51
83.437572131365485
  0
ARC
  5
E14
  8
0
 10
369.07055548304959
 20
430.39008900959931
 30
0.0
 40
23.0
 50
233.21321070173801
 51
263.43757213136581
  0
ARC
  5
E15
  8
0
 10
357.57055548304947
 20
408.75678135681528
 30
0.0
 40
1.5
 50
0.0
 51
62.005438267747621
  0
ARC
  5
E16
  8
0
 10
354.3990010177202
 20
410.7687870759641
 30
0.0
 40
1.5
 50
53.213210701738689
 51
135.0
  0
ARC
  5
E17
  8
0
 10
369.07055548304959
 20
430.39008900959931
 30
0.0
 40
23.0
 50
276.56242786863407
 51
306.78678929826168
  0
ARC
  5
E18
  8
0
 10
371.87055548304949
 20
406.05061489859997
 30
0.0
 40
1.5
 50
96.562427868634515
 51
180.0
  0
ARC
  5
E19
  8
0
 10
380.57055548304942
 20
408.75678135681528
 30
0.0
 40
1.5
 50
117.99456173225229
 51
180.0
  0
CIRCLE
  5
E1A
  8
0
 10
405.07055548304947
 20
394.39008900959931
 30
0.0
 40
9.0
  0
LINE
  5
E1B
  8
0
 10
394.8033763158632
 20
401.82884105203919
 30
0.0
 11
384.80277012015853
 21
411.82944724774387
 31
0.0
  0
LINE
  5
E1C
  8
CENTER
  6
CENTER
 10
405.07055548304947
 20
404.89008900959931
 30
0.0
 11
405.07055548304947
 21
383.89008900959931
 31
0.0
  0
LINE
  5
E1D
  8
CENTER
  6
CENTER
 10
415.57055548304942
 20
394.39008900959931
 30
0.0
 11
394.57055548304942
 21
394.39008900959931
 31
0.0
  0
POLYLINE
  5
E1E
  8
0
  6
CONTINUOUS
 66
     1
 10
0.0
 20
0.0
 30
0.0
 70
     1
  0
VERTEX
  5
1488
  8
0
  6
CONTINUOUS
 10
407.95730682899762
 20
399.39008900959931
 30
0.0
  0
VERTEX
  5
1489
  8
0
  6
CONTINUOUS
 10
410.8440581749457
 20
394.39008900959931
 30
0.0
  0
VERTEX
  5
148A
  8
0
  6
CONTINUOUS
 10
407.95730682899762
 20
389.39008900959931
 30
0.0
  0
VERTEX
  5
148B
  8
0
  6
CONTINUOUS
 10
402.18380413710139
 20
389.39008900959931
 30
0.0
  0
VERTEX
  5
148C
  8
0
  6
CONTINUOUS
 10
399.29705279115331
 20
394.39008900959931
 30
0.0
  0
VERTEX
  5
148D
  8
0
  6
CONTINUOUS
 10
402.18380413710139
 20
399.39008900959931
 30
0.0
  0
SEQEND
  5
148E
  8
0
  6
CONTINUOUS
  0
ARC
  5
E26
  8
0
 10
405.07055548304947
 20
394.39008900959931
 30
0.0
 40
11.5
 50
150.61849827564811
 51
206.25121393492719
  0
ARC
  5
E27
  8
0
 10
393.41133166668823
 20
388.64008900959931
 30
0.0
 40
1.5
 50
270.0
 51
26.25121393499963
  0
ARC
  5
E28
  8
0
 10
393.74271614408349
 20
400.76818088025942
 30
0.0
 40
1.5
 50
330.61849827564822
 51
45.000000000001521
  0
ARC
  5
E29
  8
0
 10
405.07055548304947
 20
394.39008900959931
 30
0.0
 40
11.5
 50
63.748786065044662
 51
119.38150172435149
  0
LINE
  5
E2A
  8
0
 10
395.02030295135518
 20
410.89008900959942
 30
0.0
 11
410.82055548304947
 21
410.89008900959942
 31
0.0
  0
LINE
  5
E2B
  8
0
 10
397.63180344060942
 20
404.65726817678541
 30
0.0
 11
387.6311972449048
 21
414.65787437249008
 31
0.0
  0
ARC
  5
E2C
  8
0
 10
398.69246361238947
 20
405.71792834856529
 30
0.0
 40
1.5
 50
224.99999999999841
 51
299.38150172435172
  0
ARC
  5
E2D
  8
0
 10
391.25201275851907
 20
403.96599104701022
 30
0.0
 40
1.0
 50
310.01145802444393
 51
45.0
  0
ARC
  5
E2E
  8
0
 10
395.02030295135518
 20
409.39008900959942
 30
0.0
 40
1.5
 50
90.0
 51
225.00000000000151
  0
ARC
  5
E2F
  8
0
 10
388.69185741668451
 20
415.71853454426991
 30
0.0
 40
1.5
 50
143.2132107017369
 51
224.99999999999841
  0
ARC
  5
E30
  8
0
 10
410.82055548304947
 20
406.0493128259605
 30
0.0
 40
1.5
 50
243.74878606504399
 51
0.0
  0
ARC
  5
E31
  8
0
 10
410.82055548304947
 20
409.39008900959942
 30
0.0
 40
1.5
 50
0.0
 51
90.0
  0
ARC
  5
E32
  8
0
 10
369.07055548304959
 20
430.39008900959931
 30
0.0
 40
35.5
 50
49.98854197555616
 51
71.407177450573386
  0
ARC
  5
E33
  8
0
 10
383.74210994837881
 20
450.01139094323457
 30
0.0
 40
1.5
 50
233.21321070173991
 51
315.0
  0
ARC
  5
E34
  8
0
 10
354.3990010177202
 20
450.01139094323457
 30
0.0
 40
1.5
 50
225.0
 51
306.78678929825992
  0
ARC
  5
E35
  8
0
 10
366.27055548304958
 20
454.72956312059858
 30
0.0
 40
1.5
 50
276.56242786863447
 51
0.0
  0
ARC
  5
E36
  8
0
 10
369.07055548304959
 20
430.39008900959931
 30
0.0
 40
23.0
 50
96.562427868634174
 51
126.7867892982617
  0
ARC
  5
E37
  8
0
 10
357.57055548304947
 20
452.02339666238328
 30
0.0
 40
1.5
 50
297.99456173225229
 51
0.0
  0
ARC
  5
E38
  8
0
 10
358.07055548304947
 20
463.0894773830841
 30
0.0
 40
1.0
 50
0.0
 51
108.5928225494286
  0
ARC
  5
E39
  8
0
 10
369.07055548304959
 20
430.39008900959931
 30
0.0
 40
23.0
 50
53.213210701738248
 51
83.437572131365826
  0
ARC
  5
E3A
  8
0
 10
371.87055548304949
 20
454.72956312059858
 30
0.0
 40
1.5
 50
180.0
 51
263.43757213136541
  0
ARC
  5
E3B
  8
0
 10
380.57055548304942
 20
452.02339666238328
 30
0.0
 40
1.5
 50
180.0
 51
242.00543826774759
  0
ARC
  5
E3C
  8
0
 10
380.07055548304942
 20
463.0894773830841
 30
0.0
 40
1.0
 50
71.407177450574423
 51
180.0
  0
ARC
  5
E3D
  8
0
 10
410.82055548304947
 20
449.3062874966941
 30
0.0
 40
1.5
 50
270.0
 51
0.0
  0
LINE
  5
E3E
  8
0
 10
412.32055548304942
 20
454.73086519323812
 30
0.0
 11
412.32055548304942
 21
433.19008900959932
 31
0.0
  0
ARC
  5
E3F
  8
0
 10
392.5203029513554
 20
449.3062874966941
 30
0.0
 40
1.5
 50
171.50526946671781
 51
270.0
  0
LINE
  5
E40
  8
0
 10
397.63180344060942
 20
456.12290984241309
 30
0.0
 11
387.6311972449048
 21
446.12230364670842
 31
0.0
  0
LINE
  5
E41
  8
0
 10
392.17520921562681
 20
437.04024090374878
 30
0.0
 11
410.82055548304947
 21
437.04024090374878
 31
0.0
  0
LINE
  5
E42
  8
0
 10
392.5203029513554
 20
447.8062874966941
 30
0.0
 11
410.82055548304947
 21
447.8062874966941
 31
0.0
  0
LINE
  5
E43
  8
0
 10
410.82055548304947
 20
429.0900890095993
 30
0.0
 11
393.41002959404881
 21
429.0900890095993
 31
0.0
  0
LINE
  5
E44
  8
0
 10
410.82055548304947
 20
431.69008900959921
 30
0.0
 11
393.41002959404881
 21
431.69008900959921
 31
0.0
  0
ARC
  5
E45
  8
0
 10
392.17520921562681
 20
438.5402409037489
 30
0.0
 40
1.5
 50
199.43026151964381
 51
270.0
  0
ARC
  5
E46
  8
0
 10
369.07055548304959
 20
430.39008900959931
 30
0.0
 40
23.0
 50
6.5624278686341668
 51
36.78678929826156
  0
ARC
  5
E47
  8
0
 10
393.41002959404881
 20
427.59008900959941
 30
0.0
 40
1.5
 50
90.0
 51
173.4375721313655
  0
ARC
  5
E48
  8
0
 10
393.41002959404881
 20
433.19008900959932
 30
0.0
 40
1.5
 50
186.5624278686345
 51
270.0
  0
ARC
  5
E49
  8
0
 10
388.69185741668468
 20
445.0616434749287
 30
0.0
 40
1.5
 50
135.0
 51
216.78678929826
  0
ARC
  5
E4A
  8
0
 10
410.82055548304947
 20
438.5402409037489
 30
0.0
 40
1.5
 50
270.0
 51
0.0
  0
ARC
  5
E4B
  8
0
 10
410.82055548304947
 20
427.59008900959941
 30
0.0
 40
1.5
 50
0.0
 51
90.0
  0
ARC
  5
E4C
  8
0
 10
410.82055548304947
 20
433.19008900959932
 30
0.0
 40
1.5
 50
270.0
 51
0.0
  0
LINE
  5
E4D
  8
CENTER
  6
CENTER
 10
415.57055548304942
 20
466.39008900959942
 30
0.0
 11
394.57055548304942
 21
466.39008900959942
 31
0.0
  0
POLYLINE
  5
E4E
  8
0
  6
CONTINUOUS
 66
     1
 10
0.0
 20
0.0
 30
0.0
 70
     1
  0
VERTEX
  5
148F
  8
0
  6
CONTINUOUS
 10
407.95730682899762
 20
471.39008900959942
 30
0.0
  0
VERTEX
  5
1490
  8
0
  6
CONTINUOUS
 10
410.8440581749457
 20
466.39008900959942
 30
0.0
  0
VERTEX
  5
1491
  8
0
  6
CONTINUOUS
 10
407.95730682899762
 20
461.39008900959931
 30
0.0
  0
VERTEX
  5
1492
  8
0
  6
CONTINUOUS
 10
402.18380413710139
 20
461.39008900959931
 30
0.0
  0
VERTEX
  5
1493
  8
0
  6
CONTINUOUS
 10
399.29705279115331
 20
466.39008900959942
 30
0.0
  0
VERTEX
  5
1494
  8
0
  6
CONTINUOUS
 10
402.18380413710139
 20
471.39008900959919
 30
0.0
  0
SEQEND
  5
1495
  8
0
  6
CONTINUOUS
  0
ARC
  5
E56
  8
0
 10
405.07055548304947
 20
466.39008900959942
 30
0.0
 40
11.5
 50
240.61849827564839
 51
296.2512139349555
  0
ARC
  5
E57
  8
0
 10
393.74271614408349
 20
460.01199713893919
 30
0.0
 40
1.5
 50
315.0
 51
29.3815017243517
  0
LINE
  5
E58
  8
0
 10
394.8033763158632
 20
458.95133696715931
 30
0.0
 11
384.80277012015853
 21
448.95073077145457
 31
0.0
  0
ARC
  5
E59
  8
0
 10
398.69246361238947
 20
455.06224967063332
 30
0.0
 40
1.5
 50
60.618498275650182
 51
135.0
  0
ARC
  5
E5A
  8
0
 10
391.25201275851907
 20
456.81418697218828
 30
0.0
 40
1.0
 50
315.0
 51
49.988541975558569
  0
ARC
  5
E5B
  8
0
 10
405.07055548304947
 20
466.39008900959942
 30
0.0
 40
11.5
 50
153.74878606506351
 51
209.38150172435141
  0
ARC
  5
E5C
  8
0
 10
410.82055548304947
 20
454.73086519323812
 30
0.0
 40
1.5
 50
0.0
 51
116.251213934954
  0
LINE
  5
E5D
  8
0
 10
416.32055548304942
 20
466.39008900959942
 30
0.0
 11
416.32055548304942
 21
394.39008900959931
 31
0.0
  0
LINE
  5
E5E
  8
0
  6
CONTINUOUS
 10
424.5705554830493
 20
401.39008900959931
 30
0.0
 11
424.5705554830493
 21
413.39008900959931
 31
0.0
  0
LINE
  5
E5F
  8
0
  6
CONTINUOUS
 10
425.57055548304947
 20
401.39008900959931
 30
0.0
 11
427.57055548304942
 21
403.39008900959931
 31
0.0
  0
LINE
  5
E60
  8
0
  6
CONTINUOUS
 10
425.57055548304947
 20
401.39008900959931
 30
0.0
 11
425.57055548304947
 21
413.39008900959931
 31
0.0
  0
ARC
  5
E61
  8
0
  6
CONTINUOUS
 10
414.30833326082592
 20
402.64008900959942
 30
0.0
 40
10.338070658410899
 50
332.64729508745978
 51
27.352704912540158
  0
LINE
  5
E62
  8
0
  6
CONTINUOUS
 10
423.49055548304949
 20
397.89008900959931
 30
0.0
 11
416.57055548304942
 21
397.89008900959931
 31
0.0
  0
LINE
  5
E63
  8
0
  6
CONTINUOUS
 10
424.5705554830493
 20
401.39008900959931
 30
0.0
 11
425.57055548304947
 21
401.39008900959931
 31
0.0
  0
ARC
  5
E64
  8
0
  6
CONTINUOUS
 10
414.30833326082592
 20
412.14008900959931
 30
0.0
 40
10.338070658410899
 50
332.64729508745978
 51
27.352704912540158
  0
LINE
  5
E65
  8
0
  6
CONTINUOUS
 10
416.57055548304942
 20
407.39008900959931
 30
0.0
 11
423.49055548304949
 21
407.39008900959931
 31
0.0
  0
LINE
  5
E66
  8
0
  6
CONTINUOUS
 10
416.57055548304942
 20
407.39008900959931
 30
0.0
 11
423.49055548304949
 21
407.39008900959931
 31
0.0
  0
LINE
  5
E67
  8
0
  6
CONTINUOUS
 62
     2
 10
424.5705554830493
 20
402.59008900960009
 30
0.0
 11
426.77055548305009
 21
402.59008900960009
 31
0.0
  0
LINE
  5
E68
  8
0
  6
CONTINUOUS
 62
     2
 10
424.5705554830493
 20
412.19008900959858
 30
0.0
 11
426.77055548305009
 21
412.19008900959858
 31
0.0
  0
LINE
  5
E69
  8
0
  6
CONTINUOUS
 10
424.5705554830493
 20
413.39008900959931
 30
0.0
 11
425.57055548304947
 21
413.39008900959931
 31
0.0
  0
LINE
  5
E6A
  8
0
  6
CONTINUOUS
 10
425.57055548304947
 20
413.39008900959931
 30
0.0
 11
427.57055548304942
 21
411.39008900959931
 31
0.0
  0
LINE
  5
E6B
  8
0
  6
CONTINUOUS
 10
427.57055548304942
 20
403.39008900959931
 30
0.0
 11
427.57055548304942
 21
411.39008900959931
 31
0.0
  0
LINE
  5
E6C
  8
0
  6
CONTINUOUS
 10
423.49055548304949
 20
416.89008900959942
 30
0.0
 11
416.57055548304942
 21
416.89008900959942
 31
0.0
  0
LINE
  5
E6D
  8
0
 10
416.57055548304942
 20
477.89008900959931
 30
0.0
 11
281.57055548304959
 21
477.89008900959931
 31
0.0
  0
LINE
  5
E6E
  8
0
 10
405.07055548304947
 20
477.64008900959942
 30
0.0
 11
333.07055548304947
 21
477.64008900959942
 31
0.0
  0
LINE
  5
E6F
  8
0
 10
344.72977929941101
 20
473.64008900959931
 30
0.0
 11
366.27055548304958
 21
473.64008900959931
 31
0.0
  0
LINE
  5
E70
  8
0
 10
381.07055548304942
 20
488.89008900959931
 30
0.0
 11
285.07055548304947
 21
488.89008900959942
 31
0.0
  0
LINE
  5
E71
  8
0
 10
380.07055548304942
 20
489.89008900959942
 30
0.0
 11
286.07055548304947
 21
489.89008900959942
 31
0.0
  0
LINE
  5
E72
  8
0
 10
350.57055548304959
 20
490.89008900959948
 30
0.0
 11
315.57055548304947
 21
490.89008900959948
 31
0.0
  0
LINE
  5
E73
  8
0
 10
329.07055548304947
 20
534.39008900959936
 30
0.0
 11
329.07055548304947
 21
497.39008900959931
 31
0.0
  0
LINE
  5
E74
  8
0
 10
337.07055548304947
 20
534.39008900959936
 30
0.0
 11
337.07055548304947
 21
497.39008900959931
 31
0.0
  0
LINE
  5
E75
  8
0
 10
319.0705554830493
 20
539.89008900959936
 30
0.0
 11
319.07055548304959
 21
490.89008900959948
 31
0.0
  0
LINE
  5
E76
  8
0
 10
347.07055548304947
 20
539.89008900959936
 30
0.0
 11
347.07055548304947
 21
490.89008900959948
 31
0.0
  0
LINE
  5
E77
  8
0
 10
285.07055548304947
 20
488.89008900959942
 30
0.0
 11
285.07055548304947
 21
477.89008900959931
 31
0.0
  0
LINE
  5
E78
  8
0
 10
286.07055548304947
 20
489.89008900959942
 30
0.0
 11
285.07055548304947
 21
488.89008900959942
 31
0.0
  0
LINE
  5
E79
  8
0
 10
315.57055548304947
 20
490.89008900959948
 30
0.0
 11
315.57055548304947
 21
489.89008900959942
 31
0.0
  0
ARC
  5
E7A
  8
0
  6
CONTINUOUS
 10
333.07055548304947
 20
497.39008900959931
 30
0.0
 40
4.0
 50
180.0
 51
0.0
  0
ARC
  5
E7B
  8
0
  6
CONTINUOUS
 10
333.07055548304947
 20
534.39008900959936
 30
0.0
 40
4.0
 50
0.0
 51
180.0
  0
LINE
  5
E7C
  8
0
 10
346.07055548304959
 20
540.89008900959948
 30
0.0
 11
320.0705554830493
 21
540.89008900959948
 31
0.0
  0
LINE
  5
E7D
  8
0
 10
347.07055548304947
 20
539.89008900959936
 30
0.0
 11
319.07055548304959
 21
539.89008900959936
 31
0.0
  0
LINE
  5
E7E
  8
0
 10
320.0705554830493
 20
540.89008900959948
 30
0.0
 11
319.0705554830493
 21
539.89008900959936
 31
0.0
  0
LINE
  5
E7F
  8
0
 10
346.07055548304959
 20
540.89008900959948
 30
0.0
 11
347.07055548304947
 21
539.89008900959936
 31
0.0
  0
LINE
  5
E80
  8
0
 10
393.41133166668823
 20
473.64008900959931
 30
0.0
 11
371.87055548304949
 21
473.64008900959931
 31
0.0
  0
ARC
  5
E81
  8
0
 10
366.27055548304958
 20
472.14008900959931
 30
0.0
 40
1.5
 50
0.0
 51
90.0
  0
ARC
  5
E82
  8
0
 10
357.57055548304947
 20
472.14008900959931
 30
0.0
 40
1.5
 50
0.0
 51
90.0
  0
LINE
  5
E83
  8
0
 10
350.57055548304959
 20
490.89008900959948
 30
0.0
 11
350.5705554830493
 21
489.89008900959942
 31
0.0
  0
LINE
  5
E84
  8
0
 10
381.07055548304942
 20
488.89008900959942
 30
0.0
 11
381.07055548304947
 21
477.89008900959931
 31
0.0
  0
ARC
  5
E85
  8
0
 10
371.87055548304949
 20
472.14008900959931
 30
0.0
 40
1.5
 50
90.0
 51
180.0
  0
ARC
  5
E86
  8
0
 10
380.57055548304942
 20
472.14008900959931
 30
0.0
 40
1.5
 50
90.0
 51
180.0
  0
LINE
  5
E87
  8
0
 10
380.07055548304942
 20
489.89008900959942
 30
0.0
 11
381.07055548304942
 21
488.89008900959942
 31
0.0
  0
LINE
  5
E88
  8
DIM
  6
CONTINUOUS
 10
1048.024230296624
 20
319.89008900959942
 30
0.0
 11
1048.024230296623
 21
540.89008900959925
 31
0.0
  0
LINE
  5
E89
  8
DIM
  6
CONTINUOUS
 10
1040.024230296623
 20
370.89008900959931
 30
0.0
 11
1040.024230296623
 21
489.89008900959931
 31
0.0
  0
SOLID
  5
E8A
  8
DIM
  6
CONTINUOUS
 10
906.60277518360772
 20
474.1978533703288
 30
0.0
 11
905.67786703897525
 21
473.817662728686
 31
0.0
 12
907.28089303621994
 22
471.2330336156104
 32
0.0
 13
907.28089303621994
 23
471.2330336156104
 33
0.0
  0
LINE
  5
E8B
  8
0
 10
1032.024230296623
 20
477.89008900959931
 30
0.0
 11
1032.024230296623
 21
382.89008900959931
 31
0.0
  0
LINE
  5
E8C
  8
0
 10
897.02423029662373
 20
477.89008900959931
 30
0.0
 11
897.02423029662373
 21
382.89008900959942
 31
0.0
  0
ARC
  5
E8D
  8
0
 10
980.52423029662361
 20
466.39008900959942
 30
0.0
 40
11.25
 50
0.0
 51
90.0
  0
ARC
  5
E8E
  8
0
 10
980.52423029662361
 20
466.39008900959942
 30
0.0
 40
11.5
 50
0.0
 51
90.0
  0
ARC
  5
E8F
  8
0
 10
968.8650064802622
 20
472.14008900959931
 30
0.0
 40
1.5
 50
333.74878606499061
 51
90.0
  0
CIRCLE
  5
E90
  8
0
 10
980.52423029662361
 20
466.39008900959942
 30
0.0
 40
9.0
  0
LINE
  5
E91
  8
CENTER
  6
CENTER
 10
980.52423029662361
 20
543.89008900959936
 30
0.0
 11
980.52423029662361
 21
317.42728304706162
 31
0.0
  0
ARC
  5
E92
  8
0
 10
920.18345411298503
 20
472.14008900959931
 30
0.0
 40
1.5
 50
90.0
 51
206.25121393501709
  0
LINE
  5
E93
  8
0
 10
934.52423029662373
 20
472.14008900959931
 30
0.0
 11
934.52423029662373
 21
452.02339666238328
 31
0.0
  0
LINE
  5
E94
  8
0
 10
945.82423029662368
 20
472.14008900959931
 30
0.0
 11
945.82423029662368
 21
454.72956312059858
 31
0.0
  0
LINE
  5
E95
  8
0
 10
943.22423029662366
 20
472.14008900959931
 30
0.0
 11
943.22423029662366
 21
454.72956312059858
 31
0.0
  0
LINE
  5
E96
  8
0
 10
954.52423029662361
 20
472.14008900959931
 30
0.0
 11
954.52423029662361
 21
452.02339666238328
 31
0.0
  0
ARC
  5
E97
  8
0
 10
908.52423029662373
 20
466.39008900959942
 30
0.0
 40
11.25
 50
90.0
 51
180.0
  0
ARC
  5
E98
  8
0
 10
908.52423029662373
 20
466.39008900959942
 30
0.0
 40
11.5
 50
90.0
 51
180.0
  0
LINE
  5
E99
  8
CENTER
  6
CENTER
 10
908.52423029662373
 20
476.89008900959931
 30
0.0
 11
908.52423029662373
 21
455.89008900959931
 31
0.0
  0
CIRCLE
  5
E9A
  8
0
 10
908.52423029662373
 20
466.39008900959942
 30
0.0
 40
9.0
  0
LINE
  5
E9B
  8
CENTER
  6
CENTER
 10
944.52423029662373
 20
480.89008900959931
 30
0.0
 11
944.52423029662373
 21
379.89008900959931
 31
0.0
  0
LINE
  5
E9C
  8
DIM
  6
CONTINUOUS
 10
897.02423029662373
 20
295.89008900959942
 30
0.0
 11
1032.024230296623
 21
295.89008900959942
 31
0.0
  0
LINE
  5
E9D
  8
DIM
  6
CONTINUOUS
 10
897.02423029662373
 20
303.89008900959948
 30
0.0
 11
992.02423029662361
 21
303.89008900959948
 31
0.0
  0
LINE
  5
E9E
  8
0
 10
897.02423029662373
 20
382.89008900959942
 30
0.0
 11
1032.024230296623
 21
382.89008900959931
 31
0.0
  0
ARC
  5
E9F
  8
0
 10
908.52423029662373
 20
466.39008900959942
 30
0.0
 40
11.5
 50
330.61849827564839
 51
26.251213934945589
  0
ARC
  5
EA0
  8
0
 10
918.57448282831797
 20
451.39008900959919
 30
0.0
 40
1.5
 50
270.0
 51
45.000000000001521
  0
LINE
  5
EA1
  8
0
 10
915.96298233906384
 20
456.12290984241309
 30
0.0
 11
925.96358853476841
 21
446.12230364670842
 31
0.0
  0
LINE
  5
EA2
  8
0
 10
918.79140946380994
 20
458.95133696715931
 30
0.0
 11
928.79201565951473
 21
448.95073077145457
 31
0.0
  0
LINE
  5
EA3
  8
0
 10
902.77423029662361
 20
429.0900890095993
 30
0.0
 11
920.18475618562445
 21
429.0900890095993
 31
0.0
  0
LINE
  5
EA4
  8
0
 10
902.77423029662361
 20
431.69008900959921
 30
0.0
 11
920.18475618562445
 21
431.69008900959921
 31
0.0
  0
LINE
  5
EA5
  8
CENTER
  6
CENTER
 10
894.02423029662384
 20
430.39008900959931
 30
0.0
 11
1034.8700325755649
 21
430.39008900959931
 31
0.0
  0
LINE
  5
EA6
  8
0
 10
915.96298233906384
 20
404.65726817678541
 30
0.0
 11
925.96358853476841
 21
414.65787437249008
 31
0.0
  0
LINE
  5
EA7
  8
0
 10
918.79140946380994
 20
401.82884105203919
 30
0.0
 11
928.79201565951473
 21
411.82944724774387
 31
0.0
  0
ARC
  5
EA8
  8
0
 10
920.18345411298503
 20
388.64008900959931
 30
0.0
 40
1.5
 50
153.7487860649926
 51
270.0
  0
ARC
  5
EA9
  8
0
 10
908.52423029662373
 20
394.39008900959931
 30
0.0
 40
11.5
 50
333.74878606506348
 51
29.381501724351772
  0
LINE
  5
EAA
  8
0
 10
921.41957656404634
 20
423.73993711544978
 30
0.0
 11
902.77423029662361
 21
423.73993711544978
 31
0.0
  0
LINE
  5
EAB
  8
0
 10
921.07448282831774
 20
412.97389052250452
 30
0.0
 11
902.77423029662361
 21
412.97389052250452
 31
0.0
  0
LINE
  5
EAC
  8
0
 10
908.52423029662373
 20
383.14008900959931
 30
0.0
 11
980.52423029662361
 21
383.14008900959931
 31
0.0
  0
LINE
  5
EAD
  8
DIM
  6
CONTINUOUS
 10
897.0242302966235
 20
381.4601428038506
 30
0.0
 11
897.0242302966235
 21
294.48068207210309
 31
0.0
  0
SOLID
  5
EAE
  8
DIM
  6
CONTINUOUS
 10
900.02423029662373
 20
296.39008900959942
 30
0.0
 11
900.02423029662373
 21
295.39008900959942
 31
0.0
 12
897.02423029662373
 22
295.89008900959942
 32
0.0
 13
897.02423029662373
 23
295.89008900959942
 33
0.0
  0
SOLID
  5
EAF
  8
DIM
  6
CONTINUOUS
 10
900.02423029662373
 20
304.39008900959942
 30
0.0
 11
900.02423029662373
 21
303.39008900959942
 31
0.0
 12
897.02423029662373
 22
303.89008900959948
 32
0.0
 13
897.02423029662373
 23
303.89008900959948
 33
0.0
  0
POLYLINE
  5
EB0
  8
DIM
  6
CONTINUOUS
 66
     1
 10
0.0
 20
0.0
 30
0.0
 70
     1
  0
VERTEX
  5
1496
  8
DIM
  6
CONTINUOUS
 10
874.11121498229545
 20
427.32913083762418
 30
0.0
  0
VERTEX
  5
1497
  8
DIM
  6
CONTINUOUS
 10
874.11121498229545
 20
425.22913605780582
 30
0.0
  0
VERTEX
  5
1498
  8
DIM
  6
CONTINUOUS
 10
876.14147199165814
 20
425.22913605780582
 30
0.0
  0
VERTEX
  5
1499
  8
DIM
  6
CONTINUOUS
 10
876.14147199165814
 20
427.32913083762418
 30
0.0
  0
SEQEND
  5
149A
  8
DIM
  6
CONTINUOUS
  0
LINE
  5
EB6
  8
DIM
  6
CONTINUOUS
 10
878.02423029662361
 20
394.39008900959931
 30
0.0
 11
878.02423029662384
 21
466.39008900959942
 31
0.0
  0
LINE
  5
EB7
  8
0
 10
901.27423029662384
 20
406.0493128259605
 30
0.0
 11
901.27423029662384
 21
427.59008900959941
 31
0.0
  0
LINE
  5
EB8
  8
0
 10
897.27423029662373
 20
466.39008900959942
 30
0.0
 11
897.27423029662373
 21
394.39008900959931
 31
0.0
  0
LINE
  5
EB9
  8
DIM
  6
CONTINUOUS
 10
897.02423029662373
 20
394.39008900959931
 30
0.0
 11
877.02423029662361
 21
394.39008900959931
 31
0.0
  0
LINE
  5
EBA
  8
0
  6
CONTINUOUS
 10
888.02423029662373
 20
413.39008900959931
 30
0.0
 11
886.02423029662384
 21
411.39008900959931
 31
0.0
  0
LINE
  5
EBB
  8
0
  6
CONTINUOUS
 10
888.02423029662373
 20
401.39008900959931
 30
0.0
 11
886.02423029662384
 21
403.39008900959931
 31
0.0
  0
LINE
  5
EBC
  8
0
  6
CONTINUOUS
 62
     2
 10
889.02423029662373
 20
412.19008900959858
 30
0.0
 11
886.824230296623
 21
412.19008900959858
 31
0.0
  0
LINE
  5
EBD
  8
0
  6
CONTINUOUS
 62
     2
 10
889.02423029662373
 20
402.59008900960009
 30
0.0
 11
886.824230296623
 21
402.59008900960009
 31
0.0
  0
LINE
  5
EBE
  8
CENTER
  6
CENTER
 10
882.02423029662373
 20
407.39008900959931
 30
0.0
 11
917.23765431799995
 21
407.39008900959931
 31
0.0
  0
SOLID
  5
EBF
  8
DIM
  6
CONTINUOUS
 10
877.52423029662373
 20
397.39008900959931
 30
0.0
 11
878.52423029662373
 21
397.39008900959931
 31
0.0
 12
878.02423029662384
 22
394.39008900959931
 32
0.0
 13
878.02423029662384
 23
394.39008900959931
 33
0.0
  0
LINE
  5
EC0
  8
0
  6
CONTINUOUS
 10
886.02423029662384
 20
403.39008900959931
 30
0.0
 11
886.02423029662384
 21
411.39008900959931
 31
0.0
  0
ARC
  5
EC1
  8
0
  6
CONTINUOUS
 10
899.28645251884734
 20
402.64008900959942
 30
0.0
 40
10.338070658410899
 50
152.64729508745981
 51
207.3527049125401
  0
LINE
  5
EC2
  8
0
  6
CONTINUOUS
 10
888.02423029662373
 20
401.39008900959931
 30
0.0
 11
888.02423029662373
 21
413.39008900959931
 31
0.0
  0
LINE
  5
EC3
  8
0
  6
CONTINUOUS
 10
889.02423029662373
 20
401.39008900959931
 30
0.0
 11
889.02423029662373
 21
413.39008900959931
 31
0.0
  0
LINE
  5
EC4
  8
CENTER
  6
CENTER
 10
908.52423029662373
 20
404.89008900959931
 30
0.0
 11
908.52423029662373
 21
383.89008900959931
 31
0.0
  0
CIRCLE
  5
EC5
  8
0
 10
908.52423029662373
 20
394.39008900959931
 30
0.0
 40
9.0
  0
ARC
  5
EC6
  8
0
 10
908.52423029662373
 20
394.39008900959931
 30
0.0
 40
11.25
 50
180.0
 51
270.0
  0
ARC
  5
EC7
  8
0
 10
908.52423029662373
 20
394.39008900959931
 30
0.0
 40
11.5
 50
180.0
 51
270.0
  0
POLYLINE
  5
EC8
  8
0
  6
CONTINUOUS
 66
     1
 10
0.0
 20
0.0
 30
0.0
 70
     1
  0
VERTEX
  5
149B
  8
0
  6
CONTINUOUS
 10
905.63747895067559
 20
399.39008900959931
 30
0.0
  0
VERTEX
  5
149C
  8
0
  6
CONTINUOUS
 10
902.75072760472733
 20
394.39008900959931
 30
0.0
  0
VERTEX
  5
149D
  8
0
  6
CONTINUOUS
 10
905.63747895067559
 20
389.39008900959931
 30
0.0
  0
VERTEX
  5
149E
  8
0
  6
CONTINUOUS
 10
911.41098164257176
 20
389.39008900959931
 30
0.0
  0
VERTEX
  5
149F
  8
0
  6
CONTINUOUS
 10
914.29773298851978
 20
394.39008900959931
 30
0.0
  0
VERTEX
  5
14A0
  8
0
  6
CONTINUOUS
 10
911.41098164257176
 20
399.39008900959931
 30
0.0
  0
SEQEND
  5
14A1
  8
0
  6
CONTINUOUS
  0
LINE
  5
ED0
  8
CENTER
  6
CENTER
 10
898.02423029662373
 20
394.39008900959931
 30
0.0
 11
919.02423029662384
 21
394.39008900959931
 31
0.0
  0
LINE
  5
ED1
  8
0
  6
CONTINUOUS
 10
890.10423029662365
 20
397.89008900959931
 30
0.0
 11
897.02423029662373
 21
397.89008900959931
 31
0.0
  0
LINE
  5
ED2
  8
0
  6
CONTINUOUS
 10
889.02423029662373
 20
401.39008900959931
 30
0.0
 11
888.02423029662373
 21
401.39008900959931
 31
0.0
  0
ARC
  5
ED3
  8
0
 10
919.85206963558971
 20
400.76818088025942
 30
0.0
 40
1.5
 50
134.9999999999969
 51
209.3815017243528
  0
LINE
  5
ED4
  8
CENTER
  6
CENTER
 10
893.97809678225667
 20
420.39008900959931
 30
0.0
 11
916.52093828792522
 21
420.39008900959931
 31
0.0
  0
ARC
  5
ED5
  8
0
 10
908.52423029662373
 20
394.39008900959931
 30
0.0
 40
11.5
 50
60.618498275648491
 51
116.2512139349563
  0
ARC
  5
ED6
  8
0
  6
CONTINUOUS
 10
899.28645251884734
 20
412.14008900959931
 30
0.0
 40
10.338070658410899
 50
152.64729508745981
 51
207.3527049125401
  0
LINE
  5
ED7
  8
0
  6
CONTINUOUS
 10
897.02423029662373
 20
407.39008900959931
 30
0.0
 11
890.10423029662365
 21
407.39008900959931
 31
0.0
  0
LINE
  5
ED8
  8
0
  6
CONTINUOUS
 10
897.02423029662373
 20
407.39008900959931
 30
0.0
 11
890.10423029662365
 21
407.39008900959931
 31
0.0
  0
LINE
  5
ED9
  8
0
  6
CONTINUOUS
 10
889.02423029662373
 20
413.39008900959931
 30
0.0
 11
888.02423029662373
 21
413.39008900959931
 31
0.0
  0
ARC
  5
EDA
  8
0
 10
902.77423029662361
 20
411.47389052250458
 30
0.0
 40
1.5
 50
90.0
 51
180.0
  0
ARC
  5
EDB
  8
0
 10
902.77423029662361
 20
406.0493128259605
 30
0.0
 40
1.5
 50
180.0
 51
296.25121393495112
  0
LINE
  5
EDC
  8
0
  6
CONTINUOUS
 10
890.10423029662365
 20
416.89008900959942
 30
0.0
 11
897.02423029662373
 21
416.89008900959942
 31
0.0
  0
ARC
  5
EDD
  8
0
 10
902.77423029662361
 20
422.23993711544978
 30
0.0
 40
1.5
 50
90.0
 51
180.0
  0
ARC
  5
EDE
  8
0
 10
914.90232216728373
 20
405.71792834856529
 30
0.0
 40
1.5
 50
240.61849827564819
 51
314.99999999999841
  0
LINE
  5
EDF
  8
DIM
  6
CONTINUOUS
 10
897.02423029662373
 20
466.39008900959942
 30
0.0
 11
877.02423029662361
 21
466.39008900959942
 31
0.0
  0
TEXT
  5
EE0
  8
DIM
  6
CONTINUOUS
 10
876.52423029662373
 20
427.96151758102781
 30
0.0
 40
3.0
  1
72
 50
90.0
  7
ROMANSS
 72
     1
 11
875.02423029662373
 21
430.39008900959931
 31
0.0
 73
     2
  0
SOLID
  5
EE1
  8
DIM
  6
CONTINUOUS
 10
877.52423029662373
 20
463.39008900959931
 30
0.0
 11
878.52423029662373
 21
463.39008900959931
 31
0.0
 12
878.02423029662384
 22
466.39008900959942
 32
0.0
 13
878.02423029662384
 23
466.39008900959942
 33
0.0
  0
LINE
  5
EE2
  8
0
 10
901.27423029662384
 20
454.73086519323812
 30
0.0
 11
901.27423029662384
 21
433.19008900959932
 31
0.0
  0
LINE
  5
EE3
  8
CENTER
  6
CENTER
 10
893.80426932009266
 20
437.39008900959942
 30
0.0
 11
917.37730626642008
 21
437.39008900959942
 31
0.0
  0
ARC
  5
EE4
  8
0
 10
902.77423029662361
 20
427.59008900959941
 30
0.0
 40
1.5
 50
90.0
 51
180.0
  0
ARC
  5
EE5
  8
0
 10
902.77423029662361
 20
433.19008900959932
 30
0.0
 40
1.5
 50
180.0
 51
270.0
  0
ARC
  5
EE6
  8
0
 10
908.52423029662373
 20
466.39008900959942
 30
0.0
 40
11.5
 50
243.74878606504359
 51
299.38150172435149
  0
LINE
  5
EE7
  8
0
 10
918.57448282831797
 20
449.89008900959919
 30
0.0
 11
902.77423029662361
 21
449.89008900959919
 31
0.0
  0
POLYLINE
  5
EE8
  8
0
  6
CONTINUOUS
 66
     1
 10
0.0
 20
0.0
 30
0.0
 70
     1
  0
VERTEX
  5
14A2
  8
0
  6
CONTINUOUS
 10
905.63747895067559
 20
471.39008900959942
 30
0.0
  0
VERTEX
  5
14A3
  8
0
  6
CONTINUOUS
 10
902.75072760472733
 20
466.39008900959942
 30
0.0
  0
VERTEX
  5
14A4
  8
0
  6
CONTINUOUS
 10
905.63747895067559
 20
461.39008900959931
 30
0.0
  0
VERTEX
  5
14A5
  8
0
  6
CONTINUOUS
 10
911.41098164257176
 20
461.39008900959931
 30
0.0
  0
VERTEX
  5
14A6
  8
0
  6
CONTINUOUS
 10
914.29773298851978
 20
466.39008900959942
 30
0.0
  0
VERTEX
  5
14A7
  8
0
  6
CONTINUOUS
 10
911.41098164257176
 20
471.39008900959919
 30
0.0
  0
SEQEND
  5
14A8
  8
0
  6
CONTINUOUS
  0
LINE
  5
EF0
  8
CENTER
  6
CENTER
 10
898.02423029662373
 20
466.39008900959942
 30
0.0
 11
919.02423029662384
 21
466.39008900959942
 31
0.0
  0
ARC
  5
EF1
  8
0
 10
902.77423029662361
 20
454.73086519323812
 30
0.0
 40
1.5
 50
63.748786065048918
 51
180.0
  0
ARC
  5
EF2
  8
0
 10
902.77423029662361
 20
451.39008900959919
 30
0.0
 40
1.5
 50
180.0
 51
270.0
  0
ARC
  5
EF3
  8
0
 10
919.85206963558971
 20
460.01199713893919
 30
0.0
 40
1.5
 50
150.6184982756472
 51
225.00000000000151
  0
ARC
  5
EF4
  8
0
 10
914.90232216728373
 20
455.06224967063332
 30
0.0
 40
1.5
 50
45.000000000001521
 51
119.38150172435159
  0
LINE
  5
EF5
  8
DIM
  6
CONTINUOUS
 10
1032.024230296623
 20
381.5117494090934
 30
0.0
 11
1032.024230296623
 21
294.2358879502263
 31
0.0
  0
LINE
  5
EF6
  8
DIM
  6
CONTINUOUS
 10
992.02423029662361
 20
388.72608126493799
 30
0.0
 11
992.02423029662361
 21
313.50231847853161
 31
0.0
  0
LINE
  5
EF7
  8
0
 10
1028.524230296623
 20
382.89008900959931
 30
0.0
 11
1028.524230296623
 21
371.89008900959931
 31
0.0
  0
LINE
  5
EF8
  8
0
 10
932.52423029662339
 20
382.89008900959931
 30
0.0
 11
932.52423029662384
 21
371.89008900959942
 31
0.0
  0
LINE
  5
EF9
  8
DIM
  6
CONTINUOUS
 10
944.52423029662373
 20
311.89008900959948
 30
0.0
 11
1032.024230296623
 21
311.89008900959942
 31
0.0
  0
LINE
  5
EFA
  8
0
 10
932.52423029662384
 20
371.89008900959931
 30
0.0
 11
1028.524230296623
 21
371.89008900959931
 31
0.0
  0
LINE
  5
EFB
  8
0
 10
933.52423029662373
 20
370.89008900959942
 30
0.0
 11
1027.524230296623
 21
370.89008900959931
 31
0.0
  0
LINE
  5
EFC
  8
0
 10
932.52423029662384
 20
371.89008900959942
 30
0.0
 11
933.52423029662373
 21
370.89008900959942
 31
0.0
  0
LINE
  5
EFD
  8
DIM
  6
CONTINUOUS
 10
944.5242302966235
 20
377.71516149448308
 30
0.0
 11
944.52423029662373
 21
310.44327432999643
 31
0.0
  0
TEXT
  5
EFE
  8
DIM
  6
CONTINUOUS
 10
942.09565886805228
 20
305.39008900959942
 30
0.0
 40
3.0
  1
95
  7
ROMANSS
 72
     1
 11
944.52423029662373
 21
306.89008900959942
 31
0.0
 73
     2
  0
SOLID
  5
EFF
  8
DIM
  6
CONTINUOUS
 10
947.52423029662361
 20
312.39008900959948
 30
0.0
 11
947.52423029662361
 21
311.39008900959942
 31
0.0
 12
944.52423029662373
 22
311.89008900959942
 32
0.0
 13
944.52423029662373
 23
311.89008900959942
 33
0.0
  0
POLYLINE
  5
F00
  8
DIM
  6
CONTINUOUS
 66
     1
 10
0.0
 20
0.0
 30
0.0
 70
     1
  0
VERTEX
  5
14A9
  8
DIM
  6
CONTINUOUS
 10
941.49729298361797
 20
307.80760608954512
 30
0.0
  0
VERTEX
  5
14AA
  8
DIM
  6
CONTINUOUS
 10
941.49729298361797
 20
305.58067777554072
 30
0.0
  0
VERTEX
  5
14AB
  8
DIM
  6
CONTINUOUS
 10
939.39090944405018
 20
305.58067777554072
 30
0.0
  0
VERTEX
  5
14AC
  8
DIM
  6
CONTINUOUS
 10
939.39090944405018
 20
307.80760608954512
 30
0.0
  0
SEQEND
  5
14AD
  8
DIM
  6
CONTINUOUS
  0
TEXT
  5
F06
  8
DIM
  6
CONTINUOUS
 10
960.95280172519506
 20
297.39008900959942
 30
0.0
 40
3.0
  1
135
  7
ROMANSS
 72
     1
 11
964.52423029662361
 21
298.89008900959942
 31
0.0
 73
     2
  0
TEXT
  5
F07
  8
DIM
  6
CONTINUOUS
 10
960.16708743948095
 20
313.39008900959942
 30
0.0
 40
3.0
  1
36
  7
ROMANSS
 72
     1
 11
962.52423029662373
 21
314.89008900959942
 31
0.0
 73
     2
  0
SOLID
  5
F08
  8
DIM
  6
CONTINUOUS
 10
977.52423029662373
 20
312.39008900959948
 30
0.0
 11
977.52423029662373
 21
311.39008900959942
 31
0.0
 12
980.52423029662361
 22
311.89008900959942
 32
0.0
 13
980.52423029662361
 23
311.89008900959942
 33
0.0
  0
SOLID
  5
F09
  8
DIM
  6
CONTINUOUS
 10
983.52423029662373
 20
312.39008900959948
 30
0.0
 11
983.52423029662373
 21
311.39008900959942
 31
0.0
 12
980.52423029662361
 22
311.89008900959942
 32
0.0
 13
980.52423029662361
 23
311.89008900959942
 33
0.0
  0
LINE
  5
F0A
  8
DIM
  6
CONTINUOUS
 10
980.52423029662361
 20
315.89008900959931
 30
0.0
 11
980.52423029662361
 21
310.89008900959942
 31
0.0
  0
LINE
  5
F0B
  8
DIM
  6
CONTINUOUS
 10
980.52423029662361
 20
315.89008900959931
 30
0.0
 11
980.52423029662361
 21
310.89008900959942
 31
0.0
  0
LINE
  5
F0C
  8
DIM
  6
CONTINUOUS
 10
992.02423029662361
 20
310.6729648868934
 30
0.0
 11
992.02423029662361
 21
302.89008900959942
 31
0.0
  0
SOLID
  5
F0D
  8
DIM
  6
CONTINUOUS
 10
989.02423029662373
 20
304.39008900959942
 30
0.0
 11
989.02423029662373
 21
303.39008900959942
 31
0.0
 12
992.02423029662361
 22
303.89008900959948
 32
0.0
 13
992.02423029662361
 23
303.89008900959948
 33
0.0
  0
TEXT
  5
F0E
  8
DIM
  6
CONTINUOUS
 10
1001.9885160109091
 20
313.39008900959942
 30
0.0
 40
3.0
  1
51.5
  7
ROMANSS
 72
     1
 11
1006.274230296623
 21
314.89008900959942
 31
0.0
 73
     2
  0
SOLID
  5
F0F
  8
DIM
  6
CONTINUOUS
 10
1029.024230296623
 20
296.39008900959942
 30
0.0
 11
1029.024230296623
 21
295.39008900959942
 31
0.0
 12
1032.024230296623
 22
295.89008900959942
 32
0.0
 13
1032.024230296623
 23
295.89008900959942
 33
0.0
  0
LINE
  5
F10
  8
DIM
  6
CONTINUOUS
 10
1028.524230296623
 20
370.89008900959931
 30
0.0
 11
1041.2981756427951
 21
370.89008900959931
 31
0.0
  0
SOLID
  5
F11
  8
DIM
  6
CONTINUOUS
 10
1029.024230296623
 20
312.39008900959948
 30
0.0
 11
1029.024230296623
 21
311.39008900959942
 31
0.0
 12
1032.024230296623
 22
311.89008900959942
 32
0.0
 13
1032.024230296623
 23
311.89008900959942
 33
0.0
  0
LINE
  5
F12
  8
0
 10
1028.524230296623
 20
371.89008900959931
 30
0.0
 11
1027.524230296623
 21
370.89008900959931
 31
0.0
  0
TEXT
  5
F13
  8
DIM
  6
CONTINUOUS
 10
1038.524230296623
 20
374.74723186674208
 30
0.0
 40
3.0
  1
12
 50
90.0
  7
ROMANSS
 72
     1
 11
1037.024230296623
 21
376.89008900959931
 31
0.0
 73
     2
  0
SOLID
  5
F14
  8
DIM
  6
CONTINUOUS
 10
1039.524230296623
 20
373.89008900959931
 30
0.0
 11
1040.524230296623
 21
373.89008900959931
 31
0.0
 12
1040.024230296623
 22
370.89008900959931
 32
0.0
 13
1040.024230296623
 23
370.89008900959931
 33
0.0
  0
LINE
  5
F15
  8
CENTER
  6
CENTER
 10
970.02423029662384
 20
466.39008900959942
 30
0.0
 11
991.02423029662373
 21
466.39008900959942
 31
0.0
  0
POLYLINE
  5
F16
  8
0
  6
CONTINUOUS
 66
     1
 10
0.0
 20
0.0
 30
0.0
 70
     1
  0
VERTEX
  5
14AE
  8
0
  6
CONTINUOUS
 10
977.63747895067547
 20
471.39008900959942
 30
0.0
  0
VERTEX
  5
14AF
  8
0
  6
CONTINUOUS
 10
974.75072760472744
 20
466.39008900959942
 30
0.0
  0
VERTEX
  5
14B0
  8
0
  6
CONTINUOUS
 10
977.63747895067547
 20
461.39008900959931
 30
0.0
  0
VERTEX
  5
14B1
  8
0
  6
CONTINUOUS
 10
983.41098164257187
 20
461.39008900959931
 30
0.0
  0
VERTEX
  5
14B2
  8
0
  6
CONTINUOUS
 10
986.29773298851967
 20
466.39008900959942
 30
0.0
  0
VERTEX
  5
14B3
  8
0
  6
CONTINUOUS
 10
983.41098164257187
 20
471.39008900959919
 30
0.0
  0
SEQEND
  5
14B4
  8
0
  6
CONTINUOUS
  0
ARC
  5
F1E
  8
0
 10
986.27423029662373
 20
454.73086519323812
 30
0.0
 40
1.5
 50
0.0
 51
116.2512139349608
  0
LINE
  5
F1F
  8
0
 10
986.27423029662373
 20
440.39008900959931
 30
0.0
 11
966.1575379494077
 21
440.39008900959931
 31
0.0
  0
LINE
  5
F20
  8
0
 10
986.27423029662373
 20
431.69008900959921
 30
0.0
 11
968.86370440762278
 21
431.69008900959921
 31
0.0
  0
LINE
  5
F21
  8
0
 10
986.27423029662373
 20
429.0900890095993
 30
0.0
 11
968.86370440762278
 21
429.0900890095993
 31
0.0
  0
ARC
  5
F22
  8
0
 10
986.27423029662373
 20
406.0493128259605
 30
0.0
 40
1.5
 50
243.74878606503921
 51
0.0
  0
LINE
  5
F23
  8
0
 10
986.27423029662373
 20
420.39008900959931
 30
0.0
 11
966.1575379494077
 21
420.39008900959931
 31
0.0
  0
LINE
  5
F24
  8
CENTER
  6
CENTER
 10
970.02423029662384
 20
394.39008900959931
 30
0.0
 11
991.02423029662373
 21
394.39008900959931
 31
0.0
  0
POLYLINE
  5
F25
  8
0
  6
CONTINUOUS
 66
     1
 10
0.0
 20
0.0
 30
0.0
 70
     1
  0
VERTEX
  5
14B5
  8
0
  6
CONTINUOUS
 10
977.63747895067547
 20
399.39008900959931
 30
0.0
  0
VERTEX
  5
14B6
  8
0
  6
CONTINUOUS
 10
974.75072760472744
 20
394.39008900959931
 30
0.0
  0
VERTEX
  5
14B7
  8
0
  6
CONTINUOUS
 10
977.63747895067547
 20
389.39008900959931
 30
0.0
  0
VERTEX
  5
14B8
  8
0
  6
CONTINUOUS
 10
983.41098164257187
 20
389.39008900959931
 30
0.0
  0
VERTEX
  5
14B9
  8
0
  6
CONTINUOUS
 10
986.29773298851967
 20
394.39008900959931
 30
0.0
  0
VERTEX
  5
14BA
  8
0
  6
CONTINUOUS
 10
983.41098164257187
 20
399.39008900959931
 30
0.0
  0
SEQEND
  5
14BB
  8
0
  6
CONTINUOUS
  0
CIRCLE
  5
F2D
  8
0
 10
980.52423029662361
 20
394.39008900959931
 30
0.0
 40
9.0
  0
ARC
  5
F2E
  8
0
 10
980.52423029662361
 20
394.39008900959931
 30
0.0
 40
11.25
 50
270.0
 51
0.0
  0
ARC
  5
F2F
  8
0
 10
980.52423029662361
 20
394.39008900959931
 30
0.0
 40
11.5
 50
270.0
 51
0.0
  0
ARC
  5
F30
  8
0
 10
944.52423029662373
 20
430.39008900959931
 30
0.0
 40
23.0
 50
323.21321070173821
 51
353.43757213136593
  0
ARC
  5
F31
  8
0
 10
944.52423029662373
 20
430.39008900959931
 30
0.0
 40
23.0
 50
186.56242786863399
 51
216.7867892982616
  0
CIRCLE
  5
F32
  8
0
 10
944.52423029662373
 20
430.39008900959931
 30
0.0
 40
22.5
  0
LINE
  5
F33
  8
0
 10
968.8650064802622
 20
387.14008900959931
 30
0.0
 11
947.32423029662368
 21
387.14008900959931
 31
0.0
  0
ARC
  5
F34
  8
0
 10
944.52423029662373
 20
430.39008900959931
 30
0.0
 40
23.0
 50
276.56242786863402
 51
306.78678929826151
  0
ARC
  5
F35
  8
0
 10
944.52423029662373
 20
430.39008900959931
 30
0.0
 40
35.5
 50
229.98854197555599
 51
251.4071774505731
  0
LINE
  5
F36
  8
0
 10
943.22423029662366
 20
388.64008900959931
 30
0.0
 11
943.22423029662366
 21
406.05061489859997
 31
0.0
  0
LINE
  5
F37
  8
0
 10
945.82423029662368
 20
388.64008900959931
 30
0.0
 11
945.82423029662368
 21
406.05061489859997
 31
0.0
  0
LINE
  5
F38
  8
0
 10
934.52423029662373
 20
388.64008900959931
 30
0.0
 11
934.52423029662373
 21
408.75678135681528
 31
0.0
  0
LINE
  5
F39
  8
0
 10
920.18345411298503
 20
387.14008900959931
 30
0.0
 11
941.72423029662377
 21
387.14008900959931
 31
0.0
  0
ARC
  5
F3A
  8
0
 10
933.02423029662373
 20
388.64008900959931
 30
0.0
 40
1.5
 50
270.0
 51
0.0
  0
ARC
  5
F3B
  8
0
 10
933.52423029662373
 20
397.6907006361144
 30
0.0
 40
1.0
 50
251.40717745056719
 51
0.0
  0
ARC
  5
F3C
  8
0
 10
941.72423029662377
 20
388.64008900959931
 30
0.0
 40
1.5
 50
270.0
 51
0.0
  0
ARC
  5
F3D
  8
0
 10
947.32423029662368
 20
388.64008900959931
 30
0.0
 40
1.5
 50
180.0
 51
270.0
  0
ARC
  5
F3E
  8
0
 10
944.52423029662373
 20
430.39008900959931
 30
0.0
 40
23.0
 50
233.21321070173829
 51
263.43757213136541
  0
ARC
  5
F3F
  8
0
 10
921.07448282831774
 20
411.47389052250458
 30
0.0
 40
1.5
 50
351.50526946671789
 51
90.0
  0
ARC
  5
F40
  8
0
 10
922.34277302115402
 20
403.96599104701022
 30
0.0
 40
1.0
 50
135.00000000000219
 51
229.98854197554681
  0
ARC
  5
F41
  8
0
 10
933.02423029662373
 20
408.75678135681528
 30
0.0
 40
1.5
 50
0.0
 51
62.005438267749533
  0
ARC
  5
F42
  8
0
 10
929.85267583129428
 20
410.7687870759641
 30
0.0
 40
1.5
 50
53.213210701744771
 51
134.9999999999969
  0
ARC
  5
F43
  8
0
 10
924.90292836298852
 20
415.71853454426991
 30
0.0
 40
1.5
 50
314.99999999999841
 51
36.786789298261731
  0
ARC
  5
F44
  8
0
 10
921.41957656404634
 20
422.23993711544978
 30
0.0
 40
1.5
 50
19.43026151964801
 51
90.0
  0
ARC
  5
F45
  8
0
 10
941.72423029662377
 20
406.05061489859997
 30
0.0
 40
1.5
 50
0.0
 51
83.437572131365485
  0
ARC
  5
F46
  8
0
 10
947.32423029662368
 20
406.05061489859997
 30
0.0
 40
1.5
 50
96.562427868634515
 51
180.0
  0
LINE
  5
F47
  8
0
 10
970.25705112943751
 20
401.82884105203919
 30
0.0
 11
960.25644493373295
 21
411.82944724774387
 31
0.0
  0
LINE
  5
F48
  8
0
 10
954.52423029662361
 20
388.64008900959931
 30
0.0
 11
954.52423029662361
 21
408.75678135681528
 31
0.0
  0
ARC
  5
F49
  8
0
 10
944.52423029662373
 20
430.39008900959931
 30
0.0
 40
35.5
 50
288.59282254942627
 51
310.01145802444398
  0
ARC
  5
F4A
  8
0
 10
968.8650064802622
 20
388.64008900959931
 30
0.0
 40
1.5
 50
270.0
 51
26.25121393499963
  0
ARC
  5
F4B
  8
0
 10
980.52423029662361
 20
394.39008900959931
 30
0.0
 40
11.5
 50
150.61849827564819
 51
206.25121393492699
  0
ARC
  5
F4C
  8
0
 10
956.02423029662373
 20
388.64008900959931
 30
0.0
 40
1.5
 50
180.0
 51
270.0
  0
ARC
  5
F4D
  8
0
 10
955.52423029662361
 20
397.6907006361144
 30
0.0
 40
1.0
 50
180.0
 51
288.59282254941832
  0
ARC
  5
F4E
  8
0
 10
969.19639095765774
 20
400.76818088025942
 30
0.0
 40
1.5
 50
330.6184982756472
 51
45.000000000003062
  0
LINE
  5
F4F
  8
0
 10
973.08547825418384
 20
404.65726817678541
 30
0.0
 11
963.08487205847905
 21
414.65787437249008
 31
0.0
  0
ARC
  5
F50
  8
0
 10
959.19578476195295
 20
410.7687870759641
 30
0.0
 40
1.5
 50
45.000000000001521
 51
126.78678929826469
  0
ARC
  5
F51
  8
0
 10
956.02423029662373
 20
408.75678135681528
 30
0.0
 40
1.5
 50
117.9945617322601
 51
180.0
  0
ARC
  5
F52
  8
0
 10
966.70568757209344
 20
403.96599104701022
 30
0.0
 40
1.0
 50
310.01145802444393
 51
45.000000000006899
  0
ARC
  5
F53
  8
0
 10
966.1575379494077
 20
418.89008900959931
 30
0.0
 40
1.5
 50
90.0
 51
152.00543826774759
  0
ARC
  5
F54
  8
0
 10
964.14553223025905
 20
415.71853454427003
 30
0.0
 40
1.5
 50
143.21321070173821
 51
225.00000000000151
  0
ARC
  5
F55
  8
0
 10
944.52423029662373
 20
430.39008900959931
 30
0.0
 40
35.5
 50
319.98854197555619
 51
341.40717745057339
  0
ARC
  5
F56
  8
0
 10
980.52423029662361
 20
394.39008900959931
 30
0.0
 40
11.5
 50
63.748786065044897
 51
119.38150172435149
  0
ARC
  5
F57
  8
0
 10
970.94832825921276
 20
408.20863173412948
 30
0.0
 40
1.0
 50
224.99999999999761
 51
319.98854197555391
  0
ARC
  5
F58
  8
0
 10
974.14613842596339
 20
405.71792834856529
 30
0.0
 40
1.5
 50
224.99999999999531
 51
299.38150172435172
  0
ARC
  5
F59
  8
0
 10
977.22361867010864
 20
419.39008900959931
 30
0.0
 40
1.0
 50
341.40717745057128
 51
90.0
  0
ARC
  5
F5A
  8
0
 10
944.52423029662373
 20
430.39008900959931
 30
0.0
 40
23.0
 50
53.213210701738348
 51
83.437572131365954
  0
ARC
  5
F5B
  8
0
 10
929.85267583129428
 20
450.01139094323457
 30
0.0
 40
1.5
 50
225.00000000000151
 51
306.7867892982552
  0
ARC
  5
F5C
  8
0
 10
944.52423029662373
 20
430.39008900959931
 30
0.0
 40
23.0
 50
143.2132107017386
 51
173.43757213136581
  0
ARC
  5
F5D
  8
0
 10
920.18475618562445
 20
433.19008900959932
 30
0.0
 40
1.5
 50
270.0
 51
353.43757213136541
  0
ARC
  5
F5E
  8
0
 10
920.18475618562445
 20
427.59008900959941
 30
0.0
 40
1.5
 50
6.5624278686345097
 51
90.0
  0
ARC
  5
F5F
  8
0
 10
924.9029283629884
 20
445.0616434749287
 30
0.0
 40
1.5
 50
323.21321070173991
 51
45.000000000001521
  0
ARC
  5
F60
  8
0
 10
944.52423029662373
 20
430.39008900959931
 30
0.0
 40
23.0
 50
96.562427868634586
 51
126.7867892982615
  0
ARC
  5
F61
  8
0
 10
944.52423029662373
 20
430.39008900959931
 30
0.0
 40
35.5
 50
108.5928225494267
 51
130.0114580244439
  0
ARC
  5
F62
  8
0
 10
922.34277302115402
 20
456.81418697218828
 30
0.0
 40
1.0
 50
130.011458024446
 51
224.99999999999761
  0
ARC
  5
F63
  8
0
 10
933.02423029662373
 20
452.02339666238328
 30
0.0
 40
1.5
 50
297.99456173225042
 51
0.0
  0
ARC
  5
F64
  8
0
 10
933.52423029662373
 20
463.0894773830841
 30
0.0
 40
1.0
 50
0.0
 51
108.5928225494327
  0
ARC
  5
F65
  8
0
 10
941.72423029662377
 20
454.72956312059858
 30
0.0
 40
1.5
 50
276.56242786863447
 51
0.0
  0
ARC
  5
F66
  8
0
 10
947.32423029662368
 20
454.72956312059858
 30
0.0
 40
1.5
 50
180.0
 51
263.43757213136541
  0
ARC
  5
F67
  8
0
 10
944.52423029662373
 20
430.39008900959931
 30
0.0
 40
35.5
 50
18.592822549426781
 51
40.011458024444032
  0
ARC
  5
F68
  8
0
 10
959.19578476195295
 20
450.01139094323457
 30
0.0
 40
1.5
 50
233.21321070173519
 51
314.99999999999841
  0
LINE
  5
F69
  8
0
 10
973.08547825418384
 20
456.12290984241309
 30
0.0
 11
963.08487205847905
 21
446.12230364670842
 31
0.0
  0
ARC
  5
F6A
  8
0
 10
944.52423029662373
 20
430.39008900959931
 30
0.0
 40
23.0
 50
6.5624278686341668
 51
36.78678929826215
  0
ARC
  5
F6B
  8
0
 10
968.86370440762278
 20
433.19008900959932
 30
0.0
 40
1.5
 50
186.5624278686345
 51
270.0
  0
ARC
  5
F6C
  8
0
 10
968.86370440762278
 20
427.59008900959941
 30
0.0
 40
1.5
 50
90.0
 51
173.4375721313655
  0
ARC
  5
F6D
  8
0
 10
964.14553223025882
 20
445.0616434749287
 30
0.0
 40
1.5
 50
135.0000000000046
 51
216.78678929826171
  0
ARC
  5
F6E
  8
0
 10
966.1575379494077
 20
441.89008900959942
 30
0.0
 40
1.5
 50
207.99456173225039
 51
270.0
  0
ARC
  5
F6F
  8
0
 10
977.22361867010864
 20
441.39008900959942
 30
0.0
 40
1.0
 50
270.0
 51
18.59282254942865
  0
ARC
  5
F70
  8
0
 10
980.52423029662361
 20
466.39008900959942
 30
0.0
 40
11.5
 50
153.74878606506371
 51
209.38150172435141
  0
LINE
  5
F71
  8
0
 10
970.25705112943751
 20
458.95133696715931
 30
0.0
 11
960.25644493373295
 21
448.95073077145457
 31
0.0
  0
ARC
  5
F72
  8
0
 10
944.52423029662373
 20
430.39008900959931
 30
0.0
 40
35.5
 50
49.988541975556039
 51
71.407177450573585
  0
ARC
  5
F73
  8
0
 10
956.02423029662373
 20
452.02339666238328
 30
0.0
 40
1.5
 50
180.0
 51
242.00543826773981
  0
ARC
  5
F74
  8
0
 10
966.70568757209344
 20
456.81418697218828
 30
0.0
 40
1.0
 50
314.99999999999301
 51
49.988541975563173
  0
ARC
  5
F75
  8
0
 10
955.52423029662361
 20
463.0894773830841
 30
0.0
 40
1.0
 50
71.407177450581642
 51
180.0
  0
ARC
  5
F76
  8
0
 10
969.19639095765774
 20
460.01199713893919
 30
0.0
 40
1.5
 50
314.99999999999841
 51
29.38150172435277
  0
ARC
  5
F77
  8
0
 10
980.52423029662361
 20
466.39008900959942
 30
0.0
 40
11.5
 50
240.61849827564839
 51
296.25121393495499
  0
ARC
  5
F78
  8
0
 10
970.94832825921276
 20
452.57154628506908
 30
0.0
 40
1.0
 50
40.011458024446
 51
135.00000000000219
  0
ARC
  5
F79
  8
0
 10
974.14613842596339
 20
455.06224967063332
 30
0.0
 40
1.5
 50
60.618498275648292
 51
135.0000000000046
  0
LINE
  5
F7A
  8
0
 10
987.77423029662384
 20
406.0493128259605
 30
0.0
 11
987.77423029662384
 21
427.59008900959941
 31
0.0
  0
LINE
  5
F7B
  8
0
 10
991.77423029662373
 20
466.39008900959942
 30
0.0
 11
991.77423029662373
 21
394.39008900959931
 31
0.0
  0
LINE
  5
F7C
  8
0
 10
992.02423029662361
 20
466.39008900959942
 30
0.0
 11
992.02423029662361
 21
394.39008900959931
 31
0.0
  0
ARC
  5
F7D
  8
0
 10
986.27423029662373
 20
418.89008900959931
 30
0.0
 40
1.5
 50
0.0
 51
90.0
  0
LINE
  5
F7E
  8
DIM
  6
CONTINUOUS
 10
1033.024230296623
 20
382.89008900959931
 30
0.0
 11
1041.024230296623
 21
382.89008900959931
 31
0.0
  0
SOLID
  5
F7F
  8
DIM
  6
CONTINUOUS
 10
1039.524230296623
 20
379.89008900959931
 30
0.0
 11
1040.524230296623
 21
379.89008900959931
 31
0.0
 12
1040.024230296623
 22
382.89008900959931
 32
0.0
 13
1040.024230296623
 23
382.89008900959931
 33
0.0
  0
LINE
  5
F80
  8
0
 10
987.77423029662384
 20
454.73086519323812
 30
0.0
 11
987.77423029662384
 21
433.19008900959932
 31
0.0
  0
ARC
  5
F81
  8
0
 10
986.27423029662373
 20
427.59008900959941
 30
0.0
 40
1.5
 50
0.0
 51
90.0
  0
ARC
  5
F82
  8
0
 10
986.27423029662373
 20
433.19008900959932
 30
0.0
 40
1.5
 50
270.0
 51
0.0
  0
ARC
  5
F83
  8
0
 10
986.27423029662373
 20
441.89008900959942
 30
0.0
 40
1.5
 50
270.0
 51
0.0
  0
TEXT
  5
F84
  8
DIM
  6
CONTINUOUS
 10
1038.524230296623
 20
428.47514934973822
 30
0.0
 40
3.0
  1
95
 50
90.0
  7
ROMANSS
 72
     1
 11
1037.024230296623
 21
430.90372077830961
 31
0.0
 73
     2
  0
TEXT
  5
F85
  8
DIM
  6
CONTINUOUS
 10
1046.524230296623
 20
427.67530913294678
 30
0.0
 40
3.0
  1
221
 50
90.0
  7
ROMANSS
 72
     1
 11
1045.024230296623
 21
430.8895948472325
 31
0.0
 73
     2
  0
LINE
  5
F86
  8
0
 10
897.02423029662373
 20
477.89008900959931
 30
0.0
 11
1032.024230296623
 21
477.89008900959931
 31
0.0
  0
LINE
  5
F87
  8
0
 10
908.52423029662373
 20
477.64008900959942
 30
0.0
 11
980.52423029662361
 21
477.64008900959942
 31
0.0
  0
TEXT
  5
F88
  8
DIM
  6
CONTINUOUS
 10
868.22407774180476
 20
494.45964994324908
 30
0.0
 40
3.0
  1
2x4-M10x15L
  7
ROMANSS
 72
     2
 11
897.93836345609066
 21
495.95964994324908
 31
0.0
 73
     2
  0
LINE
  5
F89
  8
DIM
  6
CONTINUOUS
 10
898.34999946557616
 20
492.95964994324908
 30
0.0
 11
870.81336345609066
 21
492.95964994324908
 31
0.0
  0
LINE
  5
F8A
  8
DIM
  6
CONTINUOUS
 10
906.14032111129154
 20
474.0077580495074
 30
0.0
 11
898.34999946557616
 21
492.95964994324908
 31
0.0
  0
LINE
  5
F8B
  8
0
 10
963.02423029662373
 20
490.89008900959948
 30
0.0
 11
998.02423029662373
 21
490.89008900959948
 31
0.0
  0
LINE
  5
F8C
  8
0
 10
967.52423029662373
 20
540.89008900959948
 30
0.0
 11
993.52423029662373
 21
540.89008900959948
 31
0.0
  0
LINE
  5
F8D
  8
0
 10
966.52423029662373
 20
539.89008900959936
 30
0.0
 11
994.52423029662373
 21
539.89008900959936
 31
0.0
  0
LINE
  5
F8E
  8
0
 10
932.52423029662384
 20
488.89008900959931
 30
0.0
 11
1028.524230296623
 21
488.89008900959942
 31
0.0
  0
LINE
  5
F8F
  8
0
 10
933.52423029662373
 20
489.89008900959942
 30
0.0
 11
1027.524230296623
 21
489.89008900959942
 31
0.0
  0
LINE
  5
F90
  8
0
 10
966.52423029662373
 20
539.89008900959936
 30
0.0
 11
966.52423029662373
 21
490.89008900959948
 31
0.0
  0
LINE
  5
F91
  8
0
 10
968.8650064802622
 20
473.64008900959931
 30
0.0
 11
947.32423029662368
 21
473.64008900959931
 31
0.0
  0
LINE
  5
F92
  8
0
 10
920.18345411298503
 20
473.64008900959931
 30
0.0
 11
941.72423029662377
 21
473.64008900959931
 31
0.0
  0
LINE
  5
F93
  8
0
 10
932.52423029662384
 20
488.89008900959942
 30
0.0
 11
932.52423029662339
 21
477.89008900959931
 31
0.0
  0
ARC
  5
F94
  8
0
 10
933.02423029662373
 20
472.14008900959931
 30
0.0
 40
1.5
 50
0.0
 51
90.0
  0
LINE
  5
F95
  8
0
 10
933.52423029662373
 20
489.89008900959942
 30
0.0
 11
932.52423029662384
 21
488.89008900959942
 31
0.0
  0
ARC
  5
F96
  8
0
 10
941.72423029662377
 20
472.14008900959931
 30
0.0
 40
1.5
 50
0.0
 51
90.0
  0
ARC
  5
F97
  8
0
 10
947.32423029662368
 20
472.14008900959931
 30
0.0
 40
1.5
 50
90.0
 51
180.0
  0
ARC
  5
F98
  8
0
 10
956.02423029662373
 20
472.14008900959931
 30
0.0
 40
1.5
 50
90.0
 51
180.0
  0
LINE
  5
F99
  8
0
 10
963.02423029662373
 20
490.89008900959948
 30
0.0
 11
963.02423029662373
 21
489.89008900959942
 31
0.0
  0
LINE
  5
F9A
  8
0
 10
967.52423029662373
 20
540.89008900959948
 30
0.0
 11
966.52423029662373
 21
539.89008900959936
 31
0.0
  0
LINE
  5
F9B
  8
0
 10
994.52423029662373
 20
539.89008900959936
 30
0.0
 11
994.52423029662373
 21
490.89008900959948
 31
0.0
  0
LINE
  5
F9C
  8
0
 10
998.02423029662373
 20
490.89008900959948
 30
0.0
 11
998.02423029662373
 21
489.89008900959942
 31
0.0
  0
LINE
  5
F9D
  8
DIM
  6
CONTINUOUS
 10
1028.524230296623
 20
489.89008900959931
 30
0.0
 11
1041.024230296623
 21
489.89008900959931
 31
0.0
  0
LINE
  5
F9E
  8
DIM
  6
CONTINUOUS
 10
1033.024230296623
 20
477.89008900959931
 30
0.0
 11
1041.024230296623
 21
477.89008900959931
 31
0.0
  0
LINE
  5
F9F
  8
0
 10
1028.524230296623
 20
488.89008900959942
 30
0.0
 11
1028.524230296623
 21
477.89008900959931
 31
0.0
  0
LINE
  5
FA0
  8
0
 10
1027.524230296623
 20
489.89008900959942
 30
0.0
 11
1028.524230296623
 21
488.89008900959942
 31
0.0
  0
TEXT
  5
FA1
  8
DIM
  6
CONTINUOUS
 10
1038.524230296623
 20
481.67963315811062
 30
0.0
 40
3.0
  1
12
 50
90.0
  7
ROMANSS
 72
     1
 11
1037.024230296623
 21
483.82249030096779
 31
0.0
 73
     2
  0
SOLID
  5
FA2
  8
DIM
  6
CONTINUOUS
 10
1039.524230296623
 20
480.89008900959931
 30
0.0
 11
1040.524230296623
 21
480.89008900959931
 31
0.0
 12
1040.024230296623
 22
477.89008900959931
 32
0.0
 13
1040.024230296623
 23
477.89008900959931
 33
0.0
  0
SOLID
  5
FA3
  8
DIM
  6
CONTINUOUS
 10
1039.524230296623
 20
486.89008900959931
 30
0.0
 11
1040.524230296623
 21
486.89008900959931
 31
0.0
 12
1040.024230296623
 22
489.89008900959931
 32
0.0
 13
1040.024230296623
 23
489.89008900959931
 33
0.0
  0
LINE
  5
FA4
  8
DIM
  6
CONTINUOUS
 10
994.52423029662373
 20
540.89008900959948
 30
0.0
 11
1049.024230296623
 21
540.89008900959948
 31
0.0
  0
LINE
  5
FA5
  8
0
 10
993.52423029662373
 20
540.89008900959948
 30
0.0
 11
994.52423029662373
 21
539.89008900959936
 31
0.0
  0
SOLID
  5
FA6
  8
DIM
  6
CONTINUOUS
 10
1047.524230296623
 20
537.89008900959936
 30
0.0
 11
1048.524230296623
 21
537.89008900959936
 31
0.0
 12
1048.024230296623
 22
540.89008900959948
 32
0.0
 13
1048.024230296623
 23
540.89008900959948
 33
0.0
  0
CIRCLE
  5
FA7
  8
0
  6
CONTINUOUS
 10
648.88154535456874
 20
210.95347684907881
 30
0.0
 40
6.5
  0
CIRCLE
  5
FA8
  8
0
  6
CONTINUOUS
 10
648.88154535456874
 20
210.95347684907881
 30
0.0
 40
5.9226327944572761
  0
POLYLINE
  5
FA9
  8
0
  6
CONTINUOUS
 66
     1
 10
0.0
 20
0.0
 30
0.0
 70
     1
  0
VERTEX
  5
14BC
  8
0
  6
CONTINUOUS
 10
647.14949454700059
 20
207.95347684907881
 30
0.0
  0
VERTEX
  5
14BD
  8
0
  6
CONTINUOUS
 10
645.41744373943061
 20
210.95347684907881
 30
0.0
  0
VERTEX
  5
14BE
  8
0
  6
CONTINUOUS
 10
647.14949454700059
 20
213.95347684907881
 30
0.0
  0
VERTEX
  5
14BF
  8
0
  6
CONTINUOUS
 10
650.61359616213679
 20
213.95347684907881
 30
0.0
  0
VERTEX
  5
14C0
  8
0
  6
CONTINUOUS
 10
652.34564696970688
 20
210.95347684907881
 30
0.0
  0
VERTEX
  5
14C1
  8
0
  6
CONTINUOUS
 10
650.61359616213679
 20
207.95347684907881
 30
0.0
  0
SEQEND
  5
14C2
  8
0
  6
CONTINUOUS
  0
CIRCLE
  5
FB1
  8
0
  6
CONTINUOUS
 10
609.88154535456874
 20
171.9534768490789
 30
0.0
 40
6.5
  0
CIRCLE
  5
FB2
  8
0
  6
CONTINUOUS
 10
609.88154535456874
 20
171.9534768490789
 30
0.0
 40
5.9226327944572761
  0
POLYLINE
  5
FB3
  8
0
  6
CONTINUOUS
 66
     1
 10
0.0
 20
0.0
 30
0.0
 70
     1
  0
VERTEX
  5
14C3
  8
0
  6
CONTINUOUS
 10
608.14949454700047
 20
168.9534768490789
 30
0.0
  0
VERTEX
  5
14C4
  8
0
  6
CONTINUOUS
 10
606.41744373943061
 20
171.95347684907881
 30
0.0
  0
VERTEX
  5
14C5
  8
0
  6
CONTINUOUS
 10
608.14949454700047
 20
174.95347684907881
 30
0.0
  0
VERTEX
  5
14C6
  8
0
  6
CONTINUOUS
 10
611.6135961621369
 20
174.95347684907881
 30
0.0
  0
VERTEX
  5
14C7
  8
0
  6
CONTINUOUS
 10
613.34564696970676
 20
171.95347684907881
 30
0.0
  0
VERTEX
  5
14C8
  8
0
  6
CONTINUOUS
 10
611.6135961621369
 20
168.9534768490789
 30
0.0
  0
SEQEND
  5
14C9
  8
0
  6
CONTINUOUS
  0
CIRCLE
  5
FBB
  8
0
  6
CONTINUOUS
 10
648.88154535456874
 20
132.95347684907881
 30
0.0
 40
6.5
  0
CIRCLE
  5
FBC
  8
0
  6
CONTINUOUS
 10
648.88154535456874
 20
132.95347684907881
 30
0.0
 40
5.9226327944572761
  0
POLYLINE
  5
FBD
  8
0
  6
CONTINUOUS
 66
     1
 10
0.0
 20
0.0
 30
0.0
 70
     1
  0
VERTEX
  5
14CA
  8
0
  6
CONTINUOUS
 10
647.14949454700059
 20
129.95347684907881
 30
0.0
  0
VERTEX
  5
14CB
  8
0
  6
CONTINUOUS
 10
645.41744373943061
 20
132.95347684907881
 30
0.0
  0
VERTEX
  5
14CC
  8
0
  6
CONTINUOUS
 10
647.14949454700059
 20
135.95347684907881
 30
0.0
  0
VERTEX
  5
14CD
  8
0
  6
CONTINUOUS
 10
650.61359616213679
 20
135.95347684907881
 30
0.0
  0
VERTEX
  5
14CE
  8
0
  6
CONTINUOUS
 10
652.34564696970688
 20
132.95347684907881
 30
0.0
  0
VERTEX
  5
14CF
  8
0
  6
CONTINUOUS
 10
650.61359616213679
 20
129.95347684907881
 30
0.0
  0
SEQEND
  5
14D0
  8
0
  6
CONTINUOUS
  0
CIRCLE
  5
FC5
  8
0
  6
CONTINUOUS
 10
687.88154535456874
 20
171.95347684907881
 30
0.0
 40
6.5
  0
CIRCLE
  5
FC6
  8
0
  6
CONTINUOUS
 10
687.88154535456874
 20
171.95347684907881
 30
0.0
 40
5.9226327944572761
  0
POLYLINE
  5
FC7
  8
0
  6
CONTINUOUS
 66
     1
 10
0.0
 20
0.0
 30
0.0
 70
     1
  0
VERTEX
  5
14D1
  8
0
  6
CONTINUOUS
 10
686.14949454700047
 20
168.95347684907881
 30
0.0
  0
VERTEX
  5
14D2
  8
0
  6
CONTINUOUS
 10
684.41744373943061
 20
171.95347684907881
 30
0.0
  0
VERTEX
  5
14D3
  8
0
  6
CONTINUOUS
 10
686.14949454700047
 20
174.95347684907881
 30
0.0
  0
VERTEX
  5
14D4
  8
0
  6
CONTINUOUS
 10
689.6135961621369
 20
174.95347684907881
 30
0.0
  0
VERTEX
  5
14D5
  8
0
  6
CONTINUOUS
 10
691.34564696970676
 20
171.95347684907881
 30
0.0
  0
VERTEX
  5
14D6
  8
0
  6
CONTINUOUS
 10
689.6135961621369
 20
168.95347684907881
 30
0.0
  0
SEQEND
  5
14D7
  8
0
  6
CONTINUOUS
  0
CIRCLE
  5
FCF
  8
0
  6
CONTINUOUS
 10
648.88154535456874
 20
630.94626817692915
 30
0.0
 40
6.5
  0
CIRCLE
  5
FD0
  8
0
  6
CONTINUOUS
 10
648.88154535456874
 20
630.94626817692915
 30
0.0
 40
5.9226327944572761
  0
POLYLINE
  5
FD1
  8
0
  6
CONTINUOUS
 66
     1
 10
0.0
 20
0.0
 30
0.0
 70
     1
  0
VERTEX
  5
14D8
  8
0
  6
CONTINUOUS
 10
647.14949454700059
 20
633.94626817692915
 30
0.0
  0
VERTEX
  5
14D9
  8
0
  6
CONTINUOUS
 10
645.41744373943061
 20
630.94626817692915
 30
0.0
  0
VERTEX
  5
14DA
  8
0
  6
CONTINUOUS
 10
647.14949454700059
 20
627.94626817692927
 30
0.0
  0
VERTEX
  5
14DB
  8
0
  6
CONTINUOUS
 10
650.61359616213679
 20
627.94626817692927
 30
0.0
  0
VERTEX
  5
14DC
  8
0
  6
CONTINUOUS
 10
652.34564696970688
 20
630.94626817692915
 30
0.0
  0
VERTEX
  5
14DD
  8
0
  6
CONTINUOUS
 10
650.61359616213679
 20
633.94626817692915
 30
0.0
  0
SEQEND
  5
14DE
  8
0
  6
CONTINUOUS
  0
CIRCLE
  5
FD9
  8
0
  6
CONTINUOUS
 10
648.88154535456874
 20
708.94626817692915
 30
0.0
 40
6.5
  0
CIRCLE
  5
FDA
  8
0
  6
CONTINUOUS
 10
648.88154535456874
 20
708.94626817692915
 30
0.0
 40
5.9226327944572761
  0
POLYLINE
  5
FDB
  8
0
  6
CONTINUOUS
 66
     1
 10
0.0
 20
0.0
 30
0.0
 70
     1
  0
VERTEX
  5
14DF
  8
0
  6
CONTINUOUS
 10
647.14949454700059
 20
711.94626817692915
 30
0.0
  0
VERTEX
  5
14E0
  8
0
  6
CONTINUOUS
 10
645.41744373943061
 20
708.94626817692915
 30
0.0
  0
VERTEX
  5
14E1
  8
0
  6
CONTINUOUS
 10
647.14949454700059
 20
705.94626817692915
 30
0.0
  0
VERTEX
  5
14E2
  8
0
  6
CONTINUOUS
 10
650.61359616213679
 20
705.94626817692915
 30
0.0
  0
VERTEX
  5
14E3
  8
0
  6
CONTINUOUS
 10
652.34564696970688
 20
708.94626817692915
 30
0.0
  0
VERTEX
  5
14E4
  8
0
  6
CONTINUOUS
 10
650.61359616213679
 20
711.94626817692915
 30
0.0
  0
SEQEND
  5
14E5
  8
0
  6
CONTINUOUS
  0
CIRCLE
  5
FE3
  8
0
  6
CONTINUOUS
 10
609.88154535456874
 20
669.94626817692927
 30
0.0
 40
6.5
  0
CIRCLE
  5
FE4
  8
0
  6
CONTINUOUS
 10
609.88154535456874
 20
669.94626817692927
 30
0.0
 40
5.9226327944572761
  0
POLYLINE
  5
FE5
  8
0
  6
CONTINUOUS
 66
     1
 10
0.0
 20
0.0
 30
0.0
 70
     1
  0
VERTEX
  5
14E6
  8
0
  6
CONTINUOUS
 10
608.14949454700047
 20
672.94626817692915
 30
0.0
  0
VERTEX
  5
14E7
  8
0
  6
CONTINUOUS
 10
606.41744373943061
 20
669.94626817692927
 30
0.0
  0
VERTEX
  5
14E8
  8
0
  6
CONTINUOUS
 10
608.14949454700047
 20
666.94626817692915
 30
0.0
  0
VERTEX
  5
14E9
  8
0
  6
CONTINUOUS
 10
611.6135961621369
 20
666.94626817692915
 30
0.0
  0
VERTEX
  5
14EA
  8
0
  6
CONTINUOUS
 10
613.34564696970676
 20
669.94626817692927
 30
0.0
  0
VERTEX
  5
14EB
  8
0
  6
CONTINUOUS
 10
611.6135961621369
 20
672.94626817692915
 30
0.0
  0
SEQEND
  5
14EC
  8
0
  6
CONTINUOUS
  0
CIRCLE
  5
FED
  8
0
  6
CONTINUOUS
 10
687.88154535456874
 20
669.94626817692927
 30
0.0
 40
6.5
  0
CIRCLE
  5
FEE
  8
0
  6
CONTINUOUS
 10
687.88154535456874
 20
669.94626817692927
 30
0.0
 40
5.9226327944572761
  0
POLYLINE
  5
FEF
  8
0
  6
CONTINUOUS
 66
     1
 10
0.0
 20
0.0
 30
0.0
 70
     1
  0
VERTEX
  5
14ED
  8
0
  6
CONTINUOUS
 10
686.14949454700047
 20
672.94626817692915
 30
0.0
  0
VERTEX
  5
14EE
  8
0
  6
CONTINUOUS
 10
684.41744373943061
 20
669.94626817692927
 30
0.0
  0
VERTEX
  5
14EF
  8
0
  6
CONTINUOUS
 10
686.14949454700047
 20
666.94626817692915
 30
0.0
  0
VERTEX
  5
14F0
  8
0
  6
CONTINUOUS
 10
689.6135961621369
 20
666.94626817692915
 30
0.0
  0
VERTEX
  5
14F1
  8
0
  6
CONTINUOUS
 10
691.34564696970676
 20
669.94626817692927
 30
0.0
  0
VERTEX
  5
14F2
  8
0
  6
CONTINUOUS
 10
689.6135961621369
 20
672.94626817692915
 30
0.0
  0
SEQEND
  5
14F3
  8
0
  6
CONTINUOUS
  0
CIRCLE
  5
FF7
  8
0
  6
CONTINUOUS
 10
333.07055548304947
 20
466.39008900959942
 30
0.0
 40
4.25
  0
ARC
  5
FF8
  8
0
  6
CONTINUOUS
 62
     2
 10
333.07055548304947
 20
466.39008900959942
 30
0.0
 40
5.0000000000000053
 50
165.00000000000551
 51
104.9999999999944
  0
CIRCLE
  5
FF9
  8
0
  6
CONTINUOUS
 10
405.07055548304947
 20
466.39008900959942
 30
0.0
 40
4.25
  0
ARC
  5
FFA
  8
0
  6
CONTINUOUS
 62
     2
 10
405.07055548304947
 20
466.39008900959942
 30
0.0
 40
5.0000000000000053
 50
165.00000000000551
 51
104.9999999999944
  0
CIRCLE
  5
FFB
  8
0
  6
CONTINUOUS
 10
405.07055548304947
 20
394.39008900959931
 30
0.0
 40
4.25
  0
ARC
  5
FFC
  8
0
  6
CONTINUOUS
 62
     2
 10
405.07055548304947
 20
394.39008900959931
 30
0.0
 40
5.0000000000000053
 50
165.00000000000551
 51
104.9999999999944
  0
CIRCLE
  5
FFD
  8
0
  6
CONTINUOUS
 10
333.07055548304947
 20
394.39008900959931
 30
0.0
 40
4.25
  0
ARC
  5
FFE
  8
0
  6
CONTINUOUS
 62
     2
 10
333.07055548304947
 20
394.39008900959931
 30
0.0
 40
5.0000000000000053
 50
165.00000000000551
 51
104.9999999999944
  0
CIRCLE
  5
FFF
  8
0
  6
CONTINUOUS
 10
908.52423029662373
 20
466.39008900959942
 30
0.0
 40
4.25
  0
ARC
  5
1000
  8
0
  6
CONTINUOUS
 62
     2
 10
908.52423029662373
 20
466.39008900959942
 30
0.0
 40
5.0000000000000053
 50
75.000000000005556
 51
14.999999999994451
  0
CIRCLE
  5
1001
  8
0
  6
CONTINUOUS
 10
980.52423029662361
 20
466.39008900959942
 30
0.0
 40
4.25
  0
ARC
  5
1002
  8
0
  6
CONTINUOUS
 62
     2
 10
980.52423029662361
 20
466.39008900959942
 30
0.0
 40
5.0000000000000053
 50
75.000000000005556
 51
14.999999999994451
  0
CIRCLE
  5
1003
  8
0
  6
CONTINUOUS
 10
980.52423029662361
 20
394.39008900959931
 30
0.0
 40
4.25
  0
ARC
  5
1004
  8
0
  6
CONTINUOUS
 62
     2
 10
980.52423029662361
 20
394.39008900959931
 30
0.0
 40
5.0000000000000053
 50
75.000000000005556
 51
14.999999999994451
  0
CIRCLE
  5
1005
  8
0
  6
CONTINUOUS
 10
908.52423029662373
 20
394.39008900959931
 30
0.0
 40
4.25
  0
ARC
  5
1006
  8
0
  6
CONTINUOUS
 62
     2
 10
908.52423029662373
 20
394.39008900959931
 30
0.0
 40
5.0000000000000053
 50
75.000000000005556
 51
14.999999999994451
  0
LINE
  5
1007
  8
0
 10
350.57055548304959
 20
369.89008900959902
 30
0.0
 11
315.57055548304947
 21
369.89008900959902
 31
0.0
  0
LINE
  5
1008
  8
0
 10
329.07055548304947
 20
326.39008900959908
 30
0.0
 11
329.07055548304947
 21
363.39008900959908
 31
0.0
  0
LINE
  5
1009
  8
0
 10
337.07055548304947
 20
326.39008900959908
 30
0.0
 11
337.07055548304947
 21
363.39008900959908
 31
0.0
  0
LINE
  5
100A
  8
0
 10
319.0705554830493
 20
320.89008900959908
 30
0.0
 11
319.07055548304959
 21
369.89008900959902
 31
0.0
  0
LINE
  5
100B
  8
0
 10
347.07055548304947
 20
320.89008900959908
 30
0.0
 11
347.07055548304947
 21
369.89008900959902
 31
0.0
  0
LINE
  5
100C
  8
0
 10
315.57055548304947
 20
369.89008900959902
 30
0.0
 11
315.57055548304947
 21
370.89008900959902
 31
0.0
  0
ARC
  5
100D
  8
0
  6
CONTINUOUS
 10
333.07055548304947
 20
363.39008900959908
 30
0.0
 40
4.0
 50
0.0
 51
180.0
  0
ARC
  5
100E
  8
0
  6
CONTINUOUS
 10
333.07055548304947
 20
326.39008900959908
 30
0.0
 40
4.0
 50
180.0
 51
0.0
  0
LINE
  5
100F
  8
0
 10
346.07055548304959
 20
319.89008900959908
 30
0.0
 11
320.0705554830493
 21
319.89008900959908
 31
0.0
  0
LINE
  5
1010
  8
0
 10
347.07055548304947
 20
320.89008900959902
 30
0.0
 11
319.07055548304959
 21
320.89008900959908
 31
0.0
  0
LINE
  5
1011
  8
0
 10
320.0705554830493
 20
319.89008900959908
 30
0.0
 11
319.0705554830493
 21
320.89008900959908
 31
0.0
  0
LINE
  5
1012
  8
0
 10
346.07055548304959
 20
319.89008900959908
 30
0.0
 11
347.07055548304947
 21
320.89008900959908
 31
0.0
  0
LINE
  5
1013
  8
0
 10
350.57055548304959
 20
369.89008900959902
 30
0.0
 11
350.5705554830493
 21
370.89008900959902
 31
0.0
  0
LINE
  5
1014
  8
0
 10
963.02423029662373
 20
369.89008900959919
 30
0.0
 11
998.02423029662373
 21
369.89008900959919
 31
0.0
  0
LINE
  5
1015
  8
0
 10
967.52423029662373
 20
319.89008900959931
 30
0.0
 11
993.52423029662373
 21
319.89008900959931
 31
0.0
  0
LINE
  5
1016
  8
0
 10
966.52423029662373
 20
320.89008900959919
 30
0.0
 11
994.52423029662373
 21
320.89008900959931
 31
0.0
  0
LINE
  5
1017
  8
0
 10
966.52423029662373
 20
320.89008900959931
 30
0.0
 11
966.52423029662373
 21
369.89008900959919
 31
0.0
  0
LINE
  5
1018
  8
0
 10
963.02423029662373
 20
369.89008900959919
 30
0.0
 11
963.02423029662373
 21
370.89008900959919
 31
0.0
  0
LINE
  5
1019
  8
0
 10
967.52423029662373
 20
319.89008900959931
 30
0.0
 11
966.52423029662373
 21
320.89008900959931
 31
0.0
  0
LINE
  5
101A
  8
0
 10
994.52423029662373
 20
320.89008900959931
 30
0.0
 11
994.52423029662373
 21
369.89008900959919
 31
0.0
  0
LINE
  5
101B
  8
0
 10
998.02423029662373
 20
369.89008900959919
 30
0.0
 11
998.02423029662373
 21
370.89008900959919
 31
0.0
  0
LINE
  5
101C
  8
DIM
  6
CONTINUOUS
 10
994.52423029662373
 20
319.89008900959931
 30
0.0
 11
1049.024230296623
 21
319.89008900959931
 31
0.0
  0
LINE
  5
101D
  8
0
 10
993.52423029662373
 20
319.89008900959931
 30
0.0
 11
994.52423029662373
 21
320.89008900959931
 31
0.0
  0
SOLID
  5
101E
  8
DIM
  6
CONTINUOUS
 10
1047.524230296623
 20
322.89008900959931
 30
0.0
 11
1048.524230296623
 21
322.89008900959931
 31
0.0
 12
1048.024230296623
 22
319.89008900959931
 32
0.0
 13
1048.024230296623
 23
319.89008900959931
 33
0.0
  0
LINE
  5
101F
  8
DIM
  6
CONTINUOUS
 10
630.38154535456874
 20
369.89008900959931
 30
0.0
 11
579.38154535456874
 21
369.89008900959931
 31
0.0
  0
LINE
  5
1020
  8
DIM
  6
CONTINUOUS
 10
634.88154535456874
 20
319.89008900959931
 30
0.0
 11
579.38154535456874
 21
319.89008900959931
 31
0.0
  0
LINE
  5
1021
  8
DIM
  6
CONTINUOUS
 10
630.88154535456874
 20
367.39008900959942
 30
0.0
 11
587.38154535456874
 21
367.39008900959942
 31
0.0
  0
LINE
  5
1022
  8
DIM
  6
CONTINUOUS
 10
630.88154535456874
 20
322.39008900959931
 30
0.0
 11
587.38154535456874
 21
322.39008900959931
 31
0.0
  0
LINE
  5
1023
  8
DIM
  6
CONTINUOUS
 10
580.38154535456874
 20
322.89008900959931
 30
0.0
 11
580.38154535456874
 21
377.82305516706032
 31
0.0
  0
LINE
  5
1024
  8
DIM
  6
CONTINUOUS
 10
588.38154535456874
 20
325.39008900959931
 30
0.0
 11
588.38154535456874
 21
364.39008900959948
 31
0.0
  0
SOLID
  5
1025
  8
DIM
  6
CONTINUOUS
 10
587.88154535456874
 20
364.39008900959948
 30
0.0
 11
588.88154535456874
 21
364.39008900959948
 31
0.0
 12
588.38154535456874
 22
367.39008900959942
 32
0.0
 13
588.38154535456874
 23
367.39008900959942
 33
0.0
  0
LINE
  5
1026
  8
DIM
  6
CONTINUOUS
 10
600.82467853335515
 20
370.89008900959931
 30
0.0
 11
579.38154535456874
 21
370.89008900959931
 31
0.0
  0
SOLID
  5
1027
  8
DIM
  6
CONTINUOUS
 10
579.88154535456874
 20
373.89008900959931
 30
0.0
 11
580.88154535456874
 21
373.89008900959931
 31
0.0
 12
580.38154535456874
 22
370.89008900959931
 32
0.0
 13
580.38154535456874
 23
370.89008900959931
 33
0.0
  0
SOLID
  5
1028
  8
DIM
  6
CONTINUOUS
 10
579.88154535456874
 20
366.89008900959931
 30
0.0
 11
580.88154535456874
 21
366.89008900959931
 31
0.0
 12
580.38154535456874
 22
369.89008900959931
 32
0.0
 13
580.38154535456874
 23
369.89008900959931
 33
0.0
  0
SOLID
  5
1029
  8
DIM
  6
CONTINUOUS
 10
579.88154535456874
 20
322.89008900959931
 30
0.0
 11
580.88154535456874
 21
322.89008900959931
 31
0.0
 12
580.38154535456874
 22
319.89008900959931
 32
0.0
 13
580.38154535456874
 23
319.89008900959931
 33
0.0
  0
SOLID
  5
102A
  8
DIM
  6
CONTINUOUS
 10
587.88154535456874
 20
325.39008900959931
 30
0.0
 11
588.88154535456874
 21
325.39008900959931
 31
0.0
 12
588.38154535456874
 22
322.39008900959931
 32
0.0
 13
588.38154535456874
 23
322.39008900959931
 33
0.0
  0
LINE
  5
102B
  8
0
 10
631.88154535456874
 20
322.39008900959931
 30
0.0
 11
631.88154535456874
 21
367.39008900959942
 31
0.0
  0
LINE
  5
102C
  8
0
 10
634.88154535456874
 20
320.89008900959931
 30
0.0
 11
634.88154535456874
 21
369.89008900959931
 31
0.0
  0
LINE
  5
102D
  8
0
 10
662.88154535456874
 20
320.89008900959931
 30
0.0
 11
662.88154535456874
 21
369.89008900959931
 31
0.0
  0
LINE
  5
102E
  8
0
 10
631.88154535456874
 20
367.39008900959942
 30
0.0
 11
634.88154535456874
 21
367.39008900959942
 31
0.0
  0
LINE
  5
102F
  8
0
 10
631.38154535456874
 20
369.89008900959931
 30
0.0
 11
666.38154535456874
 21
369.89008900959931
 31
0.0
  0
LINE
  5
1030
  8
0
 10
631.38154535456874
 20
369.89008900959931
 30
0.0
 11
631.38154535456874
 21
370.89008900959931
 31
0.0
  0
LINE
  5
1031
  8
0
 10
666.38154535456874
 20
369.89008900959931
 30
0.0
 11
666.38154535456874
 21
370.89008900959931
 31
0.0
  0
SOLID
  5
1032
  8
DIM
  6
CONTINUOUS
 10
634.88154535456874
 20
303.39008900959931
 30
0.0
 11
634.88154535456874
 21
304.39008900959931
 31
0.0
 12
631.88154535456874
 22
303.89008900959931
 32
0.0
 13
631.88154535456874
 23
303.89008900959931
 33
0.0
  0
LINE
  5
1033
  8
0
 10
631.88154535456874
 20
322.39008900959931
 30
0.0
 11
634.88154535456874
 21
322.39008900959931
 31
0.0
  0
LINE
  5
1034
  8
DIM
  6
CONTINUOUS
 10
631.88154535456874
 20
321.39008900959931
 30
0.0
 11
631.88154535456874
 21
302.89008900959931
 31
0.0
  0
LINE
  5
1035
  8
DIM
  6
CONTINUOUS
 10
662.88154535456874
 20
319.89008900959931
 30
0.0
 11
662.88154535456874
 21
302.89008900959931
 31
0.0
  0
LINE
  5
1036
  8
DIM
  6
CONTINUOUS
 10
634.88154535456874
 20
319.89008900959931
 30
0.0
 11
634.88154535456874
 21
310.89008900959931
 31
0.0
  0
LINE
  5
1037
  8
DIM
  6
CONTINUOUS
 10
662.88154535456874
 20
319.89008900959931
 30
0.0
 11
662.88154535456874
 21
310.89008900959931
 31
0.0
  0
LINE
  5
1038
  8
0
 10
634.88154535456874
 20
320.89008900959931
 30
0.0
 11
662.88154535456874
 21
320.89008900959931
 31
0.0
  0
LINE
  5
1039
  8
0
 10
635.88154535456874
 20
319.89008900959931
 30
0.0
 11
661.88154535456874
 21
319.89008900959931
 31
0.0
  0
LINE
  5
103A
  8
0
 10
635.88154535456874
 20
319.89008900959931
 30
0.0
 11
634.88154535456874
 21
320.89008900959931
 31
0.0
  0
LINE
  5
103B
  8
0
 10
661.88154535456874
 20
319.89008900959931
 30
0.0
 11
662.88154535456874
 21
320.89008900959931
 31
0.0
  0
LINE
  5
103C
  8
DIM
  6
CONTINUOUS
 10
659.88154535456874
 20
303.89008900959931
 30
0.0
 11
634.88154535456874
 21
303.89008900959931
 31
0.0
  0
LINE
  5
103D
  8
DIM
  6
CONTINUOUS
 10
659.88154535456874
 20
311.89008900959931
 30
0.0
 11
637.88154535456874
 21
311.89008900959931
 31
0.0
  0
SOLID
  5
103E
  8
DIM
  6
CONTINUOUS
 10
637.88154535456874
 20
311.39008900959931
 30
0.0
 11
637.88154535456874
 21
312.39008900959931
 31
0.0
 12
634.88154535456874
 22
311.89008900959931
 32
0.0
 13
634.88154535456874
 23
311.89008900959931
 33
0.0
  0
SOLID
  5
103F
  8
DIM
  6
CONTINUOUS
 10
659.88154535456874
 20
311.39008900959931
 30
0.0
 11
659.88154535456874
 21
312.39008900959931
 31
0.0
 12
662.88154535456874
 22
311.89008900959931
 32
0.0
 13
662.88154535456874
 23
311.89008900959931
 33
0.0
  0
SOLID
  5
1040
  8
DIM
  6
CONTINUOUS
 10
659.88154535456874
 20
303.39008900959931
 30
0.0
 11
659.88154535456874
 21
304.39008900959931
 31
0.0
 12
662.88154535456874
 22
303.89008900959931
 32
0.0
 13
662.88154535456874
 23
303.89008900959931
 33
0.0
  0
TEXT
  5
1041
  8
DIM
  6
CONTINUOUS
 10
578.88154535456874
 20
374.83040576449901
 30
0.0
 40
3.0
  1
1
 50
90.0
  7
ROMANSS
 72
     1
 11
577.38154535456874
 21
375.18754862164189
 31
0.0
 73
     2
  0
TEXT
  5
1042
  8
DIM
  6
CONTINUOUS
 10
586.88154535456874
 20
341.91952324135872
 30
0.0
 40
3.0
  1
45
 50
90.0
  7
ROMANSS
 72
     1
 11
585.38154535456874
 21
344.34809466993022
 31
0.0
 73
     2
  0
TEXT
  5
1043
  8
DIM
  6
CONTINUOUS
 10
578.88154535456874
 20
343.95474595507483
 30
0.0
 40
3.0
  1
50
 50
90.0
  7
ROMANSS
 72
     1
 11
577.38154535456874
 21
346.38331738364622
 31
0.0
 73
     2
  0
TEXT
  5
1044
  8
DIM
  6
CONTINUOUS
 10
642.38154535456874
 20
313.39008900959919
 30
0.0
 40
3.0
  1
%%c28h6
  7
ROMANSS
 72
     1
 11
648.88154535456874
 21
314.89008900959919
 31
0.0
 73
     2
  0
TEXT
  5
1045
  8
DIM
  6
CONTINUOUS
 10
645.59583106885441
 20
305.39008900959942
 30
0.0
 40
3.0
  1
31
  7
ROMANSS
 72
     1
 11
647.38154535456874
 21
306.89008900959942
 31
0.0
 73
     2
  0
LINE
  5
1052
  8
DIM
  6
CONTINUOUS
 10
648.88154535456806
 20
735.47455454896613
 30
0.0
 11
648.88154535456806
 21
750.79605973603088
 31
0.0
  0
ARC
  5
1053
  8
DIM
  6
CONTINUOUS
 10
648.88154535456874
 20
669.94626817692927
 30
0.0
 40
79.84979155910159
 50
90.0
 51
177.8472398457177
  0
LINE
  5
1054
  8
DIM
  6
CONTINUOUS
 10
655.79493267217561
 20
171.13725540819311
 30
0.0
 11
733.39324960658769
 21
152.23861206511029
 31
0.0
  0
CIRCLE
  5
1055
  8
0
  6
CONTINUOUS
 10
648.88154535456874
 20
171.9534768490789
 30
0.0
 40
13.00000000000005
  0
SOLID
  5
1056
  8
DIM
  6
CONTINUOUS
 10
623.38154535456874
 20
164.9534768490789
 30
0.0
 11
624.38154535456874
 21
164.9534768490789
 31
0.0
 12
623.88154535456874
 22
167.9534768490789
 32
0.0
 13
623.88154535456874
 23
167.9534768490789
 33
0.0
  0
CIRCLE
  5
1057
  8
0
  6
CONTINUOUS
 10
648.88154535456874
 20
171.9534768490789
 30
0.0
 40
17.5
  0
CIRCLE
  5
1058
  8
0
  6
CONTINUOUS
 10
648.88154535456874
 20
171.9534768490789
 30
0.0
 40
14.00000000000005
  0
LINE
  5
1059
  8
DIM
  6
CONTINUOUS
 10
623.88154535456874
 20
164.9534768490789
 30
0.0
 11
623.88154535456874
 21
161.9534768490789
 31
0.0
  0
LINE
  5
105A
  8
0
 10
631.88154535456874
 20
167.9534768490789
 30
0.0
 11
635.46513748956988
 21
167.9534768490789
 31
0.0
  0
LINE
  5
105B
  8
0
 10
631.88154535456874
 20
175.9534768490789
 30
0.0
 11
635.46513748956988
 21
175.9534768490789
 31
0.0
  0
SOLID
  5
105C
  8
DIM
  6
CONTINUOUS
 10
623.38154535456874
 20
178.9534768490789
 30
0.0
 11
624.38154535456874
 21
178.9534768490789
 31
0.0
 12
623.88154535456874
 22
175.9534768490789
 32
0.0
 13
623.88154535456874
 23
175.9534768490789
 33
0.0
  0
LINE
  5
105D
  8
DIM
  6
CONTINUOUS
 10
630.88154535456874
 20
175.9534768490789
 30
0.0
 11
622.88154535456874
 21
175.9534768490789
 31
0.0
  0
LINE
  5
105E
  8
DIM
  6
CONTINUOUS
 10
630.88154535456874
 20
167.9534768490789
 30
0.0
 11
622.88154535456874
 21
167.9534768490789
 31
0.0
  0
LINE
  5
105F
  8
DIM
  6
CONTINUOUS
 10
623.88154535456874
 20
167.9534768490789
 30
0.0
 11
623.88154535456874
 21
175.9534768490789
 31
0.0
  0
LINE
  5
1060
  8
0
 10
631.88154535456874
 20
175.9534768490789
 30
0.0
 11
631.88154535456874
 21
167.9534768490789
 31
0.0
  0
TEXT
  5
1061
  8
DIM
  6
CONTINUOUS
 10
622.38154535456886
 20
182.8284768490789
 30
0.0
 40
3.0
  1
8
 50
90.0
  7
ROMANSS
 72
     1
 11
620.88154535456874
 21
183.8284768490789
 31
0.0
 73
     2
  0
LINE
  5
1062
  8
DIM
  6
CONTINUOUS
 10
623.88154535456874
 20
181.9534768490789
 30
0.0
 11
623.88154535456874
 21
184.7034768490789
 31
0.0
  0
LINE
  5
1063
  8
DIM
  6
CONTINUOUS
 10
623.88154535456874
 20
178.9534768490789
 30
0.0
 11
623.88154535456874
 21
181.9534768490789
 31
0.0
  0
CIRCLE
  5
1064
  8
0
  6
CONTINUOUS
 10
648.88154535456874
 20
171.9534768490789
 30
0.0
 40
3.399999999999999
  0
ARC
  5
1065
  8
0
  6
CONTINUOUS
 62
     2
 10
648.88154535456874
 20
171.9534768490789
 30
0.0
 40
4.0
 50
153.95518686272919
 51
110.5741396147375
  0
SOLID
  5
1066
  8
DIM
  6
CONTINUOUS
 10
655.67661871198095
 20
170.65145523649389
 30
0.0
 11
655.91324663237037
 21
171.62305557989239
 31
0.0
 12
652.88013164197992
 22
171.8471391693613
 32
0.0
 13
652.88013164197992
 23
171.8471391693613
 33
0.0
  0
TEXT
  5
1067
  8
DIM
  6
CONTINUOUS
 10
734.39324960658757
 20
153.73861206511029
 30
0.0
 40
3.0
  1
M8x15L
  7
ROMANSS
 11
734.39324960658757
 21
155.23861206511029
 31
0.0
 73
     2
  0
LINE
  5
1068
  8
DIM
  6
CONTINUOUS
 10
733.39324960658769
 20
152.23861206511029
 30
0.0
 11
748.51824960658769
 21
152.23861206511029
 31
0.0
  0
TEXT
  5
106D
  8
LOGO
 62
     6
 10
887.81336288522425
 20
18.490357652407582
 30
0.0
 40
16.733066261248059
  1
作動角度
 41
0.9
  7
CHINESET
 72
     4
 11
917.93288215547079
 21
26.33466869375955
 31
0.0
  0
LINE
  5
106E
  8
LOGO
 62
     6
 10
961.14271714534402
 20
-5.0398305460804522
 30
0.0
 11
874.72304716559779
 21
-5.039830546080565
 31
0.0
  0
LINE
  5
106F
  8
LOGO
 62
     6
 10
961.14271714534402
 20
40.976101672351739
 30
0.0
 11
874.72304716559779
 21
40.976101672351739
 31
0.0
  0
TEXT
  5
1070
  8
LOGO
  6
CONTINUOUS
 62
     6
 10
878.49065453967194
 20
1.932280396106127
 30
0.0
 40
10.45816641328004
  1
Rotary angle
 41
0.8
  7
CHINESET
 72
     4
 11
917.93288215547079
 21
5.418335867199473
 31
0.0
  0
TEXT
  5
1071
  8
LOGO
  6
CONTINUOUS
 62
     7
 10
902.95280432702407
 20
67.930141814630389
 30
0.0
 40
20.91633282656008
  1
90
  7
CHINESET
 72
     1
 11
919.88507375804886
 21
78.388308227910429
 31
0.0
 73
     2
  0
LINE
  5
1072
  8
LOGO
 62
     6
 10
952.77618401471989
 20
97.450200304063955
 30
0.0
 11
883.0895802962217
 21
97.450200304063955
 31
0.0
  0
LINE
  5
1073
  8
LOGO
 62
     6
 10
952.77618401471966
 20
59.80080121625577
 30
0.0
 11
883.0895802962217
 21
59.800801216255799
 31
0.0
  0
LINE
  5
1074
  8
LOGO
 62
     1
 10
1107.0
 20
110.0
 30
0.0
 11
207.0
 21
110.0
 31
0.0
  0
LINE
  5
1075
  8
LOGO
 62
     1
 10
1107.0
 20
-15.497996959360471
 30
0.0
 11
207.0
 21
-15.497996959360471
 31
0.0
  0
LINE
  5
1076
  8
LOGO
  6
CONTINUOUS
 62
     6
 10
445.61489656865501
 20
76.646811497893026
 30
0.0
 11
468.45831129641772
 21
79.664154118025721
 31
0.0
  0
LINE
  5
1077
  8
LOGO
  6
CONTINUOUS
 62
     6
 10
445.61489656865501
 20
68.108078553264093
 30
0.0
 11
468.45831129641772
 21
65.090735933131384
 31
0.0
  0
LINE
  5
1078
  8
LOGO
 62
     1
 10
483.09559331059302
 20
84.900400608127924
 30
0.0
 11
299.0318644368644
 21
84.900400608127924
 31
0.0
  0
LINE
  5
1079
  8
LOGO
 62
     1
 10
483.09559331059302
 20
59.800801216255799
 30
0.0
 11
299.0318644368644
 21
59.800801216255799
 31
0.0
  0
TEXT
  5
107A
  8
LOGO
 62
     6
 10
418.25703084375601
 20
91.175300456095925
 30
0.0
 40
12.54979969593605
  1
1 : 1
  7
CHINESET
 72
     1
 11
440.36858268897669
 21
97.450200304063955
 31
0.0
 73
     2
  0
TEXT
  5
107B
  8
LOGO
 62
     6
 10
418.25703084375601
 20
40.976101672351739
 30
0.0
 40
12.54979969593605
  1
m/m
  7
CHINESET
 72
     1
 11
440.36858268897669
 21
47.251001520319761
 31
0.0
 73
     2
  0
LINE
  5
107C
  8
LOGO
 62
     1
 10
483.09559331059302
 20
34.70120182438383
 30
0.0
 11
206.9999999999998
 21
34.70120182438383
 31
0.0
  0
TEXT
  5
107D
  8
LOGO
  6
CONTINUOUS
 62
     5
 10
211.10776133263039
 20
9.1558951503149473
 30
0.0
 40
18.824699543904071
  1
金器工業股份有限公司
 41
0.8
  7
LOGO
  0
TEXT
  5
107E
  8
LOGO
  6
CONTINUOUS
 62
     5
 10
216.498019884385
 20
-9.6724925587862884
 30
0.0
 40
12.54979969593605
  1
MINDMAN INDUSTRIAL CO.,LTD
 41
0.85
  7
CHINESET
  0
SOLID
  5
107F
  8
LOGO
 62
     5
 10
220.0206185935005
 20
55.563457495555802
 30
0.0
 11
225.44682267527901
 21
55.563457495554012
 31
0.0
 12
248.0871914302885
 22
107.0188410296654
 32
0.0
 13
253.51339551206641
 23
107.0188410296618
 33
0.0
  0
SOLID
  5
1080
  8
LOGO
 62
     5
 10
227.69214850222519
 20
55.563457495555802
 30
0.0
 11
233.11835258400319
 21
55.563457495555802
 31
0.0
 12
253.51339551206641
 22
102.9024103469348
 32
0.0
 13
248.0871914302885
 23
83.00632871374512
 33
0.0
  0
SOLID
  5
1081
  8
LOGO
 62
     2
 10
225.44682267527901
 20
55.563457495554012
 30
0.0
 11
227.69214850222519
 21
55.563457495555802
 31
0.0
 12
253.51339551206641
 22
107.0188410296618
 32
0.0
 13
255.758721339011
 23
107.0188410296618
 33
0.0
  0
SOLID
  5
1082
  8
LOGO
 62
     5
 10
225.60164631185839
 20
46.207933216626643
 30
0.0
 11
227.47275116764229
 21
46.207933216626643
 31
0.0
 12
225.60164631185839
 22
36.852408937699209
 32
0.0
 13
227.47275116764229
 23
36.852408937699209
 33
0.0
  0
SOLID
  5
1083
  8
LOGO
 62
     5
 10
211.3210827821712
 20
36.852408937699209
 30
0.0
 11
213.19218763795899
 21
36.852408937699209
 31
0.0
 12
218.4613645470136
 22
46.207933216626643
 32
0.0
 13
220.33246940279801
 23
46.207933216626643
 33
0.0
  0
SOLID
  5
1084
  8
LOGO
 62
     5
 10
218.4613645470136
 20
46.207933216626643
 30
0.0
 11
220.33246940279801
 21
46.207933216626643
 31
0.0
 12
218.4613645470136
 22
36.852408937699209
 32
0.0
 13
220.33246940279801
 23
36.852408937699209
 33
0.0
  0
SOLID
  5
1085
  8
LOGO
 62
     5
 10
218.4613645470136
 20
36.852408937699209
 30
0.0
 11
220.33246940279801
 21
36.852408937699209
 31
0.0
 12
225.60164631185839
 22
46.207933216626643
 32
0.0
 13
227.47275116764229
 23
46.207933216626643
 33
0.0
  0
LINE
  5
1086
  8
LOGO
 62
     1
 10
207.0
 20
-15.497996959360471
 30
0.0
 11
207.0
 21
110.0
 31
0.0
  0
TEXT
  5
1087
  8
LOGO
 62
     6
 10
309.37984659686168
 20
91.181476538623457
 30
0.0
 40
12.54979969593605
  1
比例 Scale:
 41
0.9
  7
CHINESET
 72
     4
 11
349.23106322060852
 21
97.450200304063955
 31
0.0
  0
TEXT
  5
1088
  8
LOGO
 62
     6
 10
313.76667390128932
 20
66.252234089802315
 30
0.0
 40
12.54979969593605
  1
投影 View:
 41
0.9
  7
CHINESET
 72
     4
 11
349.23106322060852
 21
72.350600912191851
 31
0.0
  0
TEXT
  5
1089
  8
LOGO
 62
     6
 10
314.99364092513298
 20
40.976101672351739
 30
0.0
 40
12.54979969593605
  1
單位 Unit:
 41
0.9
  7
CHINESET
 72
     4
 11
349.23106322060852
 21
47.251001520319761
 31
0.0
  0
POLYLINE
  5
108A
  8
LOGO
 62
     5
 66
     1
 10
0.0
 20
0.0
 30
0.0
 70
     1
 40
1.8741034212597829
 41
1.8741034212597829
  0
VERTEX
  5
14F4
  8
LOGO
 62
     5
 10
271.1582789276876
 20
41.530171077161967
 30
0.0
 42
1.0
  0
VERTEX
  5
14F5
  8
LOGO
 62
     5
 10
278.65469261272648
 20
41.530171077161967
 30
0.0
 42
1.0
  0
SEQEND
  5
14F6
  8
LOGO
 62
     5
  0
LINE
  5
108B
  8
LOGO
 62
     5
 10
289.25149825757489
 20
36.852408937699209
 30
0.0
 11
289.25149825757489
 21
42.465723505054889
 31
0.0
  0
SOLID
  5
108C
  8
LOGO
 62
     5
 10
277.71295594340432
 20
46.207933216626643
 30
0.0
 11
279.58406079918848
 21
46.207933216626643
 31
0.0
 12
277.71295594340432
 22
36.852408937699209
 32
0.0
 13
279.58406079918848
 23
36.852408937699209
 33
0.0
  0
SOLID
  5
108D
  8
LOGO
 62
     5
 10
281.76707883443152
 20
36.852408937699209
 30
0.0
 11
283.63818369021902
 21
36.852408937699209
 31
0.0
 12
281.76707883443152
 22
46.207933216626643
 32
0.0
 13
283.63818369021902
 23
46.207933216626643
 33
0.0
  0
SOLID
  5
108E
  8
LOGO
 62
     5
 10
287.38039340179091
 20
42.465723505054889
 30
0.0
 11
289.25149825757489
 21
42.465723505054648
 31
0.0
 12
287.38039340179091
 22
36.852408937699209
 32
0.0
 13
289.25149825757489
 23
36.852408937699209
 33
0.0
  0
SOLID
  5
108F
  8
LOGO
 62
     5
 10
250.8936616034828
 20
49.014590500306241
 30
0.0
 11
252.7647664592667
 21
49.014590500306241
 31
0.0
 12
250.8936616034828
 22
36.852408937699209
 32
0.0
 13
252.7647664592667
 23
36.852408937699209
 33
0.0
  0
SOLID
  5
1090
  8
LOGO
 62
     5
 10
254.94778449451519
 20
46.207933216626643
 30
0.0
 11
256.81888935029929
 21
46.207933216626643
 31
0.0
 12
254.94778449451519
 22
36.852408937699209
 32
0.0
 13
256.81888935029929
 23
36.852408937699209
 33
0.0
  0
SOLID
  5
1091
  8
LOGO
 62
     5
 10
260.56109906187112
 20
42.465723505054889
 30
0.0
 11
262.43220391765522
 21
42.465723505054889
 31
0.0
 12
260.56109906187112
 22
36.852408937699209
 32
0.0
 13
262.43220391765522
 23
36.852408937699209
 33
0.0
  0
SOLID
  5
1092
  8
LOGO
 62
     5
 10
266.1744136292271
 20
42.465723505054889
 30
0.0
 11
268.04551848501109
 21
42.465723505054889
 31
0.0
 12
266.1744136292271
 22
36.852408937695643
 32
0.0
 13
268.04551848501109
 23
36.852408937695643
 33
0.0
  0
LINE
  5
1093
  8
LOGO
 62
     1
 10
299.0318644368644
 20
34.701201824383681
 30
0.0
 11
299.0318644368644
 21
110.0
 31
0.0
  0
SOLID
  5
1094
  8
LOGO
 62
     5
 10
233.74180472195141
 20
46.207933216626643
 30
0.0
 11
235.61290957773539
 21
46.207933216626643
 31
0.0
 12
233.74180472195141
 22
36.852408937699209
 32
0.0
 13
235.61290957773539
 23
36.852408937699209
 33
0.0
  0
SOLID
  5
1095
  8
LOGO
 62
     5
 10
239.3551192893068
 20
42.465723505054889
 30
0.0
 11
241.22622414509431
 21
42.465723505054889
 31
0.0
 12
239.3551192893068
 22
36.852408937699209
 32
0.0
 13
241.22622414509431
 23
36.852408937699209
 33
0.0
  0
SOLID
  5
1096
  8
LOGO
 62
     5
 10
229.68768183091851
 20
46.207933216626643
 30
0.0
 11
231.55878668670789
 21
46.207933216626643
 31
0.0
 12
229.68768183091851
 22
36.852408937695643
 32
0.0
 13
231.55878668670789
 23
36.852408937699209
 33
0.0
  0
POLYLINE
  5
1097
  8
LOGO
 62
     5
 66
     1
 10
0.0
 20
0.0
 30
0.0
 70
     1
 40
1.8741034212597829
 41
1.8741034212597829
  0
VERTEX
  5
14F7
  8
LOGO
 62
     5
 10
244.3389845877677
 20
41.530171077161967
 30
0.0
 42
1.0
  0
VERTEX
  5
14F8
  8
LOGO
 62
     5
 10
251.835398272807
 20
41.530171077161967
 30
0.0
 42
1.0
  0
SEQEND
  5
14F9
  8
LOGO
 62
     5
  0
POLYLINE
  5
1098
  8
LOGO
 62
     5
 66
     1
 10
0.0
 20
0.0
 30
0.0
 40
1.8741034212597829
 41
1.8741034212597829
  0
VERTEX
  5
14FA
  8
LOGO
 62
     5
 10
288.3204436778949
 20
42.465723505054939
 30
0.0
 42
1.0
  0
VERTEX
  5
14FB
  8
LOGO
 62
     5
 10
282.69813341411532
 20
42.465723505054939
 30
0.0
 42
1.0
  0
SEQEND
  5
14FC
  8
LOGO
 62
     5
  0
SOLID
  5
1099
  8
LOGO
 62
     5
 10
283.8252941757969
 20
55.563457495554012
 30
0.0
 11
289.25149825757489
 21
55.563457495554012
 31
0.0
 12
283.8252941757969
 22
107.0188410296618
 32
0.0
 13
289.25149825757489
 23
107.0188410296654
 33
0.0
  0
SOLID
  5
109A
  8
LOGO
 62
     5
 10
255.758721339011
 20
107.0188410296618
 30
0.0
 11
261.18492542078877
 21
107.0188410296654
 31
0.0
 12
255.758721339011
 22
59.67988817828288
 32
0.0
 13
261.18492542078877
 23
79.575969811472589
 33
0.0
  0
SOLID
  5
109B
  8
LOGO
 62
     5
 10
255.758721339011
 20
59.67988817828288
 30
0.0
 11
261.18492542078877
 21
79.575969811472589
 31
0.0
 12
281.57996834885222
 22
107.0188410296654
 32
0.0
 13
276.15376426707383
 23
107.0188410296654
 33
0.0
  0
SOLID
  5
109C
  8
LOGO
 62
     5
 10
281.57996834885222
 20
102.9024103469348
 30
0.0
 11
276.15376426707383
 21
83.00632871374512
 31
0.0
 12
281.57996834885222
 22
55.563457495554012
 32
0.0
 13
276.15376426707383
 23
55.563457495554012
 33
0.0
  0
SOLID
  5
109D
  8
LOGO
 62
     2
 10
281.57996834885222
 20
107.0188410296654
 30
0.0
 11
283.8252941757969
 21
107.0188410296618
 31
0.0
 12
281.57996834885222
 22
55.563457495554012
 32
0.0
 13
283.8252941757969
 23
55.563457495554012
 33
0.0
  0
SOLID
  5
109E
  8
LOGO
 62
     5
 10
248.0871914302885
 20
55.563457495555802
 30
0.0
 11
253.51339551206641
 21
55.563457495555802
 31
0.0
 12
248.0871914302885
 22
83.00632871374512
 32
0.0
 13
253.51339551206641
 23
102.9024103469348
 33
0.0
  0
SOLID
  5
109F
  8
LOGO
 62
     2
 10
253.51339551206641
 20
107.0188410296618
 30
0.0
 11
255.758721339011
 21
107.0188410296618
 31
0.0
 12
253.51339551206641
 22
55.563457495555802
 32
0.0
 13
255.758721339011
 23
55.563457495555802
 33
0.0
  0
SOLID
  5
10A0
  8
LOGO
 62
     5
 10
255.758721339011
 20
55.563457495555802
 30
0.0
 11
261.18492542078877
 21
55.563457495555802
 31
0.0
 12
281.57996834885222
 22
102.9024103469348
 32
0.0
 13
276.15376426707383
 23
83.00632871374512
 33
0.0
  0
SOLID
  5
10A1
  8
LOGO
 62
     2
 10
253.51339551206641
 20
55.563457495555802
 30
0.0
 11
255.758721339011
 21
55.563457495555802
 31
0.0
 12
281.57996834885222
 22
107.0188410296654
 32
0.0
 13
283.8252941757969
 23
107.0188410296618
 33
0.0
  0
POLYLINE
  5
10A2
  8
LOGO
 62
     5
 66
     1
 10
0.0
 20
0.0
 30
0.0
 40
1.8741034212597829
 41
1.8741034212597829
  0
VERTEX
  5
14FD
  8
LOGO
 62
     5
 10
261.50114933797499
 20
42.465723505054939
 30
0.0
 42
1.0
  0
VERTEX
  5
14FE
  8
LOGO
 62
     5
 10
255.87883907419541
 20
42.465723505054939
 30
0.0
 42
1.0
  0
SEQEND
  5
14FF
  8
LOGO
 62
     5
  0
POLYLINE
  5
10A3
  8
LOGO
 62
     5
 66
     1
 10
0.0
 20
0.0
 30
0.0
 40
1.8741034212597829
 41
1.8741034212597829
  0
VERTEX
  5
1500
  8
LOGO
 62
     5
 10
240.2951695654113
 20
42.465723505054939
 30
0.0
 42
1.0
  0
VERTEX
  5
1501
  8
LOGO
 62
     5
 10
234.67285930163169
 20
42.465723505054939
 30
0.0
 42
1.0
  0
SEQEND
  5
1502
  8
LOGO
 62
     5
  0
SOLID
  5
10A4
  8
LOGO
 62
     5
 10
229.68768183091851
 20
47.517706615675799
 30
0.0
 11
231.55878668670789
 21
47.517706615675799
 31
0.0
 12
229.68768183091851
 22
49.014590500306241
 32
0.0
 13
231.55878668670789
 23
49.014590500306241
 33
0.0
  0
POLYLINE
  5
10A5
  8
LOGO
 62
     5
 66
     1
 10
0.0
 20
0.0
 30
0.0
 70
     1
  0
VERTEX
  5
1503
  8
LOGO
 62
     5
 10
272.09982848652908
 20
41.530171077162919
 30
0.0
 42
1.0000000573306349
  0
VERTEX
  5
1504
  8
LOGO
 62
     5
 10
277.71314305388728
 20
41.530171077162919
 30
0.0
 42
1.0000000573306349
  0
SEQEND
  5
1505
  8
LOGO
 62
     5
  0
CIRCLE
  5
10A6
  8
LOGO
 62
     5
 10
274.90648577020812
 20
41.530171077162898
 30
0.0
 40
2.8066572836786512
  0
POLYLINE
  5
10A7
  8
LOGO
 62
     5
 66
     1
 10
0.0
 20
0.0
 30
0.0
 40
1.8741034212597829
 41
1.8741034212597829
  0
VERTEX
  5
1506
  8
LOGO
 62
     5
 10
267.11446390533081
 20
42.465723505054939
 30
0.0
 42
1.0
  0
VERTEX
  5
1507
  8
LOGO
 62
     5
 10
261.49215364155123
 20
42.465723505054939
 30
0.0
 42
1.0
  0
SEQEND
  5
1508
  8
LOGO
 62
     5
  0
LINE
  5
10A8
  8
LOGO
 62
     1
 10
399.43026200435258
 20
34.701201824383681
 30
0.0
 11
399.43026200435258
 21
110.0
 31
0.0
  0
CIRCLE
  5
10A9
  8
LOGO
  6
CONTINUOUS
 62
     6
 10
422.66778584551099
 20
72.377445025578567
 30
0.0
 40
7.2867090924471674
  0
CIRCLE
  5
10AA
  8
LOGO
  6
CONTINUOUS
 62
     6
 10
422.66778584551099
 20
72.377445025578567
 30
0.0
 40
4.2693664723144753
  0
LINE
  5
10AB
  8
LOGO
 62
     6
 10
445.61489656865541
 20
68.108078553264093
 30
0.0
 11
445.61489656865501
 21
76.646811497893069
 31
0.0
  0
TEXT
  5
10AC
  8
LOGO
  6
CONTINUOUS
 62
     6
 10
685.99140005040135
 20
0.1892526605595526
 30
0.0
 40
10.45816641328004
  1
Model
  7
CHINESET
 72
     4
 11
705.91171702807765
 21
5.4183358671995734
 31
0.0
  0
TEXT
  5
10AD
  8
LOGO
  6
CONTINUOUS
 62
     7
 10
667.56510684605075
 20
68.167334346879827
 30
0.0
 40
20.91633282656008
  1
MRTH
  7
CHINESET
 72
     1
 11
705.91171702807765
 21
78.625500760159866
 31
0.0
 73
     2
  0
LINE
  5
10AE
  8
LOGO
 62
     6
 10
756.11091581182188
 20
97.450200304063955
 30
0.0
 11
655.71251824433352
 21
97.450200304063955
 31
0.0
  0
LINE
  5
10AF
  8
LOGO
 62
     6
 10
756.11091581182188
 20
59.800801216255799
 30
0.0
 11
655.71251824433352
 21
59.800801216255799
 31
0.0
  0
LINE
  5
10B0
  8
LOGO
 62
     6
 10
747.74438268119775
 20
40.976101672351739
 30
0.0
 11
664.07905137495754
 21
40.976101672351739
 31
0.0
  0
LINE
  5
10B1
  8
LOGO
 62
     6
 10
747.74438268119775
 20
-5.0398305460804798
 30
0.0
 11
664.07905137495754
 21
-5.039830546080565
 31
0.0
  0
TEXT
  5
10B2
  8
LOGO
 62
     7
 10
493.36821782049952
 20
78.578155733263046
 30
0.0
 40
25.099599391872101
  1
訂購代號:
  7
CHINESET
  0
TEXT
  5
10B3
  8
LOGO
 62
     7
 10
490.36616735640371
 20
55.021463063003637
 30
0.0
 40
16.733066261248059
  1
Order example:
 41
0.8
  7
CHINESET
  0
LINE
  5
10B4
  8
LOGO
 62
     1
 10
483.09559331059302
 20
-15.497996959360471
 30
0.0
 11
483.09559331059302
 21
110.0
 31
0.0
  0
LINE
  5
10B5
  8
LOGO
 62
     6
 10
468.45831129641772
 20
65.090735933131384
 30
0.0
 11
468.45831129641772
 21
79.664154118025721
 31
0.0
  0
LINE
  5
10B6
  8
LOGO
 62
     6
 10
664.07905137495754
 20
40.976101672351739
 30
0.0
 11
664.07905137495754
 21
-5.039830546080565
 31
0.0
  0
LINE
  5
10B7
  8
LOGO
 62
     6
 10
655.71251824433352
 20
97.450200304063955
 30
0.0
 11
655.71251824433352
 21
59.800801216255799
 31
0.0
  0
TEXT
  5
10B8
  8
LOGO
  6
CONTINUOUS
 62
     7
 10
804.90557644182286
 20
67.93014181463063
 30
0.0
 40
20.91633282656008
  1
80
  7
CHINESET
 72
     1
 11
821.83784587284765
 21
78.38830822791067
 31
0.0
 73
     2
  0
LINE
  5
10B9
  8
LOGO
 62
     6
 10
853.46767167898759
 20
-5.0398305460802097
 30
0.0
 11
786.30363686155079
 21
-5.0398305460803243
 31
0.0
  0
LINE
  5
10BA
  8
LOGO
 62
     6
 10
853.46767167898759
 20
59.800801216256048
 30
0.0
 11
786.30363686155079
 21
59.800801216256048
 31
0.0
  0
LINE
  5
10BB
  8
LOGO
 62
     6
 10
853.46767167898759
 20
40.976101672351952
 30
0.0
 11
786.30363686155079
 21
40.976101672351952
 31
0.0
  0
LINE
  5
10BC
  8
LOGO
 62
     6
 10
853.46767167898759
 20
97.450200304064424
 30
0.0
 11
786.30363686155079
 21
97.450200304064168
 31
0.0
  0
LINE
  5
10BD
  8
LOGO
 62
     6
 10
786.30363686155079
 20
40.976101672351952
 30
0.0
 11
786.30363686155079
 21
-5.0398305460802097
 31
0.0
  0
LINE
  5
10BE
  8
LOGO
 62
     6
 10
747.74438268119786
 20
40.976101672351739
 30
0.0
 11
747.74438268119786
 21
-5.0398305460804522
 31
0.0
  0
TEXT
  5
10BF
  8
LOGO
 62
     6
 10
689.17865076682961
 20
18.396343951710911
 30
0.0
 40
16.733066261248059
  1
型式
  7
CHINESET
 72
     4
 11
705.91171702807765
 21
26.334668693759689
 31
0.0
  0
LINE
  5
10C0
  8
LOGO
 62
     6
 10
705.91171702807765
 20
59.800801216255799
 30
0.0
 11
705.91171702807765
 21
40.976101672351739
 31
0.0
  0
LINE
  5
10C1
  8
LOGO
 62
     6
 10
786.30363686155079
 20
97.450200304064168
 30
0.0
 11
786.30363686155079
 21
59.800801216256048
 31
0.0
  0
LINE
  5
10C2
  8
LOGO
 62
     6
 10
756.11091581182188
 20
97.450200304063955
 30
0.0
 11
756.11091581182188
 21
59.800801216255799
 31
0.0
  0
LINE
  5
10C3
  8
LOGO
  6
CONTINUOUS
 62
     7
 10
763.16815389336455
 20
78.492140638579627
 30
0.0
 11
779.79275476501118
 21
78.492140638579627
 31
0.0
  0
LINE
  5
10C4
  8
LOGO
 62
     6
 10
874.72304716559779
 20
40.976101672351739
 30
0.0
 11
874.72304716559779
 21
-5.039830546080565
 31
0.0
  0
LINE
  5
10C5
  8
LOGO
 62
     6
 10
853.46767167898759
 20
40.976101672351952
 30
0.0
 11
853.46767167898759
 21
-5.0398305460800961
 31
0.0
  0
TEXT
  5
10C6
  8
LOGO
  6
CONTINUOUS
 62
     6
 10
806.93744823477982
 20
0.1892526605596947
 30
0.0
 40
10.45816641328004
  1
Bore
 41
0.8
  7
CHINESET
 72
     4
 11
819.88565427026936
 21
5.4183358671997146
 31
0.0
  0
TEXT
  5
10C7
  8
LOGO
 62
     6
 10
803.88465965795081
 20
17.96813556313576
 30
0.0
 40
16.733066261248059
  1
內徑
 41
0.9
  7
CHINESET
 72
     4
 11
819.88565427026936
 21
26.334668693759792
 31
0.0
  0
LINE
  5
10C8
  8
LOGO
  6
CONTINUOUS
 62
     7
 10
859.95409732803557
 20
78.492140638579841
 30
0.0
 11
876.57869819968232
 21
78.492140638579841
 31
0.0
  0
LINE
  5
10C9
  8
LOGO
 62
     6
 10
853.46767167898759
 20
97.450200304064424
 30
0.0
 11
853.46767167898759
 21
59.800801216256048
 31
0.0
  0
LINE
  5
10CA
  8
LOGO
 62
     6
 10
819.88565330567303
 20
59.800801216256048
 30
0.0
 11
819.88565330567303
 21
40.976101672351952
 31
0.0
  0
LINE
  5
10CB
  8
LOGO
 62
     6
 10
883.08958029622215
 20
97.450200304063955
 30
0.0
 11
883.0895802962217
 21
59.800801216255799
 31
0.0
  0
LINE
  5
10CC
  8
LOGO
 62
     6
 10
918.81886003055172
 20
59.800801216255799
 30
0.0
 11
918.81886003055172
 21
40.976101672351739
 31
0.0
  0
TEXT
  5
10CD
  8
LOGO
 62
     6
 10
1005.466502874937
 20
18.688678524680739
 30
0.0
 40
16.733066261248059
  1
雙心轉軸
 41
0.9
  7
CHINESET
 72
     4
 11
1035.7428946413829
 21
26.334668693759891
 31
0.0
  0
LINE
  5
10CE
  8
LOGO
 62
     6
 10
1096.9231681590711
 20
-5.0398305460800961
 30
0.0
 11
974.56262112369507
 21
-5.0398305460802097
 31
0.0
  0
LINE
  5
10CF
  8
LOGO
 62
     6
 10
1096.9231681590711
 20
40.976101672351952
 30
0.0
 11
974.56262112369507
 21
40.976101672351952
 31
0.0
  0
TEXT
  5
10D0
  8
LOGO
  6
CONTINUOUS
 62
     6
 10
994.50783849759364
 20
1.9322803961064801
 30
0.0
 40
10.45816641328004
  1
End rod type
 41
0.8
  7
CHINESET
 72
     4
 11
1035.7428946413829
 21
5.4183358671998292
 31
0.0
  0
LINE
  5
10D1
  8
LOGO
 62
     6
 10
974.56262112369507
 20
40.976101672351952
 30
0.0
 11
974.56262112369507
 21
-5.0398305460802097
 31
0.0
  0
LINE
  5
10D2
  8
LOGO
 62
     6
 10
961.14271714534402
 20
40.976101672351739
 30
0.0
 11
961.14271714534402
 21
-5.2133411226978259
 31
0.0
  0
LINE
  5
10D3
  8
LOGO
 62
     6
 10
952.77618401471989
 20
97.450200304063955
 30
0.0
 11
952.77618401471966
 21
59.80080121625577
 31
0.0
  0
LINE
  5
10D4
  8
LOGO
  6
CONTINUOUS
 62
     7
 10
960.18739598729587
 20
78.492140638579627
 30
0.0
 11
976.81199685894273
 21
78.492140638579627
 31
0.0
  0
TEXT
  5
10D5
  8
LOGO
  6
CONTINUOUS
 62
     7
 10
995.58825028834951
 20
67.930141814630389
 30
0.0
 40
20.91633282656008
  1
D
  7
CHINESET
 72
     1
 11
1002.560361230536
 21
78.388308227910429
 31
0.0
 73
     2
  0
LINE
  5
10D6
  8
LOGO
 62
     6
 10
1021.09330836109
 20
97.450200304064168
 30
0.0
 11
1021.09330836109
 21
59.800801216255799
 31
0.0
  0
LINE
  5
10D7
  8
LOGO
 62
     6
 10
983.00014289883438
 20
97.450200304064168
 30
0.0
 11
983.00014289883438
 21
59.800801216255799
 31
0.0
  0
LINE
  5
10D8
  8
LOGO
 62
     6
 10
1021.09330836109
 20
59.800801216255799
 30
0.0
 11
983.00014289883438
 21
59.800801216255799
 31
0.0
  0
LINE
  5
10D9
  8
LOGO
 62
     6
 10
1002.046725629962
 20
59.800801216255799
 30
0.0
 11
1002.046725629962
 21
40.976101672351952
 31
0.0
  0
LINE
  5
10DA
  8
LOGO
 62
     6
 10
1021.09330836109
 20
97.450200304064168
 30
0.0
 11
983.00014289883438
 21
97.450200304064168
 31
0.0
  0
LINE
  5
10DB
  8
LOGO
 62
     6
 10
1096.9231681590711
 20
40.976101672351952
 30
0.0
 11
1096.9231681590711
 21
-5.0398305460800961
 31
0.0
  0
LINE
  5
10DC
  8
LOGO
 62
     1
 10
1107.0
 20
-15.497996959360471
 30
0.0
 11
1107.0
 21
110.0
 31
0.0
  0
ENDSEC
  0
EOF
