  0
SECTION
  2
HEADER
  9
$ACADVER
  1
AC1009
  9
$INSBASE
 10
0.0
 20
0.0
 30
0.0
  9
$EXTMIN
 10
226.91931455363419
 20
52.269289126001922
 30
-0.0015258207003583
  9
$EXTMAX
 10
1107.0065944686139
 20
765.0439471810173
 30
0.0000000349246037
  9
$LIMMIN
 10
0.0
 20
0.0
  9
$LIMMAX
 10
1188.0
 20
840.0
  9
$ORTHOMODE
 70
     0
  9
$REGENMODE
 70
     1
  9
$FILLMODE
 70
     1
  9
$QTEXTMODE
 70
     0
  9
$MIRRTEXT
 70
     1
  9
$DRAGMODE
 70
     2
  9
$LTSCALE
 40
1.0
  9
$OSMODE
 70
    39
  9
$ATTMODE
 70
     1
  9
$TEXTSIZE
 40
3.0
  9
$TRACEWID
 40
0.05
  9
$TEXTSTYLE
  7
ITALICT
  9
$CLAYER
  8
0
  9
$CELTYPE
  6
CONTINUOUS
  9
$CECOLOR
 62
   256
  9
$DIMSCALE
 40
1.0
  9
$DIMASZ
 40
3.0
  9
$DIMEXO
 40
1.0
  9
$DIMDLI
 40
1.4824161510814720E+016
  9
$DIMRND
 40
0.0
  9
$DIMDLE
 40
0.0
  9
$DIMEXE
 40
1.0
  9
$DIMTP
 40
0.15
  9
$DIMTM
 40
-0.1
  9
$DIMTXT
 40
3.0
  9
$DIMCEN
 40
2.0
  9
$DIMTSZ
 40
0.0
  9
$DIMTOL
 70
     0
  9
$DIMLIM
 70
     0
  9
$DIMTIH
 70
     0
  9
$DIMTOH
 70
     0
  9
$DIMSE1
 70
     0
  9
$DIMSE2
 70
     0
  9
$DIMTAD
 70
     1
  9
$DIMZIN
 70
     0
  9
$DIMBLK
  1

  9
$DIMASO
 70
     0
  9
$DIMSHO
 70
     0
  9
$DIMPOST
  1

  9
$DIMAPOST
  1

  9
$DIMALT
 70
     0
  9
$DIMALTD
 70
     2
  9
$DIMALTF
 40
25.399999999999999
  9
$DIMLFAC
 40
1.0
  9
$DIMTOFL
 70
     1
  9
$DIMTVP
 40
1.0
  9
$DIMTIX
 70
     0
  9
$DIMSOXD
 70
     0
  9
$DIMSAH
 70
     0
  9
$DIMBLK1
  1

  9
$DIMBLK2
  1

  9
$DIMSTYLE
  2
STANDARD
  9
$DIMCLRD
 70
     0
  9
$DIMCLRE
 70
     0
  9
$DIMCLRT
 70
     0
  9
$DIMTFAC
 40
1.0
  9
$DIMGAP
 40
0.09
  9
$LUNITS
 70
     2
  9
$LUPREC
 70
     2
  9
$SKETCHINC
 40
0.1
  9
$FILLETRAD
 40
0.75
  9
$AUNITS
 70
     0
  9
$AUPREC
 70
     2
  9
$MENU
  1
ACAD
  9
$ELEVATION
 40
0.0
  9
$PELEVATION
 40
0.0
  9
$THICKNESS
 40
0.0
  9
$LIMCHECK
 70
     0
  9
$BLIPMODE
 70
     0
  9
$CHAMFERA
 40
0.0
  9
$CHAMFERB
 40
0.0
  9
$SKPOLY
 70
     1
  9
$TDCREATE
 40
2450580.7034460641
  9
$TDUPDATE
 40
2451939.4172736919
  9
$TDINDWG
 40
0.0934789005
  9
$TDUSRTIMER
 40
0.0934789005
  9
$USRTIMER
 70
     1
  9
$ANGBASE
 50
0.0
  9
$ANGDIR
 70
     0
  9
$PDMODE
 70
     0
  9
$PDSIZE
 40
0.0
  9
$PLINEWID
 40
0.0
  9
$COORDS
 70
     2
  9
$SPLFRAME
 70
     0
  9
$SPLINETYPE
 70
     6
  9
$SPLINESEGS
 70
     8
  9
$ATTDIA
 70
     0
  9
$ATTREQ
 70
     1
  9
$HANDLING
 70
 12289
  9
$HANDSEED
  5
14C9
  9
$SURFTAB1
 70
     6
  9
$SURFTAB2
 70
     6
  9
$SURFTYPE
 70
     6
  9
$SURFU
 70
     6
  9
$SURFV
 70
     6
  9
$UCSNAME
  2

  9
$UCSORG
 10
0.0
 20
0.0
 30
0.0
  9
$UCSXDIR
 10
1.0
 20
0.0
 30
0.0
  9
$UCSYDIR
 10
0.0
 20
1.0
 30
0.0
  9
$PUCSNAME
  2

  9
$PUCSORG
 10
0.0
 20
0.0
 30
0.0
  9
$PUCSXDIR
 10
1.0
 20
0.0
 30
0.0
  9
$PUCSYDIR
 10
0.0
 20
1.0
 30
0.0
  9
$USERI1
 70
     0
  9
$USERI2
 70
-31485
  9
$USERI3
 70
     0
  9
$USERI4
 70
     0
  9
$USERI5
 70
     0
  9
$USERR1
 40
0.0
  9
$USERR2
 40
0.0
  9
$USERR3
 40
0.0
  9
$USERR4
 40
0.0
  9
$USERR5
 40
0.0
  9
$WORLDVIEW
 70
     1
  9
$SHADEDGE
 70
     3
  9
$SHADEDIF
 70
    70
  9
$TILEMODE
 70
     1
  9
$MAXACTVP
 70
    64
  9
$PLIMCHECK
 70
     0
  9
$PEXTMIN
 10
1.0000000000000000E+020
 20
1.0000000000000000E+020
 30
1.0000000000000000E+020
  9
$PEXTMAX
 10
-1.0000000000000000E+020
 20
-1.0000000000000000E+020
 30
-1.0000000000000000E+020
  9
$PLIMMIN
 10
0.0
 20
0.0
  9
$PLIMMAX
 10
12.0
 20
9.0
  9
$UNITMODE
 70
     0
  9
$VISRETAIN
 70
     1
  9
$PLINEGEN
 70
     0
  9
$PSLTSCALE
 70
     0
  0
ENDSEC
  0
SECTION
  2
TABLES
  0
TABLE
  2
VPORT
 70
     2
  0
VPORT
  2
*ACTIVE
 70
     0
 10
0.0
 20
0.0
 11
1.0
 21
1.0
 12
666.96295451112417
 22
408.65661815350961
 13
0.0
 23
0.0
 14
1.0
 24
1.0
 15
0.0
 25
0.0
 16
0.0
 26
0.0
 36
1.0
 17
0.0
 27
0.0
 37
0.0
 40
720.63614325415165
 41
1.7274401473296499
 42
1.0
 43
0.0
 44
0.0
 50
0.0
 51
0.0
 71
     0
 72
   100
 73
     1
 74
     1
 75
     0
 76
     0
 77
     0
 78
     0
  0
ENDTAB
  0
TABLE
  2
LTYPE
 70
     3
  0
LTYPE
  2
CONTINUOUS
 70
     0
  3
Solid line
 72
    65
 73
     0
 40
0.0
  0
LTYPE
  2
CENTER
 70
     0
  3
_______________ _ _______________ _ ___________
 72
    65
 73
     4
 40
18.0
 49
15.0
 49
-1.0
 49
1.0
 49
-1.0
  0
LTYPE
  2
HIDDEN
 70
     0
  3
___ ___ ___ ___ ___ ___ ___ ___ ___ ___ 
 72
    65
 73
     2
 40
4.0
 49
3.0
 49
-1.0
  0
ENDTAB
  0
TABLE
  2
LAYER
 70
     5
  0
LAYER
  2
0
 70
     0
 62
     7
  6
CONTINUOUS
  0
LAYER
  2
DIM
 70
     0
 62
     5
  6
CONTINUOUS
  0
LAYER
  2
HIDDEN
 70
     0
 62
     6
  6
HIDDEN
  0
LAYER
  2
CENTER
 70
     0
 62
     1
  6
CENTER
  0
LAYER
  2
LOGO
 70
     0
 62
     7
  6
CONTINUOUS
  0
ENDTAB
  0
TABLE
  2
STYLE
 70
     8
  0
STYLE
  2
STANDARD
 70
     0
 40
0.0
 41
1.0
 50
0.0
 71
     0
 42
3.0
  3
txt
  4

  0
STYLE
  2
ITALICT
 70
     0
 40
0.0
 41
1.0
 50
0.0
 71
     0
 42
3.0
  3
ITALICT.SHX
  4

  0
STYLE
  2
ROMANSS
 70
     0
 40
0.0
 41
1.0
 50
0.0
 71
     0
 42
3.0
  3
ROMANSS.SHX
  4
LMP
  0
STYLE
  2
CHINESET
 70
     0
 40
0.0
 41
1.0
 50
0.0
 71
     0
 42
4.0
  3
C:\r13\com\fonts\simplex.shx
  4
C:\r13\com\fonts\chineset.shx
  0
STYLE
  2
LOGO
 70
     0
 40
0.0
 41
1.0
 50
0.0
 71
     0
 42
5.0
  3
txt
  4

  0
ENDTAB
  0
TABLE
  2
VIEW
 70
     0
  0
ENDTAB
  0
TABLE
  2
UCS
 70
     0
  0
ENDTAB
  0
TABLE
  2
APPID
 70
     2
  0
APPID
  2
ACAD
 70
     0
  0
APPID
  2
TCAD
 70
     0
  0
ENDTAB
  0
TABLE
  2
DIMSTYLE
 70
     1
  0
DIMSTYLE
  2
STANDARD
 70
     0
  3

  4

  5

  6

  7

 40
1.0
 41
0.18
 42
0.0625
 43
0.38
 44
0.18
 45
0.0
 46
0.0
 47
0.0
 48
0.0
140
0.18
141
0.09
142
0.0
143
25.399999999999999
144
1.0
145
0.0
146
1.0
147
0.09
 71
     0
 72
     0
 73
     1
 74
     1
 75
     0
 76
     0
 77
     0
 78
     0
170
     0
171
     2
172
     0
173
     0
174
     0
175
     0
176
     0
177
     0
178
     0
  0
ENDTAB
  0
ENDSEC
  0
SECTION
  2
BLOCKS
  0
BLOCK
  8
0
  2
$MODEL_SPACE
 70
     0
 10
0.0
 20
0.0
 30
0.0
  3
$MODEL_SPACE
  1

  0
ENDBLK
  5
3F
  8
0
  0
BLOCK
 67
     1
  8
0
  2
$PAPER_SPACE
 70
     0
 10
0.0
 20
0.0
 30
0.0
  3
$PAPER_SPACE
  1

  0
ENDBLK
  5
3D
 67
     1
  8
0
  0
ENDSEC
  0
SECTION
  2
ENTITIES
  0
LINE
  5
B29
  8
0
 62
     4
 10
227.0
 20
175.0
 30
0.0
 11
227.0
 21
765.00000000000023
 31
0.0
  0
LINE
  5
B2B
  8
0
 62
     4
 10
1107.0
 20
175.0
 30
0.0
 11
227.0
 21
175.0
 31
0.0
  0
LINE
  5
B2E
  8
0
 62
     4
 10
227.0
 20
765.00000000000023
 30
0.0
 11
1107.0
 21
764.99999999999977
 31
0.0
  0
LINE
  5
B2F
  8
0
 62
     4
 10
1107.0
 20
764.99999999999977
 30
0.0
 11
1107.0
 21
175.0
 31
0.0
  0
LINE
  5
B30
  8
CENTER
  6
CENTER
 10
1041.513924020815
 20
454.52823866563068
 30
0.0
 11
1011.513924020815
 21
454.52823866563068
 31
0.0
  0
LINE
  5
B31
  8
CENTER
  6
CENTER
 10
511.75833494938922
 20
269.68244711387229
 30
0.0
 11
833.75833494938934
 21
269.68244711387229
 31
0.0
  0
LINE
  5
B32
  8
CENTER
  6
CENTER
 10
624.75833494938934
 20
239.6824471138724
 30
0.0
 11
720.75833494938934
 21
239.6824471138724
 31
0.0
  0
LINE
  5
B33
  8
0
 10
627.75833494938922
 20
197.1824471138722
 30
0.0
 11
717.75833494938934
 21
197.1824471138722
 31
0.0
  0
LINE
  5
B34
  8
0
 10
627.75833494938934
 20
307.18244711387229
 30
0.0
 11
717.75833494938934
 21
307.18244711387229
 31
0.0
  0
CIRCLE
  5
B35
  8
0
  6
CONTINUOUS
 10
672.75833494938934
 20
239.6824471138724
 30
0.0
 40
41.0
  0
CIRCLE
  5
B36
  8
0
  6
CONTINUOUS
 10
672.75833494938934
 20
239.6824471138724
 30
0.0
 40
40.0
  0
CIRCLE
  5
B37
  8
CENTER
  6
CENTER
 10
672.75833494938934
 20
239.6824471138724
 30
0.0
 40
33.5
  0
ARC
  5
B38
  8
0
  6
CONTINUOUS
 10
672.75833494938934
 20
684.22313833922499
 30
0.0
 40
15.00000000000005
 50
195.4660099534203
 51
164.53399004657959
  0
CIRCLE
  5
B39
  8
CENTER
  6
CENTER
 10
672.75833494938934
 20
684.22313833922499
 30
0.0
 40
33.5
  0
LINE
  5
B3A
  8
DIM
  6
CONTINUOUS
 10
679.51014227453743
 20
686.00446283926294
 30
0.0
 11
741.10507172053599
 21
707.7128183510315
 31
0.0
  0
LINE
  5
B3B
  8
DIM
  6
CONTINUOUS
 10
681.75833494938911
 20
580.52823866563062
 30
0.0
 11
660.75833494938911
 21
580.52823866563062
 31
0.0
  0
LINE
  5
B3C
  8
DIM
  6
CONTINUOUS
 10
681.75833494938911
 20
572.52823866563062
 30
0.0
 11
663.758334949389
 21
572.52823866563062
 31
0.0
  0
LINE
  5
B3D
  8
DIM
  6
CONTINUOUS
 10
640.75833494938934
 20
734.72313833922522
 30
0.0
 11
704.75833494938934
 21
734.72313833922522
 31
0.0
  0
LINE
  5
B3E
  8
DIM
  6
CONTINUOUS
 10
505.90160893267262
 20
343.52823866563051
 30
0.0
 11
839.23435467761715
 21
343.52823866563051
 31
0.0
  0
LINE
  5
B3F
  8
DIM
  6
CONTINUOUS
 10
630.75833494938934
 20
351.52823866563051
 30
0.0
 11
714.75833494938934
 21
351.52823866563051
 31
0.0
  0
LINE
  5
B40
  8
DIM
  6
CONTINUOUS
 10
634.75833494938934
 20
359.52823866563051
 30
0.0
 11
710.75833494938934
 21
359.52823866563051
 31
0.0
  0
CIRCLE
  5
B41
  8
0
  6
CONTINUOUS
 10
672.75833494938934
 20
684.22313833922499
 30
0.0
 40
40.0
  0
CIRCLE
  5
B42
  8
0
  6
CONTINUOUS
 10
672.75833494938934
 20
684.22313833922499
 30
0.0
 40
41.0
  0
LINE
  5
B43
  8
0
 10
627.75833494938934
 20
616.72313833922487
 30
0.0
 11
717.75833494938934
 21
616.72313833922487
 31
0.0
  0
LINE
  5
B44
  8
0
 10
627.75833494938922
 20
726.7231383392251
 30
0.0
 11
717.75833494938934
 21
726.7231383392251
 31
0.0
  0
LINE
  5
B45
  8
CENTER
  6
CENTER
 10
624.75833494938934
 20
684.22313833922499
 30
0.0
 11
720.75833494938934
 21
684.22313833922499
 31
0.0
  0
CIRCLE
  5
B46
  8
0
  6
CONTINUOUS
 10
672.75833494938934
 20
684.22313833922499
 30
0.0
 40
11.00000000000005
  0
CIRCLE
  5
B47
  8
0
  6
CONTINUOUS
 10
672.75833494938934
 20
684.22313833922499
 30
0.0
 40
12.00000000000005
  0
LINE
  5
B48
  8
0
  6
CONTINUOUS
 10
631.75833494938934
 20
427.52823866563051
 30
0.0
 11
713.75833494938934
 21
427.52823866563051
 31
0.0
  0
LINE
  5
B49
  8
0
  6
CONTINUOUS
 10
631.75833494938934
 20
520.52823866563062
 30
0.0
 11
713.75833494938934
 21
520.52823866563062
 31
0.0
  0
LINE
  5
B4A
  8
0
  6
CONTINUOUS
 10
657.75833494938922
 20
522.52823866563062
 30
0.0
 11
687.75833494938922
 21
522.52823866563062
 31
0.0
  0
LINE
  5
B4B
  8
0
  6
CONTINUOUS
 10
660.75833494938911
 20
563.52823866563062
 30
0.0
 11
684.758334949389
 21
563.52823866563062
 31
0.0
  0
LINE
  5
B4C
  8
0
  6
CONTINUOUS
 10
661.75833494938911
 20
564.52823866563051
 30
0.0
 11
683.75833494938911
 21
564.52823866563051
 31
0.0
  0
LINE
  5
B4D
  8
0
  6
CONTINUOUS
 10
632.75833494938934
 20
426.52823866563062
 30
0.0
 11
712.75833494938934
 21
426.52823866563062
 31
0.0
  0
LINE
  5
B4E
  8
0
  6
CONTINUOUS
 10
632.75833494938934
 20
521.52823866563062
 30
0.0
 11
712.75833494938934
 21
521.52823866563062
 31
0.0
  0
LINE
  5
B4F
  8
0
  6
CONTINUOUS
 10
627.75833494938934
 20
436.52823866563051
 30
0.0
 11
717.75833494938934
 21
436.52823866563051
 31
0.0
  0
LINE
  5
B50
  8
0
  6
CONTINUOUS
 10
627.75833494938922
 20
511.52823866563051
 30
0.0
 11
717.75833494938934
 21
511.52823866563051
 31
0.0
  0
LINE
  5
B51
  8
CENTER
  6
CENTER
 10
511.75833494938922
 20
654.22313833922487
 30
0.0
 11
833.75833494938934
 21
654.22313833922487
 31
0.0
  0
LINE
  5
B52
  8
CENTER
  6
CENTER
 10
511.75833494938922
 20
474.02823866563062
 30
0.0
 11
832.758334949389
 21
474.02823866563051
 31
0.0
  0
LINE
  5
B53
  8
CENTER
  6
CENTER
 10
370.5027458779636
 20
514.5282386656304
 30
0.0
 11
370.5027458779636
 21
433.52823866563051
 31
0.0
  0
CIRCLE
  5
B54
  8
0
 10
370.5027458779636
 20
474.0282386656304
 30
0.0
 40
22.999999999999979
  0
CIRCLE
  5
B55
  8
0
 10
370.5027458779636
 20
474.0282386656304
 30
0.0
 40
22.499999999999979
  0
LINE
  5
B56
  8
0
 10
405.0027458779636
 20
471.5282386656304
 30
0.0
 11
405.0027458779636
 21
455.69980608212251
 31
0.0
  0
LINE
  5
B57
  8
0
 10
407.50274587796372
 20
502.0282386656304
 30
0.0
 11
407.50274587796372
 21
446.0282386656304
 31
0.0
  0
LINE
  5
B58
  8
0
 10
336.0027458779636
 20
471.52823866563028
 30
0.0
 11
336.0027458779636
 21
455.69980608212251
 31
0.0
  0
LINE
  5
B59
  8
0
 10
333.0027458779636
 20
502.0282386656304
 30
0.0
 11
333.0027458779636
 21
446.0282386656304
 31
0.0
  0
LINE
  5
B5A
  8
0
 10
333.5027458779636
 20
502.0282386656304
 30
0.0
 11
333.5027458779636
 21
446.0282386656304
 31
0.0
  0
LINE
  5
B5B
  8
0
 10
408.0027458779636
 20
511.52823866563051
 30
0.0
 11
408.0027458779636
 21
436.52823866563028
 31
0.0
  0
LINE
  5
B5C
  8
0
 10
298.00274587796349
 20
511.52823866563051
 30
0.0
 11
298.0027458779636
 21
436.52823866563028
 31
0.0
  0
LINE
  5
B5D
  8
CENTER
  6
CENTER
 10
340.50274587796372
 20
568.96844794417177
 30
0.0
 11
340.5027458779636
 21
378.65157305513583
 31
0.0
  0
CIRCLE
  5
B5E
  8
0
  6
CONTINUOUS
 10
672.75833494938922
 20
474.02823866563051
 30
0.0
 40
4.0
  0
LINE
  5
B5F
  8
0
 10
514.75833494938922
 20
452.52823866563062
 30
0.0
 11
514.75833494938922
 21
495.52823866563062
 31
0.0
  0
LINE
  5
B60
  8
0
 10
519.75833494938934
 20
437.02823866563051
 30
0.0
 11
519.75833494938922
 21
511.02823866563062
 31
0.0
  0
LINE
  5
B61
  8
0
 10
551.75833494938934
 20
436.52823866563051
 30
0.0
 11
551.75833494938922
 21
511.52823866563062
 31
0.0
  0
LINE
  5
B62
  8
0
 10
551.75833494938934
 20
439.02823866563062
 30
0.0
 11
551.75833494938934
 21
509.02823866563051
 31
0.0
  0
ARC
  5
B63
  8
0
 62
     2
 10
535.75833494938922
 20
467.02823866563051
 30
0.0
 40
8.25
 50
77.924803836954695
 51
18.66239316544431
  0
CIRCLE
  5
B64
  8
0
 10
535.75833494938922
 20
467.02823866563051
 30
0.0
 40
11.5
  0
CIRCLE
  5
B65
  8
0
 10
535.75833494938922
 20
467.02823866563051
 30
0.0
 40
8.4999999999999574
  0
CIRCLE
  5
B66
  8
0
 10
535.75833494938922
 20
467.0282386656304
 30
0.0
 40
6.5
  0
CIRCLE
  5
B67
  8
0
 10
535.75833494938922
 20
467.02823866563051
 30
0.0
 40
7.5
  0
LINE
  5
B68
  8
CENTER
  6
CENTER
 10
535.75833494938934
 20
479.52823866563068
 30
0.0
 11
535.75833494938922
 21
454.52823866563068
 31
0.0
  0
LINE
  5
B69
  8
0
 10
627.75833494938922
 20
511.52823866563051
 30
0.0
 11
627.75833494938934
 21
436.52823866563051
 31
0.0
  0
LINE
  5
B6A
  8
CENTER
  6
CENTER
 10
672.75833494938922
 20
567.52823866563062
 30
0.0
 11
672.75833494938934
 21
423.52823866563051
 31
0.0
  0
ARC
  5
B6B
  8
0
 10
382.00274587796372
 20
452.3949310128466
 30
0.0
 40
1.5
 50
117.99456173225229
 51
180.0
  0
ARC
  5
B6C
  8
0
 10
382.00274587796372
 20
441.0282386656304
 30
0.0
 40
1.5
 50
180.0
 51
270.0
  0
LINE
  5
B6D
  8
0
  6
CONTINUOUS
 10
380.5027458779636
 20
426.5282386656304
 30
0.0
 11
381.5027458779636
 21
427.5282386656304
 31
0.0
  0
LINE
  5
B6E
  8
0
 10
373.00274587796378
 20
439.5282386656304
 30
0.0
 11
388.83117846147161
 21
439.52823866563051
 31
0.0
  0
LINE
  5
B6F
  8
0
 10
398.5027458779636
 20
437.0282386656304
 30
0.0
 11
342.5027458779636
 21
437.0282386656304
 31
0.0
  0
LINE
  5
B70
  8
0
  6
CONTINUOUS
 10
381.5027458779636
 20
427.5282386656304
 30
0.0
 11
299.5027458779636
 21
427.5282386656304
 31
0.0
  0
LINE
  5
B71
  8
0
  6
CONTINUOUS
 10
408.0027458779636
 20
436.5282386656304
 30
0.0
 11
298.00274587796349
 21
436.5282386656304
 31
0.0
  0
LINE
  5
B72
  8
0
  6
CONTINUOUS
 10
380.5027458779636
 20
426.5282386656304
 30
0.0
 11
300.5027458779636
 21
426.5282386656304
 31
0.0
  0
LINE
  5
B73
  8
CENTER
  6
CENTER
 10
305.5027458779636
 20
434.24805730284783
 30
0.0
 11
305.5027458779636
 21
448.24805730284783
 31
0.0
  0
LINE
  5
B74
  8
0
 10
299.5027458779636
 20
427.5282386656304
 30
0.0
 11
299.5027458779636
 21
436.5282386656304
 31
0.0
  0
LINE
  5
B75
  8
0
  6
CONTINUOUS
 10
300.5027458779636
 20
426.5282386656304
 30
0.0
 11
299.5027458779636
 21
427.5282386656304
 31
0.0
  0
ARC
  5
B76
  8
0
 10
347.83938739539661
 20
455.25396747958928
 30
0.0
 40
1.5
 50
239.4775121859314
 51
315.0
  0
LINE
  5
B77
  8
0
 10
337.5027458779636
 20
464.02823866563028
 30
0.0
 11
348.86943822517969
 21
464.02823866563028
 31
0.0
  0
LINE
  5
B78
  8
CENTER
  6
CENTER
 10
349.7527458779636
 20
445.7782386656304
 30
0.0
 11
334.7527458779636
 21
445.7782386656304
 31
0.0
  0
CIRCLE
  5
B79
  8
0
 10
342.2527458779636
 20
445.7782386656304
 30
0.0
 40
6.5
  0
LINE
  5
B7A
  8
CENTER
  6
CENTER
 10
342.2527458779636
 20
453.2782386656304
 30
0.0
 11
342.2527458779636
 21
438.2782386656304
 31
0.0
  0
ARC
  5
B7B
  8
0
  6
CONTINUOUS
 62
     2
 10
342.2527458779636
 20
445.7782386656304
 30
0.0
 40
4.0
 50
165.54611884332431
 51
122.22581883937571
  0
CIRCLE
  5
B7C
  8
0
  6
CONTINUOUS
 10
342.2527458779636
 20
445.7782386656304
 30
0.0
 40
3.399999999999999
  0
POLYLINE
  5
B7D
  8
0
  6
CONTINUOUS
 66
     1
 10
0.0
 20
0.0
 30
0.0
 70
     1
  0
VERTEX
  5
140D
  8
0
  6
CONTINUOUS
 10
344.5621469547221
 20
449.7782386656304
 30
0.0
  0
VERTEX
  5
140E
  8
0
  6
CONTINUOUS
 10
346.87154803148059
 20
445.7782386656304
 30
0.0
  0
VERTEX
  5
140F
  8
0
  6
CONTINUOUS
 10
344.5621469547221
 20
441.77823866563051
 30
0.0
  0
VERTEX
  5
1410
  8
0
  6
CONTINUOUS
 10
339.94334480120511
 20
441.77823866563051
 30
0.0
  0
VERTEX
  5
1411
  8
0
  6
CONTINUOUS
 10
337.63394372444668
 20
445.7782386656304
 30
0.0
  0
VERTEX
  5
1412
  8
0
  6
CONTINUOUS
 10
339.94334480120511
 20
449.7782386656304
 30
0.0
  0
SEQEND
  5
1413
  8
0
  6
CONTINUOUS
  0
ARC
  5
B85
  8
0
 10
342.5027458779636
 20
446.0282386656304
 30
0.0
 40
9.5
 50
180.0
 51
270.0
  0
ARC
  5
B86
  8
0
 10
342.5027458779636
 20
446.0282386656304
 30
0.0
 40
9.0
 50
180.0
 51
270.0
  0
ARC
  5
B87
  8
0
 10
342.2527458779636
 20
445.7782386656304
 30
0.0
 40
9.5
 50
59.477512185930138
 51
115.58300197739329
  0
ARC
  5
B88
  8
0
 10
337.5027458779636
 20
455.69980608212251
 30
0.0
 40
1.5
 50
180.0
 51
295.58300197742682
  0
ARC
  5
B89
  8
0
 10
337.5027458779636
 20
462.52823866563028
 30
0.0
 40
1.5
 50
90.0
 51
180.0
  0
LINE
  5
B8A
  8
0
 10
360.5027458779636
 20
441.0282386656304
 30
0.0
 11
360.5027458779636
 21
452.3949310128466
 31
0.0
  0
ARC
  5
B8B
  8
0
 10
342.2527458779636
 20
445.7782386656304
 30
0.0
 40
9.5
 50
334.41699802262252
 51
30.52248781407032
  0
LINE
  5
B8C
  8
0
 10
371.50274587796372
 20
441.0282386656304
 30
0.0
 11
371.50274587796372
 21
449.65612345172258
 31
0.0
  0
LINE
  5
B8D
  8
0
 10
380.50274587796372
 20
441.0282386656304
 30
0.0
 11
380.50274587796372
 21
452.3949310128466
 31
0.0
  0
LINE
  5
B8E
  8
0
 10
369.5027458779636
 20
441.0282386656304
 30
0.0
 11
369.5027458779636
 21
449.65612345172258
 31
0.0
  0
LINE
  5
B8F
  8
CENTER
  6
CENTER
 10
375.5027458779636
 20
434.24805730284783
 30
0.0
 11
375.5027458779636
 21
448.24805730284771
 31
0.0
  0
LINE
  5
B90
  8
0
 10
368.0027458779636
 20
439.5282386656304
 30
0.0
 11
352.17431329445571
 21
439.52823866563051
 31
0.0
  0
ARC
  5
B91
  8
0
 10
352.17431329445571
 20
441.0282386656304
 30
0.0
 40
1.5
 50
154.41699802259049
 51
270.0
  0
ARC
  5
B92
  8
0
 10
359.0027458779636
 20
441.0282386656304
 30
0.0
 40
1.5
 50
270.0
 51
0.0
  0
ARC
  5
B93
  8
0
 10
373.00274587796378
 20
441.0282386656304
 30
0.0
 40
1.5
 50
180.0
 51
270.0
  0
ARC
  5
B94
  8
0
 10
368.0027458779636
 20
441.0282386656304
 30
0.0
 40
1.5
 50
270.0
 51
0.0
  0
ARC
  5
B95
  8
0
 10
351.34356456287759
 20
458.75814464707042
 30
0.0
 40
1.5
 50
315.0
 51
38.555259660229609
  0
ARC
  5
B96
  8
0
 10
355.23265185940357
 20
454.86905735054449
 30
0.0
 40
1.5
 50
51.444740339770391
 51
135.0
  0
LINE
  5
B97
  8
0
 10
352.40422473465759
 20
457.69748447529059
 30
0.0
 11
348.90004756717639
 21
454.1933073078095
 31
0.0
  0
LINE
  5
B98
  8
0
 10
354.1719916876238
 20
455.92971752232438
 30
0.0
 11
350.6678145201426
 21
452.42554035484329
 31
0.0
  0
ARC
  5
B99
  8
0
 10
351.7284746919226
 20
451.36488018306341
 30
0.0
 40
1.5
 50
135.0
 51
210.52248781406999
  0
ARC
  5
B9A
  8
0
 10
359.0027458779636
 20
452.3949310128466
 30
0.0
 40
1.5
 50
0.0
 51
62.005438267747621
  0
ARC
  5
B9B
  8
0
 10
348.86943822517969
 20
462.52823866563028
 30
0.0
 40
1.5
 50
27.994561732252372
 51
90.0
  0
ARC
  5
B9C
  8
0
 10
373.00274587796378
 20
449.65612345172258
 30
0.0
 40
1.5
 50
95.856701909919025
 51
180.0
  0
ARC
  5
B9D
  8
0
 10
368.0027458779636
 20
449.65612345172258
 30
0.0
 40
1.5
 50
0.0
 51
84.143298090080961
  0
LINE
  5
B9E
  8
CENTER
  6
CENTER
 10
672.75833494938934
 20
194.1824471138722
 30
0.0
 11
672.75833494938934
 21
310.1824471138724
 31
0.0
  0
LINE
  5
B9F
  8
0
 10
627.75833494938922
 20
197.1824471138722
 30
0.0
 11
627.75833494938934
 21
307.18244711387229
 31
0.0
  0
LINE
  5
BA0
  8
CENTER
  6
CENTER
 10
644.82761709252065
 20
211.75172925700369
 30
0.0
 11
653.31289846675907
 21
220.23701063124221
 31
0.0
  0
LINE
  5
BA1
  8
CENTER
  6
CENTER
 10
630.75833494938934
 20
204.6824471138724
 30
0.0
 11
644.75833494938934
 21
204.6824471138724
 31
0.0
  0
LINE
  5
BA2
  8
CENTER
  6
CENTER
 10
637.75833494938934
 20
197.68244711387231
 30
0.0
 11
637.75833494938934
 21
211.68244711387231
 31
0.0
  0
ARC
  5
BA3
  8
0
  6
CONTINUOUS
 62
     2
 10
637.75833494938934
 20
204.6824471138724
 30
0.0
 40
4.0
 50
335.22857957427379
 51
294.32248297488059
  0
CIRCLE
  5
BA4
  8
0
  6
CONTINUOUS
 10
637.75833494938934
 20
204.6824471138724
 30
0.0
 40
3.399999999999999
  0
LINE
  5
BA5
  8
0
 10
627.75833494938911
 20
234.68244711387231
 30
0.0
 11
551.75833494938934
 21
234.68244711387231
 31
0.0
  0
LINE
  5
BA6
  8
0
 10
627.75833494938934
 20
304.68244711387229
 30
0.0
 11
551.75833494938934
 21
304.68244711387229
 31
0.0
  0
LINE
  5
BA7
  8
0
 10
627.75833494938934
 20
288.47255657244568
 30
0.0
 11
551.75833494938934
 21
288.47255657244568
 31
0.0
  0
LINE
  5
BA8
  8
0
 10
627.75833494938934
 20
250.89233765529889
 30
0.0
 11
551.75833494938934
 21
250.89233765529889
 31
0.0
  0
LINE
  5
BA9
  8
0
 10
627.75833494938934
 20
455.23812920705711
 30
0.0
 11
551.75833494938934
 21
455.23812920705711
 31
0.0
  0
LINE
  5
BAA
  8
0
 10
627.75833494938934
 20
439.02823866563062
 30
0.0
 11
551.75833494938934
 21
439.02823866563062
 31
0.0
  0
LINE
  5
BAB
  8
0
 10
551.75833494938934
 20
232.18244711387231
 30
0.0
 11
551.75833494938922
 21
307.18244711387229
 31
0.0
  0
LINE
  5
BAC
  8
0
 10
519.75833494938934
 20
232.6824471138722
 30
0.0
 11
519.75833494938922
 21
306.68244711387229
 31
0.0
  0
LINE
  5
BAD
  8
0
 10
551.75833494938922
 20
232.18244711387231
 30
0.0
 11
519.75833494938922
 21
232.6824471138722
 31
0.0
  0
LINE
  5
BAE
  8
0
 10
514.75833494938922
 20
248.1824471138724
 30
0.0
 11
514.75833494938922
 21
291.1824471138724
 31
0.0
  0
ARC
  5
BAF
  8
0
 10
515.75833494938922
 20
248.1824471138724
 30
0.0
 40
1.0
 50
180.0
 51
270.0
  0
LINE
  5
BB0
  8
0
 10
519.75833494938934
 20
247.18244711387231
 30
0.0
 11
515.75833494938922
 21
247.18244711387231
 31
0.0
  0
ARC
  5
BB1
  8
0
 10
515.75833494938922
 20
291.1824471138724
 30
0.0
 40
1.0
 50
90.0
 51
180.0
  0
LINE
  5
BB2
  8
0
 10
519.75833494938922
 20
292.18244711387229
 30
0.0
 11
515.75833494938922
 21
292.18244711387229
 31
0.0
  0
LINE
  5
BB3
  8
0
 10
551.75833494938934
 20
234.6824471138722
 30
0.0
 11
551.75833494938934
 21
304.68244711387229
 31
0.0
  0
LINE
  5
BB4
  8
0
 10
551.75833494938922
 20
307.18244711387229
 30
0.0
 11
519.75833494938922
 21
306.68244711387229
 31
0.0
  0
SOLID
  5
BB5
  8
DIM
  6
CONTINUOUS
 10
522.75833494938934
 20
344.02823866563051
 30
0.0
 11
522.75833494938934
 21
343.02823866563051
 31
0.0
 12
519.75833494938934
 22
343.52823866563051
 32
0.0
 13
519.75833494938934
 23
343.52823866563051
 33
0.0
  0
LINE
  5
BB6
  8
0
 10
551.75833494938922
 20
436.52823866563051
 30
0.0
 11
519.75833494938922
 21
437.02823866563051
 31
0.0
  0
LINE
  5
BB7
  8
DIM
  6
CONTINUOUS
 10
514.75833494938934
 20
450.4505157414406
 30
0.0
 11
514.75833494938934
 21
341.63869306558809
 31
0.0
  0
LINE
  5
BB8
  8
DIM
  6
CONTINUOUS
 10
519.75833494938934
 20
436.02823866563051
 30
0.0
 11
519.75833494938934
 21
341.87806001028321
 31
0.0
  0
TEXT
  5
BB9
  8
DIM
  6
CONTINUOUS
 10
507.53746631884832
 20
345.02823866563051
 30
0.0
 40
3.0
  1
5
  7
ROMANSS
 72
     1
 11
508.53746631884832
 21
346.52823866563051
 31
0.0
 73
     2
  0
SOLID
  5
BBB
  8
DIM
  6
CONTINUOUS
 10
511.75833494938922
 20
344.02823866563051
 30
0.0
 11
511.75833494938922
 21
343.02823866563051
 31
0.0
 12
514.75833494938922
 22
343.52823866563051
 32
0.0
 13
514.75833494938922
 23
343.52823866563051
 33
0.0
  0
LINE
  5
BBC
  8
CENTER
  6
CENTER
 10
396.86572604966432
 20
454.52823866563051
 30
0.0
 11
419.00274587796372
 21
454.52823866563051
 31
0.0
  0
LINE
  5
BBD
  8
0
  6
CONTINUOUS
 10
413.0027458779636
 20
449.52823866563051
 30
0.0
 11
414.5027458779636
 21
449.52823866563051
 31
0.0
  0
LINE
  5
BBE
  8
0
  6
CONTINUOUS
 10
413.0027458779636
 20
459.52823866563062
 30
0.0
 11
414.5027458779636
 21
459.52823866563062
 31
0.0
  0
LINE
  5
BBF
  8
0
  6
CONTINUOUS
 62
     2
 10
413.0027458779636
 20
450.52823866563051
 30
0.0
 11
415.5027458779636
 21
450.52823866563051
 31
0.0
  0
LINE
  5
BC0
  8
0
  6
CONTINUOUS
 62
     2
 10
413.0027458779636
 20
458.52823866563051
 30
0.0
 11
415.5027458779636
 21
458.52823866563051
 31
0.0
  0
ARC
  5
BC1
  8
0
  6
CONTINUOUS
 10
418.17496810019162
 20
450.27823866563062
 30
0.0
 40
10.19983357405331
 50
155.3752531507763
 51
204.62474684922361
  0
ARC
  5
BC2
  8
0
  6
CONTINUOUS
 10
402.83052365573559
 20
450.27823866563051
 30
0.0
 40
10.19983357405331
 50
335.37525315077369
 51
24.624746849226248
  0
LINE
  5
BC3
  8
0
  6
CONTINUOUS
 10
413.0027458779636
 20
446.02823866563051
 30
0.0
 11
413.0027458779636
 21
463.02823866563051
 31
0.0
  0
ARC
  5
BC4
  8
0
 10
398.7527458779636
 20
445.7782386656304
 30
0.0
 40
9.5
 50
149.47751218592961
 51
205.58300197738259
  0
LINE
  5
BC5
  8
CENTER
  6
CENTER
 10
398.7527458779636
 20
453.2782386656304
 30
0.0
 11
398.7527458779636
 21
438.2782386656304
 31
0.0
  0
CIRCLE
  5
BC6
  8
0
 10
398.7527458779636
 20
445.7782386656304
 30
0.0
 40
6.5
  0
ARC
  5
BC7
  8
0
  6
CONTINUOUS
 62
     2
 10
398.7527458779636
 20
445.7782386656304
 30
0.0
 40
4.0
 50
165.54611884332431
 51
122.22581883937571
  0
CIRCLE
  5
BC8
  8
0
  6
CONTINUOUS
 10
398.7527458779636
 20
445.7782386656304
 30
0.0
 40
3.399999999999999
  0
POLYLINE
  5
BC9
  8
0
  6
CONTINUOUS
 66
     1
 10
0.0
 20
0.0
 30
0.0
 70
     1
  0
VERTEX
  5
1414
  8
0
  6
CONTINUOUS
 10
401.0621469547221
 20
449.7782386656304
 30
0.0
  0
VERTEX
  5
1415
  8
0
  6
CONTINUOUS
 10
403.37154803148059
 20
445.7782386656304
 30
0.0
  0
VERTEX
  5
1416
  8
0
  6
CONTINUOUS
 10
401.0621469547221
 20
441.77823866563051
 30
0.0
  0
VERTEX
  5
1417
  8
0
  6
CONTINUOUS
 10
396.44334480120511
 20
441.77823866563051
 30
0.0
  0
VERTEX
  5
1418
  8
0
  6
CONTINUOUS
 10
394.13394372444668
 20
445.7782386656304
 30
0.0
  0
VERTEX
  5
1419
  8
0
  6
CONTINUOUS
 10
396.44334480120511
 20
449.7782386656304
 30
0.0
  0
SEQEND
  5
141A
  8
0
  6
CONTINUOUS
  0
LINE
  5
BD1
  8
CENTER
  6
CENTER
 10
406.2527458779636
 20
445.7782386656304
 30
0.0
 11
391.2527458779636
 21
445.7782386656304
 31
0.0
  0
LINE
  5
BD2
  8
0
 10
381.5027458779636
 20
427.5282386656304
 30
0.0
 11
381.5027458779636
 21
436.5282386656304
 31
0.0
  0
ARC
  5
BD3
  8
0
 10
388.83117846147161
 20
441.0282386656304
 30
0.0
 40
1.5
 50
270.0
 51
25.583001977414259
  0
ARC
  5
BD4
  8
0
 10
398.5027458779636
 20
446.0282386656304
 30
0.0
 40
9.5
 50
270.0
 51
0.0
  0
ARC
  5
BD5
  8
0
 10
398.5027458779636
 20
446.0282386656304
 30
0.0
 40
9.0
 50
270.0
 51
0.0
  0
LINE
  5
BD6
  8
0
  6
CONTINUOUS
 10
413.0027458779636
 20
446.02823866563051
 30
0.0
 11
408.00274587796372
 21
446.02823866563051
 31
0.0
  0
LINE
  5
BD7
  8
CENTER
  6
CENTER
 10
411.19403996130347
 20
467.02823866563051
 30
0.0
 11
387.52938254020609
 21
467.02823866563051
 31
0.0
  0
ARC
  5
BD8
  8
0
 10
398.7527458779636
 20
445.7782386656304
 30
0.0
 40
9.5
 50
64.416998022611963
 51
120.52248781407
  0
ARC
  5
BD9
  8
0
 10
389.66192719304951
 20
458.75814464707048
 30
0.0
 40
1.5
 50
141.44474033977031
 51
225.0
  0
LINE
  5
BDA
  8
0
 10
388.60126702126968
 20
457.69748447529059
 30
0.0
 11
392.10544418875088
 21
454.1933073078095
 31
0.0
  0
LINE
  5
BDB
  8
0
 10
386.83350006830341
 20
455.92971752232438
 30
0.0
 11
390.3376772357845
 21
452.42554035484329
 31
0.0
  0
ARC
  5
BDC
  8
0
 10
385.77283989652369
 20
454.86905735054449
 30
0.0
 40
1.5
 50
45.0
 51
128.55525966023259
  0
ARC
  5
BDD
  8
0
 10
393.1661043605306
 20
455.25396747958939
 30
0.0
 40
1.5
 50
225.0
 51
300.52248781406939
  0
ARC
  5
BDE
  8
0
 10
389.27701706400478
 20
451.36488018306341
 30
0.0
 40
1.5
 50
329.47751218592941
 51
45.0
  0
ARC
  5
BDF
  8
0
  6
CONTINUOUS
 10
418.17496810019162
 20
458.77823866563062
 30
0.0
 40
10.19983357405331
 50
155.3752531507763
 51
204.62474684922361
  0
ARC
  5
BE0
  8
0
  6
CONTINUOUS
 10
402.83052365573559
 20
458.77823866563051
 30
0.0
 40
10.19983357405331
 50
335.37525315077369
 51
24.624746849225819
  0
ARC
  5
BE1
  8
0
 10
403.5027458779636
 20
455.69980608212251
 30
0.0
 40
1.5
 50
244.4169980225808
 51
0.0
  0
LINE
  5
BE2
  8
0
  6
CONTINUOUS
 10
406.0027458779636
 20
454.52823866563051
 30
0.0
 11
412.10274587796403
 21
454.52823866563051
 31
0.0
  0
LINE
  5
BE3
  8
0
  6
CONTINUOUS
 10
406.0027458779636
 20
454.52823866563051
 30
0.0
 11
412.10274587796403
 21
454.52823866563051
 31
0.0
  0
LINE
  5
BE4
  8
0
  6
CONTINUOUS
 10
413.0027458779636
 20
463.02823866563051
 30
0.0
 11
408.00274587796372
 21
463.02823866563051
 31
0.0
  0
LINE
  5
BE5
  8
0
  6
CONTINUOUS
 10
414.5027458779636
 20
459.52823866563062
 30
0.0
 11
416.0027458779636
 21
458.02823866563051
 31
0.0
  0
LINE
  5
BE6
  8
0
  6
CONTINUOUS
 10
414.5027458779636
 20
449.52823866563051
 30
0.0
 11
414.5027458779636
 21
459.52823866563062
 31
0.0
  0
LINE
  5
BE7
  8
0
  6
CONTINUOUS
 10
416.0027458779636
 20
451.02823866563062
 30
0.0
 11
416.0027458779636
 21
458.02823866563051
 31
0.0
  0
LINE
  5
BE8
  8
0
  6
CONTINUOUS
 10
414.5027458779636
 20
449.52823866563051
 30
0.0
 11
416.0027458779636
 21
451.02823866563062
 31
0.0
  0
LINE
  5
BE9
  8
0
 10
519.75833494938934
 20
451.52823866563062
 30
0.0
 11
516.75833494938922
 21
451.52823866563062
 31
0.0
  0
ARC
  5
BEA
  8
0
 10
516.64714373654374
 20
453.80585623993949
 30
0.0
 40
2.2803300858899109
 50
214.074988904782
 51
272.79490874106079
  0
LINE
  5
BEB
  8
CENTER
  6
CENTER
 10
548.25833494938922
 20
467.02823866563051
 30
0.0
 11
523.25833494938922
 21
467.02823866563068
 31
0.0
  0
LINE
  5
BEC
  8
CENTER
  6
CENTER
 10
651.25833494938934
 20
294.35607917917412
 30
0.0
 11
651.25833494938934
 21
318.95088758472423
 31
0.0
  0
CIRCLE
  5
BED
  8
0
  6
CONTINUOUS
 10
649.07025777963975
 20
215.99436994412301
 30
0.0
 40
2.5
  0
ARC
  5
BEE
  8
0
  6
CONTINUOUS
 62
     2
 10
649.07025777963975
 20
215.99436994412301
 30
0.0
 40
3.0
 50
206.96359889101501
 51
149.15498767399501
  0
LINE
  5
BEF
  8
CENTER
  6
CENTER
 10
630.75833494938934
 20
274.6824471138724
 30
0.0
 11
644.75833494938934
 21
274.6824471138724
 31
0.0
  0
LINE
  5
BF0
  8
CENTER
  6
CENTER
 10
637.75833494938934
 20
267.68244711387229
 30
0.0
 11
637.75833494938934
 21
281.6824471138724
 31
0.0
  0
ARC
  5
BF1
  8
0
  6
CONTINUOUS
 62
     2
 10
637.75833494938934
 20
274.6824471138724
 30
0.0
 40
4.0
 50
335.22857957427448
 51
294.32248297488059
  0
CIRCLE
  5
BF2
  8
0
  6
CONTINUOUS
 10
637.75833494938934
 20
274.6824471138724
 30
0.0
 40
3.399999999999999
  0
LINE
  5
BF3
  8
DIM
  6
CONTINUOUS
 10
627.75833494938934
 20
435.52823866563051
 30
0.0
 11
627.75833494938934
 21
350.1326158633488
 31
0.0
  0
LINE
  5
BF4
  8
DIM
  6
CONTINUOUS
 10
631.75833494938934
 20
426.52823866563062
 30
0.0
 11
631.75833494938922
 21
357.90366866149219
 31
0.0
  0
LINE
  5
BF5
  8
0
  6
CONTINUOUS
 10
654.75833494938695
 20
315.18244711387229
 30
0.0
 11
647.75833494938695
 21
315.18244711387229
 31
0.0
  0
ARC
  5
BF6
  8
0
  6
CONTINUOUS
 10
651.26437474024192
 20
297.18244832984152
 30
0.0
 40
14.999999999999989
 50
90.023070302298393
 51
109.4956922330535
  0
LINE
  5
BF7
  8
0
  6
CONTINUOUS
 10
659.50833494938695
 20
312.1824471138724
 30
0.0
 11
643.00833494938695
 21
312.1824471138724
 31
0.0
  0
LINE
  5
BF8
  8
0
  6
CONTINUOUS
 10
656.25833494938695
 20
313.68244711387229
 30
0.0
 11
646.25833494938695
 21
313.68244711387229
 31
0.0
  0
ARC
  5
BF9
  8
0
  6
CONTINUOUS
 10
651.26437474018667
 20
322.18244589790322
 30
0.0
 40
14.999999999999989
 50
250.50430776694591
 51
269.97692969770111
  0
LINE
  5
BFA
  8
0
  6
CONTINUOUS
 62
     2
 10
647.25833494938695
 20
312.1824471138724
 30
0.0
 11
647.25833494938695
 21
314.6824471138724
 31
0.0
  0
LINE
  5
BFB
  8
0
  6
CONTINUOUS
 10
641.45833494938768
 20
311.28752794528077
 30
0.0
 11
643.00833494938695
 21
312.1824471138724
 31
0.0
  0
ARC
  5
BFC
  8
0
  6
CONTINUOUS
 10
643.95187573588964
 20
308.66066903048221
 30
0.0
 40
3.5220472269320542
 50
49.090720066529649
 51
119.2051441578367
  0
LINE
  5
BFD
  8
0
  6
CONTINUOUS
 10
646.25833494938695
 20
312.1824471138724
 30
0.0
 11
646.25833494938695
 21
313.68244711387229
 31
0.0
  0
ARC
  5
BFE
  8
0
  6
CONTINUOUS
 10
643.95187573583416
 20
310.70422519726242
 30
0.0
 40
3.5220472269320542
 50
240.79485584216269
 51
310.90927993347032
  0
LINE
  5
BFF
  8
0
  6
CONTINUOUS
 10
641.45833494933242
 20
308.07736628246391
 30
0.0
 11
643.00833494933158
 21
307.18244711387229
 31
0.0
  0
LINE
  5
C00
  8
0
  6
CONTINUOUS
 10
641.45833494938768
 20
308.07736628243191
 30
0.0
 11
641.45833494938768
 21
311.28752794528077
 31
0.0
  0
LINE
  5
C01
  8
0
  6
CONTINUOUS
 10
646.25833494938695
 20
308.04244711385331
 30
0.0
 11
646.25833494938695
 21
311.32244711387182
 31
0.0
  0
LINE
  5
C02
  8
0
  6
CONTINUOUS
 10
646.25833494938695
 20
313.68244711387229
 30
0.0
 11
647.75833494938695
 21
315.18244711387229
 31
0.0
  0
SOLID
  5
C03
  8
DIM
  6
CONTINUOUS
 10
634.75833494938934
 20
360.02823866563051
 30
0.0
 11
634.75833494938934
 21
359.02823866563051
 31
0.0
 12
631.75833494938934
 22
359.52823866563051
 32
0.0
 13
631.75833494938934
 23
359.52823866563051
 33
0.0
  0
SOLID
  5
C04
  8
DIM
  6
CONTINUOUS
 10
630.75833494938934
 20
352.02823866563051
 30
0.0
 11
630.75833494938934
 21
351.02823866563051
 31
0.0
 12
627.75833494938934
 22
351.52823866563051
 32
0.0
 13
627.75833494938934
 23
351.52823866563051
 33
0.0
  0
ARC
  5
C05
  8
0
  6
CONTINUOUS
 10
658.56479416288437
 20
308.66066903048221
 30
0.0
 40
3.5220472269320542
 50
60.794855842163209
 51
130.90927993347029
  0
ARC
  5
C06
  8
0
  6
CONTINUOUS
 10
658.56479416282912
 20
310.70422519726242
 30
0.0
 40
3.5220472269320542
 50
229.0907200665296
 51
299.2051441578372
  0
LINE
  5
C07
  8
0
  6
CONTINUOUS
 62
     2
 10
655.25833494938695
 20
312.1824471138724
 30
0.0
 11
655.25833494938695
 21
314.6824471138724
 31
0.0
  0
LINE
  5
C08
  8
0
  6
CONTINUOUS
 10
656.25833494938695
 20
312.1824471138724
 30
0.0
 11
656.25833494938695
 21
313.68244711387229
 31
0.0
  0
LINE
  5
C09
  8
0
  6
CONTINUOUS
 10
656.25833494938695
 20
313.68244711387229
 30
0.0
 11
654.75833494938695
 21
315.18244711387229
 31
0.0
  0
LINE
  5
C0A
  8
0
  6
CONTINUOUS
 10
656.25833494938695
 20
308.04244711389248
 30
0.0
 11
656.25833494938695
 21
311.32244711387182
 31
0.0
  0
ARC
  5
C0B
  8
0
  6
CONTINUOUS
 10
651.25229515853187
 20
297.18244832984152
 30
0.0
 40
14.999999999999989
 50
70.504307766945473
 51
89.976929697700726
  0
ARC
  5
C0C
  8
0
  6
CONTINUOUS
 10
651.25229515847673
 20
322.18244589790322
 30
0.0
 40
14.999999999999989
 50
270.02307030229878
 51
289.49569223305389
  0
LINE
  5
C0D
  8
0
  6
CONTINUOUS
 10
661.05833494938634
 20
311.28752794528077
 30
0.0
 11
659.50833494938695
 21
312.1824471138724
 31
0.0
  0
LINE
  5
C0E
  8
0
  6
CONTINUOUS
 10
661.05833494933086
 20
308.07736628246391
 30
0.0
 11
659.50833494933158
 21
307.18244711387229
 31
0.0
  0
LINE
  5
C0F
  8
0
  6
CONTINUOUS
 10
661.05833494938634
 20
308.0773662824958
 30
0.0
 11
661.05833494938634
 21
311.28752794528077
 31
0.0
  0
TEXT
  5
C10
  8
DIM
  6
CONTINUOUS
 10
670.32976352081789
 20
353.02823866563051
 30
0.0
 40
3.0
  1
90
  7
ROMANSS
 72
     1
 11
672.75833494938934
 21
354.52823866563051
 31
0.0
 73
     2
  0
TEXT
  5
C11
  8
DIM
  6
CONTINUOUS
 10
668.97262066367489
 20
345.02823866563051
 30
0.0
 40
3.0
  1
306
  7
ROMANSS
 72
     1
 11
672.75833494938934
 21
346.52823866563051
 31
0.0
 73
     2
  0
TEXT
  5
C12
  8
DIM
  6
CONTINUOUS
 10
668.97262066367489
 20
361.02823866563051
 30
0.0
 40
3.0
  1
%%c82
  7
ROMANSS
 72
     1
 11
672.75833494938934
 21
362.52823866563051
 31
0.0
 73
     2
  0
POLYLINE
  5
C13
  8
0
  6
CONTINUOUS
 66
     1
 10
0.0
 20
0.0
 30
0.0
 70
     1
  0
VERTEX
  5
141B
  8
0
  6
CONTINUOUS
 10
646.35833494938959
 20
463.01528762271818
 30
0.0
  0
VERTEX
  5
141C
  8
0
  6
CONTINUOUS
 10
641.45833494938995
 20
454.52823866563062
 30
0.0
  0
VERTEX
  5
141D
  8
0
  6
CONTINUOUS
 10
646.35833494938959
 20
446.04118970854302
 30
0.0
  0
VERTEX
  5
141E
  8
0
  6
CONTINUOUS
 10
656.15833494938886
 20
446.04118970854302
 30
0.0
  0
VERTEX
  5
141F
  8
0
  6
CONTINUOUS
 10
661.05833494938861
 20
454.52823866563062
 30
0.0
  0
VERTEX
  5
1420
  8
0
  6
CONTINUOUS
 10
656.15833494938886
 20
463.01528762271818
 30
0.0
  0
SEQEND
  5
1421
  8
0
  6
CONTINUOUS
  0
CIRCLE
  5
C1B
  8
0
  6
CONTINUOUS
 10
651.25833494938934
 20
454.52823866563062
 30
0.0
 40
8.25
  0
POLYLINE
  5
C1C
  8
0
  6
CONTINUOUS
 66
     1
 10
0.0
 20
0.0
 30
0.0
 70
     1
  0
VERTEX
  5
1422
  8
0
  6
CONTINUOUS
 10
649.81495927641527
 20
457.02823866563062
 30
0.0
  0
VERTEX
  5
1423
  8
0
  6
CONTINUOUS
 10
648.3715836034412
 20
454.52823866563062
 30
0.0
  0
VERTEX
  5
1424
  8
0
  6
CONTINUOUS
 10
649.81495927641527
 20
452.02823866563051
 30
0.0
  0
VERTEX
  5
1425
  8
0
  6
CONTINUOUS
 10
652.70171062236341
 20
452.02823866563051
 30
0.0
  0
VERTEX
  5
1426
  8
0
  6
CONTINUOUS
 10
654.14508629533736
 20
454.52823866563062
 30
0.0
  0
VERTEX
  5
1427
  8
0
  6
CONTINUOUS
 10
652.70171062236341
 20
457.02823866563062
 30
0.0
  0
SEQEND
  5
1428
  8
0
  6
CONTINUOUS
  0
ARC
  5
C24
  8
0
  6
CONTINUOUS
 62
     2
 10
651.25833494938934
 20
454.52823866563062
 30
0.0
 40
4.25
 50
69.487813016515403
 51
22.414620147484769
  0
CIRCLE
  5
C25
  8
0
  6
CONTINUOUS
 10
651.25833494938934
 20
454.52823866563062
 30
0.0
 40
5.0
  0
LINE
  5
C26
  8
CENTER
  6
CENTER
 10
636.25833494938934
 20
454.52823866563051
 30
0.0
 11
666.25833494938934
 21
454.52823866563051
 31
0.0
  0
LINE
  5
C27
  8
CENTER
  6
CENTER
 10
637.75833494938934
 20
434.24805730284788
 30
0.0
 11
637.75833494938934
 21
452.38109432768778
 31
0.0
  0
LINE
  5
C28
  8
0
  6
CONTINUOUS
 10
631.75833494938934
 20
427.52823866563051
 30
0.0
 11
632.75833494938934
 21
426.52823866563062
 31
0.0
  0
LINE
  5
C29
  8
0
 10
631.75833494938934
 20
436.52823866563051
 30
0.0
 11
631.75833494938934
 21
427.52823866563051
 31
0.0
  0
LINE
  5
C2A
  8
CENTER
  6
CENTER
 10
651.25833494938934
 20
469.52823866563062
 30
0.0
 11
651.25833494938934
 21
439.52823866563051
 31
0.0
  0
LINE
  5
C2B
  8
0
  6
CONTINUOUS
 10
380.5027458779636
 20
521.52823866563062
 30
0.0
 11
381.5027458779636
 21
520.52823866563062
 31
0.0
  0
ARC
  5
C2C
  8
0
 10
382.00274587796372
 20
507.0282386656304
 30
0.0
 40
1.5
 50
90.0
 51
180.0
  0
ARC
  5
C2D
  8
0
 10
382.00274587796372
 20
495.6615463184142
 30
0.0
 40
1.5
 50
180.0
 51
242.00543826774759
  0
LINE
  5
C2E
  8
0
 10
373.00274587796378
 20
508.5282386656304
 30
0.0
 11
388.83117846147161
 21
508.5282386656304
 31
0.0
  0
LINE
  5
C2F
  8
CENTER
  6
CENTER
 10
411.00274587796372
 20
474.02823866563051
 30
0.0
 11
295.0027458779636
 21
474.0282386656304
 31
0.0
  0
LINE
  5
C30
  8
0
 10
398.5027458779636
 20
511.0282386656304
 30
0.0
 11
342.5027458779636
 21
511.0282386656304
 31
0.0
  0
LINE
  5
C31
  8
0
  6
CONTINUOUS
 10
381.5027458779636
 20
520.52823866563062
 30
0.0
 11
299.5027458779636
 21
520.52823866563062
 31
0.0
  0
LINE
  5
C32
  8
0
  6
CONTINUOUS
 10
408.0027458779636
 20
511.52823866563051
 30
0.0
 11
298.00274587796349
 21
511.52823866563051
 31
0.0
  0
LINE
  5
C33
  8
0
 10
328.50274587796372
 20
563.52823866563062
 30
0.0
 11
328.5027458779636
 21
522.52823866563062
 31
0.0
  0
LINE
  5
C34
  8
0
 10
352.50274587796372
 20
563.52823866563062
 30
0.0
 11
352.50274587796372
 21
522.52823866563062
 31
0.0
  0
LINE
  5
C35
  8
0
  6
CONTINUOUS
 10
380.5027458779636
 20
521.52823866563062
 30
0.0
 11
300.5027458779636
 21
521.52823866563062
 31
0.0
  0
LINE
  5
C36
  8
0
 10
299.5027458779636
 20
520.52823866563062
 30
0.0
 11
299.5027458779636
 21
511.52823866563051
 31
0.0
  0
LINE
  5
C37
  8
CENTER
  6
CENTER
 10
305.5027458779636
 20
513.80842002841314
 30
0.0
 11
305.5027458779636
 21
499.80842002841308
 31
0.0
  0
LINE
  5
C38
  8
0
  6
CONTINUOUS
 10
300.5027458779636
 20
521.52823866563062
 30
0.0
 11
299.5027458779636
 21
520.52823866563062
 31
0.0
  0
ARC
  5
C39
  8
0
 10
347.83938739539639
 20
492.8025098516714
 30
0.0
 40
1.5
 50
45.0
 51
120.5224878140705
  0
LINE
  5
C3A
  8
CENTER
  6
CENTER
 10
349.7527458779636
 20
502.2782386656304
 30
0.0
 11
334.7527458779636
 21
502.2782386656304
 31
0.0
  0
CIRCLE
  5
C3B
  8
0
 10
342.2527458779636
 20
502.2782386656304
 30
0.0
 40
6.5
  0
ARC
  5
C3C
  8
0
 10
346.13063066405579
 20
471.52823866563028
 30
0.0
 40
1.5
 50
5.8567019099191491
 51
90.0
  0
ARC
  5
C3D
  8
0
 10
346.13063066405579
 20
476.5282386656304
 30
0.0
 40
1.5
 50
270.0
 51
354.1432980900808
  0
LINE
  5
C3E
  8
0
 10
337.5027458779636
 20
484.0282386656304
 30
0.0
 11
348.86943822517969
 21
484.0282386656304
 31
0.0
  0
ARC
  5
C3F
  8
0
 10
342.2527458779636
 20
502.2782386656304
 30
0.0
 40
9.5
 50
244.41699802261189
 51
300.52248781407019
  0
ARC
  5
C40
  8
0
 10
337.5027458779636
 20
492.3566712491384
 30
0.0
 40
1.5
 50
64.416998022577985
 51
180.0
  0
LINE
  5
C41
  8
0
 10
336.0027458779636
 20
476.5282386656304
 30
0.0
 11
336.0027458779636
 21
492.3566712491384
 31
0.0
  0
LINE
  5
C42
  8
0
 10
337.5027458779636
 20
473.02823866563028
 30
0.0
 11
346.13063066405579
 21
473.02823866563028
 31
0.0
  0
LINE
  5
C43
  8
0
 10
337.5027458779636
 20
475.0282386656304
 30
0.0
 11
346.13063066405579
 21
475.0282386656304
 31
0.0
  0
ARC
  5
C44
  8
0
 10
337.5027458779636
 20
471.52823866563028
 30
0.0
 40
1.5
 50
90.0
 51
180.0
  0
ARC
  5
C45
  8
0
 10
337.5027458779636
 20
476.5282386656304
 30
0.0
 40
1.5
 50
180.0
 51
270.0
  0
ARC
  5
C46
  8
0
 10
337.5027458779636
 20
485.52823866563051
 30
0.0
 40
1.5
 50
180.0
 51
270.0
  0
ARC
  5
C47
  8
0
 10
342.5027458779636
 20
502.0282386656304
 30
0.0
 40
9.5
 50
90.0
 51
180.0
  0
ARC
  5
C48
  8
0
 10
342.5027458779636
 20
502.0282386656304
 30
0.0
 40
9.0
 50
90.0
 51
180.0
  0
LINE
  5
C49
  8
CENTER
  6
CENTER
 10
342.2527458779636
 20
509.7782386656304
 30
0.0
 11
342.2527458779636
 21
494.7782386656304
 31
0.0
  0
ARC
  5
C4A
  8
0
  6
CONTINUOUS
 62
     2
 10
342.2527458779636
 20
502.2782386656304
 30
0.0
 40
4.0
 50
165.54611884332431
 51
122.22581883937571
  0
CIRCLE
  5
C4B
  8
0
  6
CONTINUOUS
 10
342.2527458779636
 20
502.2782386656304
 30
0.0
 40
3.399999999999999
  0
POLYLINE
  5
C4C
  8
0
  6
CONTINUOUS
 66
     1
 10
0.0
 20
0.0
 30
0.0
 70
     1
  0
VERTEX
  5
1429
  8
0
  6
CONTINUOUS
 10
344.5621469547221
 20
506.2782386656304
 30
0.0
  0
VERTEX
  5
142A
  8
0
  6
CONTINUOUS
 10
346.87154803148059
 20
502.2782386656304
 30
0.0
  0
VERTEX
  5
142B
  8
0
  6
CONTINUOUS
 10
344.5621469547221
 20
498.2782386656304
 30
0.0
  0
VERTEX
  5
142C
  8
0
  6
CONTINUOUS
 10
339.94334480120511
 20
498.2782386656304
 30
0.0
  0
VERTEX
  5
142D
  8
0
  6
CONTINUOUS
 10
337.63394372444668
 20
502.2782386656304
 30
0.0
  0
VERTEX
  5
142E
  8
0
  6
CONTINUOUS
 10
339.94334480120511
 20
506.2782386656304
 30
0.0
  0
SEQEND
  5
142F
  8
0
  6
CONTINUOUS
  0
LINE
  5
C54
  8
0
 10
354.1719916876238
 20
492.12675980893653
 30
0.0
 11
350.6678145201426
 21
495.63093697641762
 31
0.0
  0
LINE
  5
C55
  8
0
 10
352.40422473465742
 20
490.35899285597031
 30
0.0
 11
348.90004756717639
 21
493.86317002345129
 31
0.0
  0
ARC
  5
C56
  8
0
 10
355.23265185940357
 20
493.1874199807163
 30
0.0
 40
1.5
 50
225.0
 51
308.55525966022958
  0
ARC
  5
C57
  8
0
 10
351.34356456287759
 20
489.29833268419031
 30
0.0
 40
1.5
 50
321.44474033977031
 51
45.0
  0
ARC
  5
C58
  8
0
 10
348.86943822517969
 20
485.52823866563051
 30
0.0
 40
1.5
 50
270.0
 51
332.00543826774759
  0
LINE
  5
C59
  8
0
 10
368.0027458779636
 20
508.5282386656304
 30
0.0
 11
352.17431329445571
 21
508.5282386656304
 31
0.0
  0
LINE
  5
C5A
  8
0
 10
360.5027458779636
 20
507.0282386656304
 30
0.0
 11
360.5027458779636
 21
495.6615463184142
 31
0.0
  0
ARC
  5
C5B
  8
0
 10
342.2527458779636
 20
502.2782386656304
 30
0.0
 40
9.5
 50
329.47751218592958
 51
25.583001977382661
  0
ARC
  5
C5C
  8
0
 10
351.7284746919226
 20
496.6915971481975
 30
0.0
 40
1.5
 50
149.4775121859299
 51
225.0
  0
ARC
  5
C5D
  8
0
 10
359.0027458779636
 20
495.6615463184142
 30
0.0
 40
1.5
 50
297.99456173225229
 51
0.0
  0
ARC
  5
C5E
  8
0
 10
352.17431329445571
 20
507.0282386656304
 30
0.0
 40
1.5
 50
90.0
 51
205.5830019774171
  0
ARC
  5
C5F
  8
0
 10
359.0027458779636
 20
507.0282386656304
 30
0.0
 40
1.5
 50
0.0
 51
90.0
  0
LINE
  5
C60
  8
0
 10
369.5027458779636
 20
507.0282386656304
 30
0.0
 11
369.5027458779636
 21
498.40035387953822
 31
0.0
  0
LINE
  5
C61
  8
0
 10
371.50274587796372
 20
507.0282386656304
 30
0.0
 11
371.50274587796372
 21
498.40035387953822
 31
0.0
  0
LINE
  5
C62
  8
CENTER
  6
CENTER
 10
375.5027458779636
 20
513.80842002841314
 30
0.0
 11
375.5027458779636
 21
499.80842002841308
 31
0.0
  0
LINE
  5
C63
  8
0
 10
380.50274587796372
 20
507.0282386656304
 30
0.0
 11
380.50274587796372
 21
495.6615463184142
 31
0.0
  0
ARC
  5
C64
  8
0
 10
373.00274587796378
 20
498.40035387953822
 30
0.0
 40
1.5
 50
180.0
 51
264.14329809008092
  0
ARC
  5
C65
  8
0
 10
368.0027458779636
 20
498.40035387953822
 30
0.0
 40
1.5
 50
275.85670190991902
 51
0.0
  0
ARC
  5
C66
  8
0
 10
373.00274587796378
 20
507.0282386656304
 30
0.0
 40
1.5
 50
90.0
 51
180.0
  0
ARC
  5
C67
  8
0
 10
368.0027458779636
 20
507.0282386656304
 30
0.0
 40
1.5
 50
0.0
 51
90.0
  0
LINE
  5
C68
  8
0
  6
CONTINUOUS
 10
355.5027458779636
 20
522.52823866563051
 30
0.0
 11
325.5027458779636
 21
522.52823866563062
 31
0.0
  0
LINE
  5
C69
  8
0
 10
336.50274587796372
 20
557.52823866563062
 30
0.0
 11
336.50274587796372
 21
529.52823866563062
 31
0.0
  0
LINE
  5
C6A
  8
0
 10
344.50274587796372
 20
557.52823866563062
 30
0.0
 11
344.50274587796372
 21
529.52823866563062
 31
0.0
  0
LINE
  5
C6B
  8
0
 10
325.5027458779636
 20
522.52823866563062
 30
0.0
 11
325.5027458779636
 21
521.52823866563062
 31
0.0
  0
ARC
  5
C6C
  8
0
  6
CONTINUOUS
 10
340.50274587796372
 20
529.52823866563062
 30
0.0
 40
4.0
 50
180.0
 51
0.0
  0
ARC
  5
C6D
  8
0
  6
CONTINUOUS
 10
340.50274587796372
 20
557.52823866563062
 30
0.0
 40
4.0
 50
0.0
 51
180.0
  0
LINE
  5
C6E
  8
0
 10
355.5027458779636
 20
522.52823866563062
 30
0.0
 11
355.50274587796372
 21
521.52823866563062
 31
0.0
  0
LINE
  5
C6F
  8
0
  6
CONTINUOUS
 10
352.50274587796372
 20
563.52823866563062
 30
0.0
 11
328.50274587796372
 21
563.52823866563062
 31
0.0
  0
LINE
  5
C70
  8
0
  6
CONTINUOUS
 10
351.50274587796372
 20
564.52823866563051
 30
0.0
 11
329.50274587796372
 21
564.52823866563051
 31
0.0
  0
LINE
  5
C71
  8
0
  6
CONTINUOUS
 10
329.50274587796372
 20
564.52823866563051
 30
0.0
 11
328.50274587796372
 21
563.52823866563062
 31
0.0
  0
LINE
  5
C72
  8
0
  6
CONTINUOUS
 10
351.50274587796372
 20
564.52823866563051
 30
0.0
 11
352.50274587796372
 21
563.52823866563062
 31
0.0
  0
LINE
  5
C73
  8
0
 10
519.75833494938934
 20
691.22313833922522
 30
0.0
 11
519.75833494938922
 21
617.22313833922522
 31
0.0
  0
LINE
  5
C74
  8
0
 10
514.75833494938922
 20
675.72313833922499
 30
0.0
 11
514.75833494938922
 21
632.72313833922487
 31
0.0
  0
LINE
  5
C75
  8
0
 10
551.75833494938934
 20
691.72313833922522
 30
0.0
 11
551.75833494938922
 21
616.72313833922522
 31
0.0
  0
LINE
  5
C76
  8
0
 10
551.75833494938934
 20
689.2231383392251
 30
0.0
 11
551.75833494938934
 21
619.22313833922522
 31
0.0
  0
LINE
  5
C77
  8
0
 10
627.75833494938922
 20
726.7231383392251
 30
0.0
 11
627.75833494938934
 21
616.72313833922487
 31
0.0
  0
LINE
  5
C78
  8
CENTER
  6
CENTER
 10
672.75833494938934
 20
729.72313833922522
 30
0.0
 11
672.75833494938934
 21
613.72313833922499
 31
0.0
  0
LINE
  5
C79
  8
0
 10
627.75833494938934
 20
673.01324779779861
 30
0.0
 11
551.75833494938934
 21
673.01324779779861
 31
0.0
  0
LINE
  5
C7A
  8
0
 10
627.75833494938934
 20
635.43302888065182
 30
0.0
 11
551.75833494938934
 21
635.43302888065182
 31
0.0
  0
LINE
  5
C7B
  8
0
 10
627.75833494938934
 20
619.22313833922522
 30
0.0
 11
551.75833494938934
 21
619.22313833922522
 31
0.0
  0
LINE
  5
C7C
  8
0
 10
627.75833494938934
 20
509.02823866563051
 30
0.0
 11
551.75833494938934
 21
509.02823866563051
 31
0.0
  0
LINE
  5
C7D
  8
0
 10
627.75833494938934
 20
492.81834812420391
 30
0.0
 11
551.75833494938934
 21
492.81834812420391
 31
0.0
  0
LINE
  5
C7E
  8
0
 10
551.75833494938922
 20
511.52823866563062
 30
0.0
 11
519.75833494938922
 21
511.02823866563062
 31
0.0
  0
LINE
  5
C7F
  8
0
 10
381.5027458779636
 20
520.52823866563062
 30
0.0
 11
381.5027458779636
 21
511.52823866563051
 31
0.0
  0
LINE
  5
C80
  8
0
 10
386.83350006830341
 20
492.12675980893653
 30
0.0
 11
390.3376772357845
 21
495.63093697641762
 31
0.0
  0
LINE
  5
C81
  8
0
 10
388.91428607176073
 20
490.67201190646108
 30
0.0
 11
392.10544418875088
 21
493.86317002345129
 31
0.0
  0
ARC
  5
C82
  8
0
 10
403.50274587796372
 20
492.3566712491384
 30
0.0
 40
1.5
 50
0.0
 51
115.5830019773997
  0
ARC
  5
C83
  8
0
 10
398.7527458779636
 20
502.2782386656304
 30
0.0
 40
9.5
 50
239.47751218592961
 51
295.58300197739902
  0
LINE
  5
C84
  8
CENTER
  6
CENTER
 10
411.0574678097318
 20
483.02823866563051
 30
0.0
 11
387.52938254020609
 21
483.02823866563051
 31
0.0
  0
LINE
  5
C85
  8
0
 10
403.5027458779636
 20
473.02823866563051
 30
0.0
 11
394.87486109187142
 21
473.02823866563051
 31
0.0
  0
LINE
  5
C86
  8
0
 10
403.50274587796372
 20
475.0282386656304
 30
0.0
 11
395.32209316994528
 21
475.0282386656304
 31
0.0
  0
LINE
  5
C87
  8
0
 10
403.5027458779636
 20
479.52823866563051
 30
0.0
 11
394.35122591338722
 21
479.52823866563051
 31
0.0
  0
ARC
  5
C88
  8
0
 10
394.87486109187142
 20
471.5282386656304
 30
0.0
 40
1.5
 50
90.0
 51
174.14329809008089
  0
ARC
  5
C89
  8
0
 10
395.32209316994528
 20
477.0282386656304
 30
0.0
 40
2.0
 50
186.89210257934661
 51
270.0
  0
ARC
  5
C8A
  8
0
 10
394.35122591338722
 20
481.52823866563051
 30
0.0
 40
2.0
 50
197.45760312372269
 51
270.0
  0
ARC
  5
C8B
  8
0
 10
390.32849963413389
 20
489.25779834408797
 30
0.0
 40
2.0
 50
134.99999999999881
 51
217.53040768358301
  0
ARC
  5
C8C
  8
0
 10
385.77283989652369
 20
493.1874199807163
 30
0.0
 40
1.5
 50
231.44474033976729
 51
315.0
  0
LINE
  5
C8D
  8
0
 10
405.00274587796372
 20
492.3566712491384
 30
0.0
 11
405.00274587796372
 21
476.5282386656304
 31
0.0
  0
ARC
  5
C8E
  8
0
 10
403.50274587796372
 20
476.5282386656304
 30
0.0
 40
1.5
 50
270.0
 51
0.0
  0
ARC
  5
C8F
  8
0
 10
403.5027458779636
 20
471.5282386656304
 30
0.0
 40
1.5
 50
0.0
 51
90.0
  0
ARC
  5
C90
  8
0
 10
403.5027458779636
 20
481.02823866563062
 30
0.0
 40
1.5
 50
270.0
 51
0.0
  0
LINE
  5
C91
  8
CENTER
  6
CENTER
 10
406.2527458779636
 20
502.2782386656304
 30
0.0
 11
391.2527458779636
 21
502.2782386656304
 31
0.0
  0
CIRCLE
  5
C92
  8
0
 10
398.7527458779636
 20
502.2782386656304
 30
0.0
 40
6.5
  0
ARC
  5
C93
  8
0
  6
CONTINUOUS
 62
     2
 10
398.7527458779636
 20
502.2782386656304
 30
0.0
 40
4.0
 50
165.54611884332431
 51
122.22581883937571
  0
CIRCLE
  5
C94
  8
0
  6
CONTINUOUS
 10
398.7527458779636
 20
502.2782386656304
 30
0.0
 40
3.399999999999999
  0
POLYLINE
  5
C95
  8
0
  6
CONTINUOUS
 66
     1
 10
0.0
 20
0.0
 30
0.0
 70
     1
  0
VERTEX
  5
1430
  8
0
  6
CONTINUOUS
 10
401.0621469547221
 20
506.2782386656304
 30
0.0
  0
VERTEX
  5
1431
  8
0
  6
CONTINUOUS
 10
403.37154803148059
 20
502.2782386656304
 30
0.0
  0
VERTEX
  5
1432
  8
0
  6
CONTINUOUS
 10
401.0621469547221
 20
498.2782386656304
 30
0.0
  0
VERTEX
  5
1433
  8
0
  6
CONTINUOUS
 10
396.44334480120511
 20
498.2782386656304
 30
0.0
  0
VERTEX
  5
1434
  8
0
  6
CONTINUOUS
 10
394.13394372444668
 20
502.2782386656304
 30
0.0
  0
VERTEX
  5
1435
  8
0
  6
CONTINUOUS
 10
396.44334480120511
 20
506.2782386656304
 30
0.0
  0
SEQEND
  5
1436
  8
0
  6
CONTINUOUS
  0
ARC
  5
C9D
  8
0
 10
398.7527458779636
 20
502.2782386656304
 30
0.0
 40
9.5
 50
154.41699802261189
 51
210.5224878140703
  0
ARC
  5
C9E
  8
0
 10
393.1661043605306
 20
492.80250985167152
 30
0.0
 40
1.5
 50
59.477512185929427
 51
135.00000000000151
  0
ARC
  5
C9F
  8
0
 10
389.27701706400478
 20
496.6915971481975
 30
0.0
 40
1.5
 50
315.0
 51
30.522487814070569
  0
ARC
  5
CA0
  8
0
 10
388.83117846147161
 20
507.0282386656304
 30
0.0
 40
1.5
 50
334.4169980225779
 51
90.0
  0
ARC
  5
CA1
  8
0
 10
398.5027458779636
 20
502.0282386656304
 30
0.0
 40
9.5
 50
0.0
 51
90.0
  0
ARC
  5
CA2
  8
0
 10
398.5027458779636
 20
502.0282386656304
 30
0.0
 40
9.0
 50
0.0
 51
90.0
  0
LINE
  5
CA3
  8
CENTER
  6
CENTER
 10
398.7527458779636
 20
509.7782386656304
 30
0.0
 11
398.7527458779636
 21
494.7782386656304
 31
0.0
  0
LINE
  5
CA4
  8
0
 10
408.00274587796372
 20
499.0282386656304
 30
0.0
 11
407.50274587796372
 21
499.0282386656304
 31
0.0
  0
ARC
  5
CA5
  8
0
 10
516.64714373654374
 20
494.25062109132182
 30
0.0
 40
2.2803300858899109
 50
87.205091258939149
 51
145.92501109521791
  0
LINE
  5
CA6
  8
0
 10
519.75833494938922
 20
496.52823866563068
 30
0.0
 11
516.75833494938922
 21
496.52823866563068
 31
0.0
  0
ARC
  5
CA7
  8
0
  6
CONTINUOUS
 10
544.75833494938922
 20
483.02823866563051
 30
0.0
 40
3.5
 50
158.2132107017386
 51
201.78678929826131
  0
ARC
  5
CA8
  8
0
  6
CONTINUOUS
 10
544.75833494938922
 20
483.02823866563051
 30
0.0
 40
3.5
 50
338.21321070173769
 51
21.786789298262239
  0
LINE
  5
CA9
  8
CENTER
  6
CENTER
 10
544.75833494938922
 20
489.52823866563051
 30
0.0
 11
544.75833494938922
 21
476.52823866563062
 31
0.0
  0
CIRCLE
  5
CAA
  8
0
  6
CONTINUOUS
 10
544.75833494938922
 20
483.02823866563051
 30
0.0
 40
2.5
  0
CIRCLE
  5
CAB
  8
0
 10
544.75833494938922
 20
483.02823866563051
 30
0.0
 40
5.0
  0
CIRCLE
  5
CAC
  8
0
 10
544.75833494938922
 20
483.02823866563051
 30
0.0
 40
5.2999999999999989
  0
POLYLINE
  5
CAD
  8
0
  6
CONTINUOUS
 66
     1
 10
0.0
 20
0.0
 30
0.0
 70
     1
  0
VERTEX
  5
1437
  8
0
  6
CONTINUOUS
 10
545.62436035317364
 20
481.52823866563051
 30
0.0
  0
VERTEX
  5
1438
  8
0
  6
CONTINUOUS
 10
546.49038575695795
 20
483.02823866563051
 30
0.0
  0
VERTEX
  5
1439
  8
0
  6
CONTINUOUS
 10
545.62436035317364
 20
484.52823866563062
 30
0.0
  0
VERTEX
  5
143A
  8
0
  6
CONTINUOUS
 10
543.8923095456048
 20
484.52823866563062
 30
0.0
  0
VERTEX
  5
143B
  8
0
  6
CONTINUOUS
 10
543.02628414182038
 20
483.02823866563051
 30
0.0
  0
VERTEX
  5
143C
  8
0
  6
CONTINUOUS
 10
543.8923095456048
 20
481.52823866563051
 30
0.0
  0
SEQEND
  5
143D
  8
0
  6
CONTINUOUS
  0
LINE
  5
CB5
  8
0
  6
CONTINUOUS
 10
541.50833494938922
 20
481.72920055995382
 30
0.0
 11
540.19991296448563
 21
480.97378277475622
 31
0.0
  0
LINE
  5
CB6
  8
0
  6
CONTINUOUS
 10
542.00833494938922
 20
480.8631751561694
 30
0.0
 11
540.69991296448563
 21
480.1077573709718
 31
0.0
  0
LINE
  5
CB7
  8
0
  6
CONTINUOUS
 10
544.25833494938922
 20
478.05330148009739
 30
0.0
 11
544.25833494938922
 21
479.56413705049272
 31
0.0
  0
ARC
  5
CB8
  8
0
  6
CONTINUOUS
 10
544.75833494938922
 20
483.02823866563051
 30
0.0
 40
3.5
 50
218.21321070173829
 51
261.78678929826179
  0
LINE
  5
CB9
  8
0
  6
CONTINUOUS
 10
545.25833494938922
 20
478.05330148009739
 30
0.0
 11
545.25833494938922
 21
479.56413705049272
 31
0.0
  0
LINE
  5
CBA
  8
0
  6
CONTINUOUS
 10
548.00833494938922
 20
481.72920055995382
 30
0.0
 11
549.3167569342927
 21
480.97378277475622
 31
0.0
  0
ARC
  5
CBB
  8
0
  6
CONTINUOUS
 10
544.75833494938922
 20
483.02823866563051
 30
0.0
 40
3.5
 50
278.21321070173809
 51
321.78678929826242
  0
LINE
  5
CBC
  8
0
  6
CONTINUOUS
 10
547.50833494938922
 20
480.8631751561694
 30
0.0
 11
548.81675693429281
 21
480.1077573709718
 31
0.0
  0
LINE
  5
CBD
  8
CENTER
  6
CENTER
 10
551.25833494938945
 20
483.02823866563051
 30
0.0
 11
538.25833494938934
 21
483.02823866563051
 31
0.0
  0
LINE
  5
CBE
  8
0
  6
CONTINUOUS
 10
540.19991296448563
 20
485.08269455650492
 30
0.0
 11
541.50833494938922
 21
484.3272767713072
 31
0.0
  0
LINE
  5
CBF
  8
0
  6
CONTINUOUS
 10
540.69991296448563
 20
485.94871996028928
 30
0.0
 11
542.00833494938922
 21
485.19330217509162
 31
0.0
  0
LINE
  5
CC0
  8
0
  6
CONTINUOUS
 10
544.25833494938922
 20
486.4923402807683
 30
0.0
 11
544.25833494938922
 21
488.00317585116369
 31
0.0
  0
ARC
  5
CC1
  8
0
  6
CONTINUOUS
 10
544.75833494938922
 20
483.02823866563051
 30
0.0
 40
3.5
 50
98.213210701738234
 51
141.7867892982616
  0
ARC
  5
CC2
  8
0
  6
CONTINUOUS
 10
544.75833494938922
 20
483.02823866563051
 30
0.0
 40
3.5
 50
38.213210701738312
 51
81.786789298261766
  0
LINE
  5
CC3
  8
0
  6
CONTINUOUS
 10
548.81675693429281
 20
485.94871996028928
 30
0.0
 11
547.50833494938922
 21
485.19330217509162
 31
0.0
  0
LINE
  5
CC4
  8
0
  6
CONTINUOUS
 10
545.25833494938922
 20
486.4923402807683
 30
0.0
 11
545.25833494938922
 21
488.00317585116369
 31
0.0
  0
LINE
  5
CC5
  8
0
  6
CONTINUOUS
 10
549.3167569342927
 20
485.08269455650492
 30
0.0
 11
548.00833494938922
 21
484.3272767713072
 31
0.0
  0
LINE
  5
CC6
  8
HIDDEN
  6
HIDDEN
 10
519.75833494938934
 20
621.97313833922522
 30
0.0
 11
537.75833494938934
 21
621.97313833922522
 31
0.0
  0
LINE
  5
CC7
  8
HIDDEN
  6
HIDDEN
 10
519.75833494938922
 20
629.97313833922522
 30
0.0
 11
537.75833494938934
 21
629.97313833922522
 31
0.0
  0
LINE
  5
CC8
  8
0
 10
551.75833494938922
 20
616.72313833922522
 30
0.0
 11
519.75833494938922
 21
617.22313833922522
 31
0.0
  0
LINE
  5
CC9
  8
CENTER
  6
CENTER
 10
551.75833494938934
 20
625.97313833922487
 30
0.0
 11
516.75833494938922
 21
625.97313833922487
 31
0.0
  0
LINE
  5
CCA
  8
0
 10
519.75833494938922
 20
631.72313833922487
 30
0.0
 11
515.75833494938922
 21
631.72313833922487
 31
0.0
  0
ARC
  5
CCB
  8
0
 10
515.75833494938922
 20
632.72313833922487
 30
0.0
 40
1.0
 50
180.0
 51
270.0
  0
LINE
  5
CCC
  8
HIDDEN
  6
HIDDEN
 10
525.75833494938934
 20
621.97313833922522
 30
0.0
 11
525.75833494938934
 21
629.97313833922522
 31
0.0
  0
LINE
  5
CCD
  8
HIDDEN
  6
HIDDEN
 10
540.75833494938934
 20
629.37313833922497
 30
0.0
 11
542.72132586463397
 21
625.97313833922522
 31
0.0
  0
LINE
  5
CCE
  8
HIDDEN
  6
HIDDEN
 10
540.75833494938934
 20
622.57313833922501
 30
0.0
 11
540.75833494938934
 21
629.37313833922497
 31
0.0
  0
LINE
  5
CCF
  8
HIDDEN
  6
HIDDEN
 10
537.75833494938934
 20
621.97313833922522
 30
0.0
 11
537.75833494938934
 21
629.97313833922522
 31
0.0
  0
LINE
  5
CD0
  8
CENTER
  6
CENTER
 10
535.75833494938945
 20
613.96880765576771
 30
0.0
 11
535.75833494938934
 21
633.74323215953109
 31
0.0
  0
LINE
  5
CD1
  8
HIDDEN
  6
HIDDEN
 10
525.75833494938934
 20
622.57313833922501
 30
0.0
 11
540.75833494938934
 21
622.57313833922501
 31
0.0
  0
LINE
  5
CD2
  8
CENTER
  6
CENTER
 10
544.75833494938922
 20
614.19066944843655
 30
0.0
 11
544.75833494938934
 21
633.93564850342216
 31
0.0
  0
LINE
  5
CD3
  8
HIDDEN
  6
HIDDEN
 10
540.75833494938934
 20
622.57313833922501
 30
0.0
 11
542.72132586463397
 21
625.97313833922522
 31
0.0
  0
LINE
  5
CD4
  8
HIDDEN
  6
HIDDEN
 10
525.75833494938934
 20
629.37313833922497
 30
0.0
 11
540.75833494938934
 21
629.37313833922497
 31
0.0
  0
LINE
  5
CD5
  8
DIM
  6
CONTINUOUS
 10
657.75833494938911
 20
562.52823866563062
 30
0.0
 11
657.75833494938911
 21
581.52823866563051
 31
0.0
  0
SOLID
  5
CD6
  8
DIM
  6
CONTINUOUS
 10
611.25833494938922
 20
561.52823866563062
 30
0.0
 11
612.25833494938922
 21
561.52823866563062
 31
0.0
 12
611.75833494938922
 22
564.52823866563051
 32
0.0
 13
611.75833494938922
 23
564.52823866563051
 33
0.0
  0
LINE
  5
CD7
  8
0
 10
660.75833494938911
 20
563.52823866563062
 30
0.0
 11
660.75833494938911
 21
522.52823866563062
 31
0.0
  0
LINE
  5
CD8
  8
DIM
  6
CONTINUOUS
 10
631.76486157697275
 20
521.52823866563062
 30
0.0
 11
610.75833494938911
 21
521.52823866563062
 31
0.0
  0
LINE
  5
CD9
  8
DIM
  6
CONTINUOUS
 10
656.75833494938922
 20
522.52823866563062
 30
0.0
 11
610.75833494938922
 21
522.52823866563062
 31
0.0
  0
TEXT
  5
CDA
  8
DIM
  6
CONTINUOUS
 10
618.25833494938922
 20
541.17109580848773
 30
0.0
 40
3.0
  1
36
 50
90.0
  7
ROMANSS
 72
     1
 11
616.75833494938922
 21
543.52823866563062
 31
0.0
 73
     2
  0
LINE
  5
CDB
  8
DIM
  6
CONTINUOUS
 10
611.75833494938922
 20
561.52823866563062
 30
0.0
 11
611.75833494938922
 21
514.46906160179037
 31
0.0
  0
TEXT
  5
CDC
  8
DIM
  6
CONTINUOUS
 10
610.25833494938922
 20
515.68944967516779
 30
0.0
 40
3.0
  1
1
 50
90.0
  7
ROMANSS
 72
     1
 11
608.75833494938922
 21
516.04659253231068
 31
0.0
 73
     2
  0
SOLID
  5
CDD
  8
DIM
  6
CONTINUOUS
 10
611.25833494938911
 20
518.52823866563062
 30
0.0
 11
612.25833494938911
 21
518.52823866563062
 31
0.0
 12
611.75833494938911
 22
521.52823866563062
 32
0.0
 13
611.75833494938911
 23
521.52823866563062
 33
0.0
  0
SOLID
  5
CDE
  8
DIM
  6
CONTINUOUS
 10
611.25833494938922
 20
525.52823866563062
 30
0.0
 11
612.25833494938922
 21
525.52823866563062
 31
0.0
 12
611.75833494938922
 22
522.52823866563062
 32
0.0
 13
611.75833494938922
 23
522.52823866563062
 33
0.0
  0
TEXT
  5
CDF
  8
DIM
  6
CONTINUOUS
 10
610.25833494938922
 20
541.09966723705918
 30
0.0
 40
3.0
  1
42
 50
90.0
  7
ROMANSS
 72
     1
 11
608.75833494938922
 21
543.52823866563062
 31
0.0
 73
     2
  0
LINE
  5
CE0
  8
0
 10
631.75833494938934
 20
520.52823866563062
 30
0.0
 11
631.75833494938934
 21
511.52823866563051
 31
0.0
  0
LINE
  5
CE1
  8
CENTER
  6
CENTER
 10
637.75833494938934
 20
513.80842002841314
 30
0.0
 11
637.75833494938934
 21
496.12487021519138
 31
0.0
  0
POLYLINE
  5
CE2
  8
0
  6
CONTINUOUS
 66
     1
 10
0.0
 20
0.0
 30
0.0
 70
     1
 40
1.0
 41
1.0
  0
VERTEX
  5
143E
  8
0
  6
CONTINUOUS
 10
673.25833494938922
 20
474.02823866563051
 30
0.0
 42
1.0
  0
VERTEX
  5
143F
  8
0
  6
CONTINUOUS
 10
672.25833494938922
 20
474.02823866563051
 30
0.0
 42
1.0
  0
SEQEND
  5
1440
  8
0
  6
CONTINUOUS
  0
LINE
  5
CE6
  8
DIM
  6
CONTINUOUS
 10
656.75833494938911
 20
525.52823866563062
 30
0.0
 11
618.75833494938922
 21
525.52823866563062
 31
0.0
  0
LINE
  5
CE7
  8
DIM
  6
CONTINUOUS
 10
656.75833494938911
 20
561.52823866563062
 30
0.0
 11
618.75833494938922
 21
561.52823866563062
 31
0.0
  0
LINE
  5
CE8
  8
DIM
  6
CONTINUOUS
 10
619.75833494938922
 20
558.52823866563062
 30
0.0
 11
619.75833494938922
 21
528.52823866563062
 31
0.0
  0
LINE
  5
CE9
  8
0
  6
CONTINUOUS
 10
632.75833494938934
 20
521.52823866563062
 30
0.0
 11
631.75833494938934
 21
520.52823866563062
 31
0.0
  0
SOLID
  5
CEA
  8
DIM
  6
CONTINUOUS
 10
619.25833494938922
 20
528.52823866563062
 30
0.0
 11
620.25833494938922
 21
528.52823866563062
 31
0.0
 12
619.75833494938922
 22
525.52823866563062
 32
0.0
 13
619.75833494938922
 23
525.52823866563062
 33
0.0
  0
SOLID
  5
CEB
  8
DIM
  6
CONTINUOUS
 10
619.25833494938922
 20
558.52823866563062
 30
0.0
 11
620.25833494938922
 21
558.52823866563062
 31
0.0
 12
619.75833494938922
 22
561.52823866563062
 32
0.0
 13
619.75833494938922
 23
561.52823866563062
 33
0.0
  0
LINE
  5
CEC
  8
0
 10
657.75833494938911
 20
561.52823866563062
 30
0.0
 11
657.75833494938911
 21
525.52823866563062
 31
0.0
  0
LINE
  5
CED
  8
0
  6
CONTINUOUS
 10
657.75833494938911
 20
525.52823866563062
 30
0.0
 11
660.75833494938911
 21
525.52823866563062
 31
0.0
  0
LINE
  5
CEE
  8
0
 10
657.75833494938922
 20
522.52823866563062
 30
0.0
 11
657.75833494938911
 21
521.52823866563062
 31
0.0
  0
LINE
  5
CEF
  8
0
  6
CONTINUOUS
 10
657.75833494938911
 20
561.52823866563062
 30
0.0
 11
660.75833494938922
 21
561.52823866563062
 31
0.0
  0
LINE
  5
CF0
  8
DIM
  6
CONTINUOUS
 10
660.75833494938911
 20
564.52823866563051
 30
0.0
 11
610.75833494938922
 21
564.52823866563051
 31
0.0
  0
LINE
  5
CF1
  8
CENTER
  6
CENTER
 10
651.25833494938934
 20
629.54950627392327
 30
0.0
 11
651.25833494938934
 21
604.95469786837305
 31
0.0
  0
ARC
  5
CF2
  8
0
  6
CONTINUOUS
 10
651.26437474018667
 20
601.72313955519417
 30
0.0
 40
14.999999999999989
 50
90.023070302298805
 51
109.495692233054
  0
LINE
  5
CF3
  8
0
  6
CONTINUOUS
 10
654.75833494938695
 20
608.72313833922499
 30
0.0
 11
647.75833494938695
 21
608.72313833922499
 31
0.0
  0
ARC
  5
CF4
  8
0
  6
CONTINUOUS
 10
651.26437474024192
 20
626.72313712325581
 30
0.0
 40
14.999999999999989
 50
250.50430776694631
 51
269.97692969770151
  0
LINE
  5
CF5
  8
0
  6
CONTINUOUS
 10
659.50833494938695
 20
611.72313833922487
 30
0.0
 11
643.00833494938695
 21
611.72313833922487
 31
0.0
  0
LINE
  5
CF6
  8
0
  6
CONTINUOUS
 10
656.25833494938695
 20
610.22313833922499
 30
0.0
 11
646.25833494938695
 21
610.22313833922499
 31
0.0
  0
LINE
  5
CF7
  8
0
  6
CONTINUOUS
 10
641.45833494933242
 20
615.82821917063347
 30
0.0
 11
643.00833494933158
 21
616.72313833922487
 31
0.0
  0
ARC
  5
CF8
  8
0
  6
CONTINUOUS
 10
643.95187573583416
 20
613.20136025583486
 30
0.0
 40
3.5220472269320542
 50
49.090720066529038
 51
119.2051441578358
  0
LINE
  5
CF9
  8
0
  6
CONTINUOUS
 10
646.25833494938695
 20
610.22313833922499
 30
0.0
 11
647.75833494938695
 21
608.72313833922499
 31
0.0
  0
LINE
  5
CFA
  8
0
  6
CONTINUOUS
 10
646.25833494938695
 20
611.72313833922487
 30
0.0
 11
646.25833494938695
 21
610.22313833922499
 31
0.0
  0
ARC
  5
CFB
  8
0
  6
CONTINUOUS
 10
643.95187573588964
 20
615.24491642261523
 30
0.0
 40
3.5220472269320542
 50
240.79485584216391
 51
310.90927993346952
  0
LINE
  5
CFC
  8
0
  6
CONTINUOUS
 10
641.45833494938768
 20
612.6180575078165
 30
0.0
 11
643.00833494938695
 21
611.72313833922487
 31
0.0
  0
LINE
  5
CFD
  8
0
  6
CONTINUOUS
 10
641.45833494938768
 20
615.82821917066553
 30
0.0
 11
641.45833494938768
 21
612.6180575078165
 31
0.0
  0
LINE
  5
CFE
  8
0
  6
CONTINUOUS
 62
     2
 10
647.25833494938695
 20
611.72313833922487
 30
0.0
 11
647.25833494938695
 21
609.22313833922499
 31
0.0
  0
LINE
  5
CFF
  8
0
  6
CONTINUOUS
 10
646.25833494938695
 20
615.86313833924407
 30
0.0
 11
646.25833494938695
 21
612.58313833922546
 31
0.0
  0
SOLID
  5
D00
  8
DIM
  6
CONTINUOUS
 10
663.758334949389
 20
573.02823866563051
 30
0.0
 11
663.758334949389
 21
572.02823866563062
 31
0.0
 12
660.75833494938911
 22
572.52823866563062
 32
0.0
 13
660.75833494938911
 23
572.52823866563062
 33
0.0
  0
LINE
  5
D01
  8
DIM
  6
CONTINUOUS
 10
660.75833494938911
 20
564.52823866563051
 30
0.0
 11
660.75833494938911
 21
573.52823866563062
 31
0.0
  0
LINE
  5
D02
  8
0
  6
CONTINUOUS
 10
661.75833494938911
 20
564.52823866563051
 30
0.0
 11
660.75833494938911
 21
563.52823866563062
 31
0.0
  0
SOLID
  5
D03
  8
DIM
  6
CONTINUOUS
 10
660.75833494938911
 20
581.02823866563062
 30
0.0
 11
660.75833494938911
 21
580.02823866563062
 31
0.0
 12
657.75833494938911
 22
580.52823866563062
 32
0.0
 13
657.75833494938911
 23
580.52823866563062
 33
0.0
  0
TEXT
  5
D04
  8
DIM
  6
CONTINUOUS
 10
666.25833494938911
 20
574.02823866563062
 30
0.0
 40
3.0
  1
%%c24h6
  7
ROMANSS
 72
     1
 11
672.758334949389
 21
575.52823866563062
 31
0.0
 73
     2
  0
TEXT
  5
D05
  8
DIM
  6
CONTINUOUS
 10
668.82976352081766
 20
582.02823866563062
 30
0.0
 40
3.0
  1
27
  7
ROMANSS
 72
     1
 11
671.25833494938911
 21
583.52823866563062
 31
0.0
 73
     2
  0
ARC
  5
D06
  8
0
  6
CONTINUOUS
 10
658.56479416282912
 20
613.20136025583486
 30
0.0
 40
3.5220472269320542
 50
60.794855842164111
 51
130.90927993347091
  0
ARC
  5
D07
  8
0
  6
CONTINUOUS
 10
658.56479416288437
 20
615.24491642261523
 30
0.0
 40
3.5220472269320542
 50
229.09072006653039
 51
299.205144157836
  0
ARC
  5
D08
  8
0
  6
CONTINUOUS
 10
651.25229515847673
 20
601.72313955519417
 30
0.0
 40
14.999999999999989
 50
70.504307766945956
 51
89.976929697701195
  0
LINE
  5
D09
  8
0
  6
CONTINUOUS
 10
656.25833494938695
 20
610.22313833922499
 30
0.0
 11
654.75833494938695
 21
608.72313833922499
 31
0.0
  0
LINE
  5
D0A
  8
0
  6
CONTINUOUS
 10
656.25833494938695
 20
611.72313833922487
 30
0.0
 11
656.25833494938695
 21
610.22313833922499
 31
0.0
  0
ARC
  5
D0B
  8
0
  6
CONTINUOUS
 10
651.25229515853187
 20
626.72313712325581
 30
0.0
 40
14.999999999999989
 50
270.02307030229929
 51
289.4956922330544
  0
LINE
  5
D0C
  8
0
  6
CONTINUOUS
 62
     2
 10
655.25833494938695
 20
611.72313833922487
 30
0.0
 11
655.25833494938695
 21
609.22313833922499
 31
0.0
  0
LINE
  5
D0D
  8
0
  6
CONTINUOUS
 10
656.25833494938695
 20
615.86313833920485
 30
0.0
 11
656.25833494938695
 21
612.58313833922546
 31
0.0
  0
LINE
  5
D0E
  8
0
  6
CONTINUOUS
 10
661.05833494933086
 20
615.82821917063347
 30
0.0
 11
659.50833494933158
 21
616.72313833922487
 31
0.0
  0
LINE
  5
D0F
  8
0
  6
CONTINUOUS
 10
661.05833494938634
 20
612.6180575078165
 30
0.0
 11
659.50833494938695
 21
611.72313833922487
 31
0.0
  0
LINE
  5
D10
  8
0
  6
CONTINUOUS
 10
661.05833494938634
 20
615.82821917060164
 30
0.0
 11
661.05833494938634
 21
612.6180575078165
 31
0.0
  0
LINE
  5
D11
  8
CENTER
  6
CENTER
 10
637.75833494938934
 20
656.22313833922499
 30
0.0
 11
637.75833494938934
 21
642.22313833922499
 31
0.0
  0
CIRCLE
  5
D12
  8
0
  6
CONTINUOUS
 10
637.75833494938934
 20
649.22313833922487
 30
0.0
 40
3.399999999999999
  0
ARC
  5
D13
  8
0
  6
CONTINUOUS
 62
     2
 10
637.75833494938934
 20
649.22313833922487
 30
0.0
 40
4.0
 50
65.677517025119968
 51
24.771420425728412
  0
LINE
  5
D14
  8
CENTER
  6
CENTER
 10
630.75833494938934
 20
649.22313833922487
 30
0.0
 11
644.75833494938934
 21
649.22313833922487
 31
0.0
  0
LINE
  5
D15
  8
0
 10
627.75833494938911
 20
689.22313833922499
 30
0.0
 11
551.75833494938934
 21
689.22313833922499
 31
0.0
  0
LINE
  5
D16
  8
HIDDEN
  6
HIDDEN
 10
519.75833494938922
 20
678.47313833922499
 30
0.0
 11
537.75833494938934
 21
678.47313833922499
 31
0.0
  0
LINE
  5
D17
  8
HIDDEN
  6
HIDDEN
 10
519.75833494938934
 20
686.47313833922499
 30
0.0
 11
537.75833494938934
 21
686.47313833922499
 31
0.0
  0
LINE
  5
D18
  8
0
 10
551.75833494938922
 20
691.72313833922522
 30
0.0
 11
519.75833494938922
 21
691.22313833922522
 31
0.0
  0
LINE
  5
D19
  8
CENTER
  6
CENTER
 10
551.75833494938934
 20
682.47313833922499
 30
0.0
 11
516.75833494938934
 21
682.47313833922499
 31
0.0
  0
ARC
  5
D1A
  8
0
 10
515.75833494938922
 20
675.72313833922499
 30
0.0
 40
1.0
 50
90.0
 51
180.0
  0
LINE
  5
D1B
  8
0
 10
519.75833494938934
 20
676.72313833922499
 30
0.0
 11
515.75833494938922
 21
676.72313833922499
 31
0.0
  0
LINE
  5
D1C
  8
HIDDEN
  6
HIDDEN
 10
525.75833494938934
 20
685.87313833922497
 30
0.0
 11
540.75833494938934
 21
685.87313833922497
 31
0.0
  0
LINE
  5
D1D
  8
HIDDEN
  6
HIDDEN
 10
525.75833494938934
 20
679.07313833922512
 30
0.0
 11
540.75833494938934
 21
679.07313833922512
 31
0.0
  0
LINE
  5
D1E
  8
HIDDEN
  6
HIDDEN
 10
525.75833494938934
 20
686.47313833922499
 30
0.0
 11
525.75833494938934
 21
678.47313833922499
 31
0.0
  0
LINE
  5
D1F
  8
HIDDEN
  6
HIDDEN
 10
540.75833494938934
 20
679.07313833922512
 30
0.0
 11
542.72132586463397
 21
682.47313833922499
 31
0.0
  0
LINE
  5
D20
  8
HIDDEN
  6
HIDDEN
 10
537.75833494938934
 20
686.47313833922499
 30
0.0
 11
537.75833494938934
 21
678.47313833922499
 31
0.0
  0
LINE
  5
D21
  8
HIDDEN
  6
HIDDEN
 10
540.75833494938934
 20
685.87313833922497
 30
0.0
 11
540.75833494938934
 21
679.07313833922512
 31
0.0
  0
LINE
  5
D22
  8
HIDDEN
  6
HIDDEN
 10
540.75833494938934
 20
685.87313833922497
 30
0.0
 11
542.72132586463397
 21
682.47313833922499
 31
0.0
  0
LINE
  5
D23
  8
DIM
  6
CONTINUOUS
 10
623.75833494938934
 20
684.22313833922499
 30
0.0
 11
604.06292374415727
 21
684.22313833922499
 31
0.0
  0
SOLID
  5
D24
  8
DIM
  6
CONTINUOUS
 10
605.62927520907544
 20
687.21132274086165
 30
0.0
 11
604.6295207293598
 21
687.23348081588176
 31
0.0
 12
605.06292374415727
 22
684.22313833922499
 32
0.0
 13
605.06292374415727
 23
684.22313833922499
 33
0.0
  0
ARC
  5
D25
  8
0
  6
CONTINUOUS
 62
     2
 10
637.75833494938934
 20
719.22313833922487
 30
0.0
 40
4.0
 50
65.677517025119968
 51
24.771420425728412
  0
CIRCLE
  5
D26
  8
0
  6
CONTINUOUS
 10
637.75833494938934
 20
719.22313833922487
 30
0.0
 40
3.399999999999999
  0
LINE
  5
D27
  8
CENTER
  6
CENTER
 10
637.75833494938934
 20
726.22313833922499
 30
0.0
 11
637.75833494938934
 21
712.22313833922487
 31
0.0
  0
CIRCLE
  5
D28
  8
0
  6
CONTINUOUS
 10
649.07025777963975
 20
707.91121550897435
 30
0.0
 40
2.5
  0
ARC
  5
D29
  8
0
  6
CONTINUOUS
 62
     2
 10
649.07025777963975
 20
707.91121550897435
 30
0.0
 40
3.0
 50
210.845012326004
 51
153.036401108983
  0
LINE
  5
D2A
  8
CENTER
  6
CENTER
 10
644.82761709252065
 20
712.15385619609378
 30
0.0
 11
653.31289846675907
 21
703.66857482185515
 31
0.0
  0
TEXT
  5
D2B
  8
DIM
  6
CONTINUOUS
 10
648.25833494938911
 20
692.35601832478017
 30
0.0
 40
3.0
  1
8
 50
90.0
  7
ROMANSS
 72
     1
 11
646.75833494938911
 21
693.35601832478017
 31
0.0
 73
     2
  0
LINE
  5
D2C
  8
CENTER
  6
CENTER
 10
630.75833494938934
 20
719.22313833922487
 30
0.0
 11
644.75833494938934
 21
719.22313833922487
 31
0.0
  0
LINE
  5
D2D
  8
DIM
  6
CONTINUOUS
 10
649.75833494938911
 20
675.83640386011893
 30
0.0
 11
649.75833494938911
 21
695.31664191634104
 31
0.0
  0
LINE
  5
D2E
  8
0
 10
657.75833494938911
 20
688.22313833922499
 30
0.0
 11
657.75833494938911
 21
680.22313833922499
 31
0.0
  0
SOLID
  5
D2F
  8
DIM
  6
CONTINUOUS
 10
649.25833494938911
 20
677.22313833922499
 30
0.0
 11
650.25833494938911
 21
677.22313833922499
 31
0.0
 12
649.75833494938911
 22
680.22313833922499
 32
0.0
 13
649.75833494938911
 23
680.22313833922499
 33
0.0
  0
LINE
  5
D30
  8
DIM
  6
CONTINUOUS
 10
656.75833494938911
 20
680.22313833922499
 30
0.0
 11
648.75833494938911
 21
680.22313833922499
 31
0.0
  0
LINE
  5
D31
  8
0
 10
657.75833494938911
 20
680.22313833922499
 30
0.0
 11
661.44462645040448
 21
680.22313833922499
 31
0.0
  0
SOLID
  5
D32
  8
DIM
  6
CONTINUOUS
 10
649.25833494938911
 20
691.22313833922487
 30
0.0
 11
650.25833494938911
 21
691.22313833922487
 31
0.0
 12
649.75833494938911
 22
688.22313833922499
 32
0.0
 13
649.75833494938911
 23
688.22313833922499
 33
0.0
  0
LINE
  5
D33
  8
DIM
  6
CONTINUOUS
 10
656.75833494938911
 20
688.22313833922499
 30
0.0
 11
648.75833494938911
 21
688.22313833922499
 31
0.0
  0
LINE
  5
D34
  8
0
 10
657.75833494938911
 20
688.22313833922499
 30
0.0
 11
661.44462645040448
 21
688.22313833922499
 31
0.0
  0
CIRCLE
  5
D35
  8
0
  6
CONTINUOUS
 10
672.75833494938934
 20
684.22313833922499
 30
0.0
 40
3.399999999999999
  0
ARC
  5
D36
  8
0
  6
CONTINUOUS
 62
     2
 10
672.75833494938934
 20
684.22313833922499
 30
0.0
 40
4.0
 50
155.67751702511779
 51
114.77142042572839
  0
SOLID
  5
D37
  8
DIM
  6
CONTINUOUS
 10
679.67634105727916
 20
685.53289315765142
 30
0.0
 11
679.34394349179547
 21
686.47603252087424
 31
0.0
 12
676.6807241848685
 22
685.00727014281188
 32
0.0
 13
676.6807241848685
 23
685.00727014281188
 33
0.0
  0
LINE
  5
D38
  8
DIM
  6
CONTINUOUS
 10
637.75833494938934
 20
727.22313833922499
 30
0.0
 11
637.75833494938934
 21
735.72313833922522
 31
0.0
  0
SOLID
  5
D39
  8
DIM
  6
CONTINUOUS
 10
640.75833494938934
 20
735.2231383392251
 30
0.0
 11
640.75833494938934
 21
734.22313833922522
 31
0.0
 12
637.75833494938934
 22
734.72313833922522
 32
0.0
 13
637.75833494938934
 23
734.72313833922522
 33
0.0
  0
TEXT
  5
D3A
  8
DIM
  6
CONTINUOUS
 10
670.32976352081789
 20
736.22313833922522
 30
0.0
 40
3.0
  1
70
  7
ROMANSS
 72
     1
 11
672.75833494938934
 21
737.72313833922522
 31
0.0
 73
     2
  0
TEXT
  5
D3B
  8
DIM
  6
CONTINUOUS
 10
920.01392402081478
 20
469.4568100942019
 30
0.0
 40
3.0
  1
56.5
 50
90.0
  7
ROMANSS
 72
     1
 11
918.51392402081467
 21
474.0282386656304
 31
0.0
 73
     2
  0
LINE
  5
D3C
  8
DIM
  6
CONTINUOUS
 10
921.51392402081467
 20
448.7782386656304
 30
0.0
 11
921.51392402081467
 21
499.2782386656304
 31
0.0
  0
LINE
  5
D3D
  8
DIM
  6
CONTINUOUS
 10
1063.513924020815
 20
383.52823866563028
 30
0.0
 11
1063.513924020815
 21
564.52823866563051
 31
0.0
  0
LINE
  5
D3E
  8
DIM
  6
CONTINUOUS
 10
1055.513924020815
 20
419.5610103045604
 30
0.0
 11
1055.513924020815
 21
529.13987402556472
 31
0.0
  0
TEXT
  5
D3F
  8
DIM
  6
CONTINUOUS
 10
837.25833494938934
 20
470.24252437991618
 30
0.0
 40
3.0
  1
%%c45
 50
90.0
  7
ROMANSS
 72
     1
 11
835.75833494938934
 21
474.02823866563051
 31
0.0
 73
     2
  0
LINE
  5
D40
  8
DIM
  6
CONTINUOUS
 10
838.75833494938922
 20
454.52823866563051
 30
0.0
 11
838.75833494938922
 21
493.52823866563062
 31
0.0
  0
LINE
  5
D41
  8
CENTER
  6
CENTER
 10
1005.013924020814
 20
568.96844794417177
 30
0.0
 11
1005.013924020815
 21
380.86968001114741
 31
0.0
  0
LINE
  5
D42
  8
0
 10
1047.513924020815
 20
511.52823866563051
 30
0.0
 11
1047.5139240208141
 21
436.52823866563028
 31
0.0
  0
LINE
  5
D43
  8
0
 10
937.51392402081467
 20
511.52823866563051
 30
0.0
 11
937.51392402081467
 21
436.52823866563028
 31
0.0
  0
LINE
  5
D44
  8
0
 10
717.75833494938934
 20
511.52823866563051
 30
0.0
 11
717.75833494938934
 21
436.52823866563051
 31
0.0
  0
LINE
  5
D45
  8
0
 10
1012.013924020814
 20
502.0282386656304
 30
0.0
 11
1012.013924020814
 21
446.0282386656304
 31
0.0
  0
LINE
  5
D46
  8
0
 10
1012.513924020814
 20
502.0282386656304
 30
0.0
 11
1012.513924020814
 21
446.0282386656304
 31
0.0
  0
LINE
  5
D47
  8
0
 10
1009.513924020814
 20
471.52823866563028
 30
0.0
 11
1009.513924020814
 21
455.69980608212251
 31
0.0
  0
LINE
  5
D48
  8
0
 10
938.01392402081478
 20
502.0282386656304
 30
0.0
 11
938.01392402081478
 21
446.0282386656304
 31
0.0
  0
LINE
  5
D49
  8
0
 10
937.51392402081467
 20
502.0282386656304
 30
0.0
 11
937.51392402081467
 21
446.0282386656304
 31
0.0
  0
LINE
  5
D4A
  8
0
 10
940.51392402081478
 20
471.5282386656304
 30
0.0
 11
940.51392402081478
 21
455.69980608212251
 31
0.0
  0
CIRCLE
  5
D4B
  8
0
 10
975.01392402081467
 20
474.0282386656304
 30
0.0
 40
22.499999999999979
  0
CIRCLE
  5
D4C
  8
0
 10
975.01392402081467
 20
474.0282386656304
 30
0.0
 40
22.999999999999979
  0
LINE
  5
D4D
  8
CENTER
  6
CENTER
 10
800.75833494938934
 20
458.52823866563051
 30
0.0
 11
800.75833494938934
 21
471.52823866563051
 31
0.0
  0
LINE
  5
D4E
  8
CENTER
  6
CENTER
 10
809.75833494938911
 20
468.52823866563062
 30
0.0
 11
809.75833494938934
 21
493.52823866563062
 31
0.0
  0
CIRCLE
  5
D4F
  8
0
 10
809.75833494938934
 20
481.02823866563062
 30
0.0
 40
11.5
  0
LINE
  5
D50
  8
0
 10
793.75833494938911
 20
511.52823866563051
 30
0.0
 11
793.75833494938934
 21
436.52823866563051
 31
0.0
  0
LINE
  5
D51
  8
0
 10
830.75833494938922
 20
495.52823866563051
 30
0.0
 11
830.75833494938922
 21
452.52823866563051
 31
0.0
  0
LINE
  5
D52
  8
0
 10
825.75833494938911
 20
511.02823866563051
 30
0.0
 11
825.75833494938934
 21
437.02823866563051
 31
0.0
  0
LINE
  5
D53
  8
0
 10
793.75833494938911
 20
509.02823866563051
 30
0.0
 11
793.75833494938911
 21
439.02823866563062
 31
0.0
  0
LINE
  5
D54
  8
CENTER
  6
CENTER
 10
975.01392402081467
 20
514.5282386656304
 30
0.0
 11
975.01392402081467
 21
433.52823866563051
 31
0.0
  0
LINE
  5
D55
  8
DIM
  6
CONTINUOUS
 10
940.51392402081478
 20
367.52823866563108
 30
0.0
 11
1009.513924020814
 21
367.52823866563108
 31
0.0
  0
LINE
  5
D56
  8
DIM
  6
CONTINUOUS
 10
940.51392402081478
 20
359.52823866563108
 30
0.0
 11
1044.5139240208141
 21
359.52823866563108
 31
0.0
  0
LINE
  5
D57
  8
0
  6
CONTINUOUS
 10
937.51392402081467
 20
436.5282386656304
 30
0.0
 11
1047.513924020815
 21
436.5282386656304
 31
0.0
  0
LINE
  5
D58
  8
0
  6
CONTINUOUS
 10
964.01392402081478
 20
427.5282386656304
 30
0.0
 11
1046.0139240208141
 21
427.5282386656304
 31
0.0
  0
LINE
  5
D59
  8
0
  6
CONTINUOUS
 10
965.01392402081467
 20
426.5282386656304
 30
0.0
 11
1045.0139240208141
 21
426.5282386656304
 31
0.0
  0
LINE
  5
D5A
  8
0
 10
977.51392402081467
 20
439.5282386656304
 30
0.0
 11
993.34235660432273
 21
439.52823866563051
 31
0.0
  0
LINE
  5
D5B
  8
0
 10
947.01392402081478
 20
437.0282386656304
 30
0.0
 11
1003.013924020814
 21
437.0282386656304
 31
0.0
  0
LINE
  5
D5C
  8
0
 10
717.75833494938934
 20
197.1824471138722
 30
0.0
 11
717.75833494938934
 21
307.18244711387229
 31
0.0
  0
LINE
  5
D5D
  8
CENTER
  6
CENTER
 10
700.75833494938934
 20
204.6824471138724
 30
0.0
 11
714.75833494938934
 21
204.6824471138724
 31
0.0
  0
LINE
  5
D5E
  8
CENTER
  6
CENTER
 10
707.75833494938934
 20
197.68244711387231
 30
0.0
 11
707.75833494938934
 21
211.68244711387231
 31
0.0
  0
ARC
  5
D5F
  8
0
  6
CONTINUOUS
 62
     2
 10
707.75833494938934
 20
204.6824471138724
 30
0.0
 40
4.0
 50
245.22857957427141
 51
204.3224829748799
  0
CIRCLE
  5
D60
  8
0
  6
CONTINUOUS
 10
707.75833494938934
 20
204.6824471138724
 30
0.0
 40
3.399999999999999
  0
LINE
  5
D61
  8
0
 10
717.75833494938934
 20
234.68244711387231
 30
0.0
 11
793.75833494938911
 21
234.68244711387231
 31
0.0
  0
LINE
  5
D62
  8
0
 10
717.75833494938934
 20
304.68244711387229
 30
0.0
 11
793.75833494938911
 21
304.68244711387229
 31
0.0
  0
LINE
  5
D63
  8
0
 10
717.75833494938934
 20
288.47255657244568
 30
0.0
 11
793.75833494938911
 21
288.47255657244568
 31
0.0
  0
LINE
  5
D64
  8
0
 10
717.75833494938934
 20
250.89233765529889
 30
0.0
 11
793.75833494938911
 21
250.89233765529889
 31
0.0
  0
LINE
  5
D65
  8
0
 10
717.75833494938934
 20
455.23812920705711
 30
0.0
 11
793.75833494938911
 21
455.23812920705711
 31
0.0
  0
LINE
  5
D66
  8
0
 10
717.75833494938934
 20
439.02823866563062
 30
0.0
 11
793.75833494938911
 21
439.02823866563062
 31
0.0
  0
LINE
  5
D67
  8
CENTER
  6
CENTER
 10
704.93196701469105
 20
218.1824471138724
 30
0.0
 11
729.52677542024105
 21
218.1824471138724
 31
0.0
  0
LINE
  5
D68
  8
CENTER
  6
CENTER
 10
700.75833494938934
 20
274.6824471138724
 30
0.0
 11
714.75833494938934
 21
274.6824471138724
 31
0.0
  0
ARC
  5
D69
  8
0
  6
CONTINUOUS
 62
     2
 10
696.44641211913859
 20
263.37052428362171
 30
0.0
 40
3.0
 50
206.96359889101501
 51
149.15498767399501
  0
CIRCLE
  5
D6A
  8
0
  6
CONTINUOUS
 10
696.44641211913859
 20
263.37052428362171
 30
0.0
 40
2.5
  0
LINE
  5
D6B
  8
CENTER
  6
CENTER
 10
692.20377143201915
 20
259.12788359650239
 30
0.0
 11
700.68905280625779
 21
267.61316497074091
 31
0.0
  0
LINE
  5
D6C
  8
CENTER
  6
CENTER
 10
707.75833494938934
 20
267.68244711387229
 30
0.0
 11
707.75833494938934
 21
281.6824471138724
 31
0.0
  0
ARC
  5
D6D
  8
0
  6
CONTINUOUS
 62
     2
 10
707.75833494938934
 20
274.6824471138724
 30
0.0
 40
4.0
 50
335.22857957427448
 51
294.32248297488059
  0
CIRCLE
  5
D6E
  8
0
  6
CONTINUOUS
 10
707.75833494938934
 20
274.6824471138724
 30
0.0
 40
3.399999999999999
  0
LINE
  5
D6F
  8
DIM
  6
CONTINUOUS
 10
717.75833494938934
 20
435.52823866563051
 30
0.0
 11
717.75833494938934
 21
350.11932819927949
 31
0.0
  0
LINE
  5
D70
  8
DIM
  6
CONTINUOUS
 10
713.75833494938934
 20
426.52823866563062
 30
0.0
 11
713.75833494938922
 21
357.96532042222623
 31
0.0
  0
ARC
  5
D71
  8
0
  6
CONTINUOUS
 10
732.75833373342016
 20
218.18848690468121
 30
0.0
 40
14.999999999999989
 50
180.02307030229881
 51
199.495692233054
  0
LINE
  5
D72
  8
0
  6
CONTINUOUS
 10
724.25833494938934
 20
213.18244711377099
 30
0.0
 11
725.75833494938934
 21
214.68244711377091
 31
0.0
  0
ARC
  5
D73
  8
0
  6
CONTINUOUS
 10
707.75833616535851
 20
218.18848690462579
 30
0.0
 40
14.999999999999989
 50
340.50430776694651
 51
359.97692969770151
  0
LINE
  5
D74
  8
0
  6
CONTINUOUS
 10
724.25833494938934
 20
213.18244711377099
 30
0.0
 11
724.25833494938934
 21
223.18244711377091
 31
0.0
  0
LINE
  5
D75
  8
0
  6
CONTINUOUS
 10
722.75833494938934
 20
209.93244711377091
 30
0.0
 11
722.75833494938934
 21
226.43244711377091
 31
0.0
  0
LINE
  5
D76
  8
0
  6
CONTINUOUS
 10
724.25833494938934
 20
223.18244711377091
 30
0.0
 11
725.75833494938934
 21
221.68244711377099
 31
0.0
  0
ARC
  5
D77
  8
0
  6
CONTINUOUS
 10
732.75833373342016
 20
218.17640732297119
 30
0.0
 40
14.999999999999989
 50
160.50430776694591
 51
179.97692969770111
  0
ARC
  5
D78
  8
0
  6
CONTINUOUS
 10
707.75833616535851
 20
218.17640732291579
 30
0.0
 40
14.999999999999989
 50
0.0230703022992633
 51
19.495692233054459
  0
LINE
  5
D79
  8
0
  6
CONTINUOUS
 10
718.61833494937025
 20
223.18244711377079
 30
0.0
 11
721.89833494938875
 21
223.18244711377091
 31
0.0
  0
LINE
  5
D7A
  8
0
  6
CONTINUOUS
 10
718.6532541179489
 20
227.98244711377021
 30
0.0
 11
721.86341578079782
 21
227.98244711377021
 31
0.0
  0
LINE
  5
D7B
  8
0
  6
CONTINUOUS
 10
718.65325411798085
 20
227.98244711382549
 30
0.0
 11
717.75833494938934
 21
226.43244711382621
 31
0.0
  0
ARC
  5
D7C
  8
0
  6
CONTINUOUS
 10
721.28011303277935
 20
225.4889063273236
 30
0.0
 40
3.5220472269320542
 50
150.7948558421632
 51
220.90927993347091
  0
LINE
  5
D7D
  8
0
  6
CONTINUOUS
 10
722.75833494938934
 20
223.18244711377091
 30
0.0
 11
724.25833494938934
 21
223.18244711377091
 31
0.0
  0
ARC
  5
D7E
  8
0
  6
CONTINUOUS
 10
719.23655686599921
 20
225.48890632726841
 30
0.0
 40
3.5220472269320542
 50
319.0907200665302
 51
29.205144157836791
  0
LINE
  5
D7F
  8
0
  6
CONTINUOUS
 10
721.86341578079782
 20
227.98244711377021
 30
0.0
 11
722.75833494938934
 21
226.43244711377091
 31
0.0
  0
LINE
  5
D80
  8
0
  6
CONTINUOUS
 62
     2
 10
722.75833494938934
 20
222.18244711377091
 30
0.0
 11
725.25833494938934
 21
222.18244711377091
 31
0.0
  0
LINE
  5
D81
  8
0
  6
CONTINUOUS
 10
725.75833494938934
 20
214.68244711377091
 30
0.0
 11
725.75833494938934
 21
221.68244711377099
 31
0.0
  0
LINE
  5
D82
  8
0
  6
CONTINUOUS
 10
718.65325411801268
 20
208.38244711377169
 30
0.0
 11
721.86341578079782
 21
208.38244711377169
 31
0.0
  0
LINE
  5
D83
  8
0
  6
CONTINUOUS
 10
718.65325411798085
 20
208.38244711382691
 30
0.0
 11
717.75833494938934
 21
209.93244711382621
 31
0.0
  0
LINE
  5
D84
  8
0
  6
CONTINUOUS
 10
721.86341578079782
 20
208.38244711377169
 30
0.0
 11
722.75833494938934
 21
209.93244711377091
 31
0.0
  0
LINE
  5
D85
  8
0
  6
CONTINUOUS
 10
718.61833494940936
 20
213.18244711377079
 30
0.0
 11
721.89833494938875
 21
213.18244711377099
 31
0.0
  0
LINE
  5
D86
  8
0
  6
CONTINUOUS
 10
722.75833494938934
 20
213.18244711377099
 30
0.0
 11
724.25833494938934
 21
213.18244711377099
 31
0.0
  0
LINE
  5
D87
  8
0
  6
CONTINUOUS
 62
     2
 10
722.75833494938934
 20
214.18244711377091
 30
0.0
 11
725.25833494938934
 21
214.18244711377091
 31
0.0
  0
ARC
  5
D88
  8
0
  6
CONTINUOUS
 10
721.28011303277935
 20
210.87598790032879
 30
0.0
 40
3.5220472269320542
 50
139.090720066529
 51
209.20514415783671
  0
ARC
  5
D89
  8
0
  6
CONTINUOUS
 10
719.23655686599921
 20
210.87598790027349
 30
0.0
 40
3.5220472269320542
 50
330.7948558421632
 51
40.909279933469747
  0
SOLID
  5
D8A
  8
DIM
  6
CONTINUOUS
 10
710.75833494938934
 20
360.02823866563051
 30
0.0
 11
710.75833494938934
 21
359.02823866563051
 31
0.0
 12
713.75833494938934
 22
359.52823866563051
 32
0.0
 13
713.75833494938934
 23
359.52823866563051
 33
0.0
  0
SOLID
  5
D8B
  8
DIM
  6
CONTINUOUS
 10
714.75833494938934
 20
352.02823866563051
 30
0.0
 11
714.75833494938934
 21
351.02823866563051
 31
0.0
 12
717.75833494938934
 22
351.52823866563051
 32
0.0
 13
717.75833494938934
 23
351.52823866563051
 33
0.0
  0
POLYLINE
  5
D8C
  8
0
  6
CONTINUOUS
 66
     1
 10
0.0
 20
0.0
 30
0.0
 70
     1
  0
VERTEX
  5
1441
  8
0
  6
CONTINUOUS
 10
1021.613924020815
 20
463.01528762271829
 30
0.0
  0
VERTEX
  5
1442
  8
0
  6
CONTINUOUS
 10
1016.7139240208151
 20
454.52823866563068
 30
0.0
  0
VERTEX
  5
1443
  8
0
  6
CONTINUOUS
 10
1021.613924020815
 20
446.04118970854307
 30
0.0
  0
VERTEX
  5
1444
  8
0
  6
CONTINUOUS
 10
1031.413924020814
 20
446.04118970854307
 30
0.0
  0
VERTEX
  5
1445
  8
0
  6
CONTINUOUS
 10
1036.3139240208141
 20
454.52823866563068
 30
0.0
  0
VERTEX
  5
1446
  8
0
  6
CONTINUOUS
 10
1031.413924020814
 20
463.01528762271829
 30
0.0
  0
SEQEND
  5
1447
  8
0
  6
CONTINUOUS
  0
CIRCLE
  5
D94
  8
0
  6
CONTINUOUS
 10
1026.5139240208141
 20
454.52823866563068
 30
0.0
 40
8.25
  0
LINE
  5
D95
  8
CENTER
  6
CENTER
 10
1026.5139240208141
 20
469.52823866563068
 30
0.0
 11
1026.5139240208141
 21
439.52823866563068
 31
0.0
  0
LINE
  5
D96
  8
CENTER
  6
CENTER
 10
707.75833494938911
 20
434.24805730284788
 30
0.0
 11
707.75833494938934
 21
451.36341953559548
 31
0.0
  0
LINE
  5
D97
  8
0
 10
713.75833494938934
 20
436.52823866563051
 30
0.0
 11
713.75833494938934
 21
427.52823866563051
 31
0.0
  0
LINE
  5
D98
  8
0
  6
CONTINUOUS
 10
713.75833494938934
 20
427.52823866563051
 30
0.0
 11
712.75833494938934
 21
426.52823866563062
 31
0.0
  0
CIRCLE
  5
D99
  8
0
  6
CONTINUOUS
 10
1026.5139240208141
 20
454.52823866563068
 30
0.0
 40
5.0
  0
ARC
  5
D9A
  8
0
  6
CONTINUOUS
 62
     2
 10
1026.5139240208141
 20
454.52823866563068
 30
0.0
 40
4.25
 50
69.487813016515403
 51
22.414620147484769
  0
POLYLINE
  5
D9B
  8
0
  6
CONTINUOUS
 66
     1
 10
0.0
 20
0.0
 30
0.0
 70
     1
  0
VERTEX
  5
1448
  8
0
  6
CONTINUOUS
 10
1025.0705483478409
 20
457.02823866563068
 30
0.0
  0
VERTEX
  5
1449
  8
0
  6
CONTINUOUS
 10
1023.627172674866
 20
454.52823866563068
 30
0.0
  0
VERTEX
  5
144A
  8
0
  6
CONTINUOUS
 10
1025.0705483478409
 20
452.02823866563068
 30
0.0
  0
VERTEX
  5
144B
  8
0
  6
CONTINUOUS
 10
1027.9572996937891
 20
452.02823866563068
 30
0.0
  0
VERTEX
  5
144C
  8
0
  6
CONTINUOUS
 10
1029.4006753667629
 20
454.52823866563068
 30
0.0
  0
VERTEX
  5
144D
  8
0
  6
CONTINUOUS
 10
1027.9572996937891
 20
457.02823866563068
 30
0.0
  0
SEQEND
  5
144E
  8
0
  6
CONTINUOUS
  0
LINE
  5
DA3
  8
0
 10
825.75833494938911
 20
232.6824471138722
 30
0.0
 11
825.75833494938934
 21
306.68244711387229
 31
0.0
  0
LINE
  5
DA4
  8
0
 10
793.75833494938911
 20
232.18244711387231
 30
0.0
 11
793.75833494938934
 21
307.18244711387229
 31
0.0
  0
LINE
  5
DA5
  8
0
 10
793.75833494938911
 20
234.6824471138722
 30
0.0
 11
793.75833494938911
 21
304.68244711387229
 31
0.0
  0
LINE
  5
DA6
  8
0
 10
830.75833494938922
 20
248.1824471138724
 30
0.0
 11
830.75833494938922
 21
291.1824471138724
 31
0.0
  0
LINE
  5
DA7
  8
0
 10
793.75833494938934
 20
232.18244711387231
 30
0.0
 11
825.75833494938934
 21
232.6824471138722
 31
0.0
  0
LINE
  5
DA8
  8
0
 10
825.75833494938911
 20
247.18244711387231
 30
0.0
 11
829.75833494938922
 21
247.18244711387231
 31
0.0
  0
ARC
  5
DA9
  8
0
 10
829.75833494938922
 20
248.1824471138724
 30
0.0
 40
1.0
 50
270.0
 51
0.0
  0
LINE
  5
DAA
  8
0
 10
825.75833494938934
 20
292.18244711387229
 30
0.0
 11
829.75833494938922
 21
292.18244711387229
 31
0.0
  0
ARC
  5
DAB
  8
0
 10
829.75833494938922
 20
291.1824471138724
 30
0.0
 40
1.0
 50
0.0
 51
90.0
  0
LINE
  5
DAC
  8
DIM
  6
CONTINUOUS
 10
830.75833494938922
 20
450.4505157414406
 30
0.0
 11
830.75833494938945
 21
341.85118055816571
 31
0.0
  0
LINE
  5
DAD
  8
DIM
  6
CONTINUOUS
 10
825.75833494938934
 20
436.02823866563051
 30
0.0
 11
825.75833494938911
 21
341.60325730284183
 31
0.0
  0
LINE
  5
DAE
  8
0
 10
793.75833494938934
 20
307.18244711387229
 30
0.0
 11
825.75833494938934
 21
306.68244711387229
 31
0.0
  0
SOLID
  5
DAF
  8
DIM
  6
CONTINUOUS
 10
822.75833494938945
 20
344.02823866563051
 30
0.0
 11
822.75833494938945
 21
343.02823866563051
 31
0.0
 12
825.75833494938934
 22
343.52823866563051
 32
0.0
 13
825.75833494938934
 23
343.52823866563051
 33
0.0
  0
SOLID
  5
DB0
  8
DIM
  6
CONTINUOUS
 10
833.75833494938934
 20
344.02823866563051
 30
0.0
 11
833.75833494938934
 21
343.02823866563051
 31
0.0
 12
830.75833494938922
 22
343.52823866563051
 32
0.0
 13
830.75833494938922
 23
343.52823866563051
 33
0.0
  0
TEXT
  5
DB1
  8
DIM
  6
CONTINUOUS
 10
836.13358666946658
 20
345.02823866563051
 30
0.0
 40
3.0
  1
5
  7
ROMANSS
 72
     1
 11
837.13358666946658
 21
346.52823866563051
 31
0.0
 73
     2
  0
LINE
  5
DB2
  8
0
 10
793.75833494938934
 20
436.52823866563051
 30
0.0
 11
825.75833494938934
 21
437.02823866563051
 31
0.0
  0
ARC
  5
DB3
  8
0
  6
CONTINUOUS
 10
800.75833494938934
 20
465.02823866563051
 30
0.0
 40
3.5
 50
38.213210701738312
 51
81.786789298261766
  0
ARC
  5
DB4
  8
0
  6
CONTINUOUS
 10
800.75833494938934
 20
465.02823866563051
 30
0.0
 40
3.5
 50
278.21321070173809
 51
321.78678929826162
  0
POLYLINE
  5
DB5
  8
0
  6
CONTINUOUS
 66
     1
 10
0.0
 20
0.0
 30
0.0
 70
     1
  0
VERTEX
  5
144F
  8
0
  6
CONTINUOUS
 10
799.89230954560469
 20
466.52823866563051
 30
0.0
  0
VERTEX
  5
1450
  8
0
  6
CONTINUOUS
 10
799.02628414182038
 20
465.02823866563051
 30
0.0
  0
VERTEX
  5
1451
  8
0
  6
CONTINUOUS
 10
799.89230954560469
 20
463.52823866563062
 30
0.0
  0
VERTEX
  5
1452
  8
0
  6
CONTINUOUS
 10
801.62436035317353
 20
463.52823866563062
 30
0.0
  0
VERTEX
  5
1453
  8
0
  6
CONTINUOUS
 10
802.49038575695806
 20
465.02823866563051
 30
0.0
  0
VERTEX
  5
1454
  8
0
  6
CONTINUOUS
 10
801.62436035317353
 20
466.52823866563051
 30
0.0
  0
SEQEND
  5
1455
  8
0
  6
CONTINUOUS
  0
CIRCLE
  5
DBD
  8
0
 10
800.75833494938934
 20
465.02823866563051
 30
0.0
 40
5.2999999999999989
  0
CIRCLE
  5
DBE
  8
0
 10
800.75833494938934
 20
465.02823866563051
 30
0.0
 40
5.0
  0
CIRCLE
  5
DBF
  8
0
  6
CONTINUOUS
 10
800.75833494938934
 20
465.02823866563051
 30
0.0
 40
2.5
  0
LINE
  5
DC0
  8
CENTER
  6
CENTER
 10
794.25833494938877
 20
465.02823866563051
 30
0.0
 11
807.25833494938911
 21
465.02823866563051
 31
0.0
  0
LINE
  5
DC1
  8
0
  6
CONTINUOUS
 10
800.25833494938922
 20
470.00317585116358
 30
0.0
 11
800.25833494938922
 21
468.4923402807683
 31
0.0
  0
LINE
  5
DC2
  8
0
  6
CONTINUOUS
 10
801.25833494938922
 20
470.00317585116358
 30
0.0
 11
801.25833494938922
 21
468.4923402807683
 31
0.0
  0
LINE
  5
DC3
  8
0
  6
CONTINUOUS
 10
800.25833494938922
 20
461.56413705049289
 30
0.0
 11
800.25833494938922
 21
460.0533014800975
 31
0.0
  0
LINE
  5
DC4
  8
0
  6
CONTINUOUS
 10
801.25833494938922
 20
461.56413705049289
 30
0.0
 11
801.25833494938922
 21
460.0533014800975
 31
0.0
  0
LINE
  5
DC5
  8
0
  6
CONTINUOUS
 10
798.00833494938934
 20
467.19330217509162
 30
0.0
 11
796.69991296448575
 21
467.94871996028928
 31
0.0
  0
ARC
  5
DC6
  8
0
  6
CONTINUOUS
 10
800.75833494938934
 20
465.02823866563051
 30
0.0
 40
3.5
 50
158.21321070173769
 51
201.78678929826219
  0
LINE
  5
DC7
  8
0
  6
CONTINUOUS
 10
797.50833494938934
 20
466.3272767713072
 30
0.0
 11
796.19991296448575
 21
467.08269455650492
 31
0.0
  0
LINE
  5
DC8
  8
0
  6
CONTINUOUS
 10
796.69991296448575
 20
462.1077573709718
 30
0.0
 11
798.00833494938934
 21
462.86317515616952
 31
0.0
  0
LINE
  5
DC9
  8
0
  6
CONTINUOUS
 10
796.19991296448575
 20
462.97378277475622
 30
0.0
 11
797.50833494938934
 21
463.72920055995388
 31
0.0
  0
ARC
  5
DCA
  8
0
  6
CONTINUOUS
 10
800.75833494938934
 20
465.02823866563051
 30
0.0
 40
3.5
 50
98.213210701738234
 51
141.78678929826239
  0
ARC
  5
DCB
  8
0
  6
CONTINUOUS
 10
800.75833494938934
 20
465.02823866563051
 30
0.0
 40
3.5
 50
218.21321070173829
 51
261.78678929826179
  0
ARC
  5
DCC
  8
0
  6
CONTINUOUS
 10
800.75833494938934
 20
465.02823866563051
 30
0.0
 40
3.5
 50
338.21321070173849
 51
21.786789298261379
  0
LINE
  5
DCD
  8
0
  6
CONTINUOUS
 10
803.50833494938934
 20
467.19330217509162
 30
0.0
 11
804.81675693429293
 21
467.94871996028928
 31
0.0
  0
LINE
  5
DCE
  8
0
  6
CONTINUOUS
 10
804.00833494938945
 20
466.3272767713072
 30
0.0
 11
805.31675693429281
 21
467.08269455650492
 31
0.0
  0
LINE
  5
DCF
  8
0
  6
CONTINUOUS
 10
804.81675693429293
 20
462.1077573709718
 30
0.0
 11
803.50833494938934
 21
462.86317515616952
 31
0.0
  0
LINE
  5
DD0
  8
0
  6
CONTINUOUS
 10
805.31675693429281
 20
462.97378277475622
 30
0.0
 11
804.00833494938945
 21
463.72920055995388
 31
0.0
  0
LINE
  5
DD1
  8
0
 10
825.75833494938934
 20
451.52823866563062
 30
0.0
 11
829.75833494938922
 21
451.52823866563051
 31
0.0
  0
LINE
  5
DD2
  8
DIM
  6
CONTINUOUS
 10
831.38282278662439
 20
451.52823866563062
 30
0.0
 11
839.75833494938945
 21
451.52823866563062
 31
0.0
  0
ARC
  5
DD3
  8
0
 10
829.75833494938922
 20
452.52823866563051
 30
0.0
 40
1.0
 50
270.0
 51
0.0
  0
SOLID
  5
DD4
  8
DIM
  6
CONTINUOUS
 10
838.25833494938934
 20
454.52823866563051
 30
0.0
 11
839.25833494938934
 21
454.52823866563051
 31
0.0
 12
838.75833494938922
 22
451.52823866563062
 32
0.0
 13
838.75833494938922
 23
451.52823866563062
 33
0.0
  0
LINE
  5
DD5
  8
DIM
  6
CONTINUOUS
 10
937.51392402081467
 20
434.78630040060159
 30
0.0
 11
937.51392402081467
 21
358.52823866563102
 31
0.0
  0
LINE
  5
DD6
  8
DIM
  6
CONTINUOUS
 10
975.0139240208149
 20
431.28133389091289
 30
0.0
 11
975.01392402081467
 21
374.52823866563108
 31
0.0
  0
SOLID
  5
DD7
  8
DIM
  6
CONTINUOUS
 10
940.51392402081478
 20
368.02823866563108
 30
0.0
 11
940.51392402081478
 21
367.02823866563108
 31
0.0
 12
937.51392402081467
 22
367.52823866563108
 32
0.0
 13
937.51392402081467
 23
367.52823866563108
 33
0.0
  0
SOLID
  5
DD8
  8
DIM
  6
CONTINUOUS
 10
940.51392402081478
 20
360.02823866563102
 30
0.0
 11
940.51392402081478
 21
359.02823866563102
 31
0.0
 12
937.51392402081467
 22
359.52823866563108
 32
0.0
 13
937.51392402081467
 23
359.52823866563108
 33
0.0
  0
POLYLINE
  5
DD9
  8
DIM
  6
CONTINUOUS
 66
     1
 10
0.0
 20
0.0
 30
0.0
 70
     1
  0
VERTEX
  5
1456
  8
DIM
  6
CONTINUOUS
 10
968.84105749852938
 20
371.56393648354589
 30
0.0
  0
VERTEX
  5
1457
  8
DIM
  6
CONTINUOUS
 10
968.84105749852938
 20
368.91991542339258
 30
0.0
  0
VERTEX
  5
1458
  8
DIM
  6
CONTINUOUS
 10
971.24642868243643
 20
368.91991542339258
 30
0.0
  0
VERTEX
  5
1459
  8
DIM
  6
CONTINUOUS
 10
971.24642868243643
 20
371.56393648354589
 30
0.0
  0
SEQEND
  5
145A
  8
DIM
  6
CONTINUOUS
  0
TEXT
  5
DDF
  8
DIM
  6
CONTINUOUS
 10
972.58535259224334
 20
369.02823866563108
 30
0.0
 40
3.0
  1
75
  7
ROMANSS
 72
     1
 11
975.01392402081467
 21
370.52823866563108
 31
0.0
 73
     2
  0
SOLID
  5
DE0
  8
DIM
  6
CONTINUOUS
 10
978.01392402081478
 20
376.02823866563108
 30
0.0
 11
978.01392402081478
 21
375.02823866563108
 31
0.0
 12
975.01392402081467
 22
375.52823866563108
 32
0.0
 13
975.01392402081467
 23
375.52823866563108
 33
0.0
  0
LINE
  5
DE1
  8
CENTER
  6
CENTER
 10
934.32262993747474
 20
465.02823866563051
 30
0.0
 11
957.98728735857264
 21
465.02823866563051
 31
0.0
  0
POLYLINE
  5
DE2
  8
0
  6
CONTINUOUS
 66
     1
 10
0.0
 20
0.0
 30
0.0
 70
     1
  0
VERTEX
  5
145B
  8
0
  6
CONTINUOUS
 10
944.45452294405641
 20
449.7782386656304
 30
0.0
  0
VERTEX
  5
145C
  8
0
  6
CONTINUOUS
 10
942.14512186729769
 20
445.7782386656304
 30
0.0
  0
VERTEX
  5
145D
  8
0
  6
CONTINUOUS
 10
944.45452294405641
 20
441.77823866563051
 30
0.0
  0
VERTEX
  5
145E
  8
0
  6
CONTINUOUS
 10
949.07332509757339
 20
441.77823866563051
 30
0.0
  0
VERTEX
  5
145F
  8
0
  6
CONTINUOUS
 10
951.38272617433165
 20
445.7782386656304
 30
0.0
  0
VERTEX
  5
1460
  8
0
  6
CONTINUOUS
 10
949.07332509757339
 20
449.7782386656304
 30
0.0
  0
SEQEND
  5
1461
  8
0
  6
CONTINUOUS
  0
CIRCLE
  5
DEA
  8
0
  6
CONTINUOUS
 10
946.76392402081478
 20
445.7782386656304
 30
0.0
 40
3.399999999999999
  0
ARC
  5
DEB
  8
0
  6
CONTINUOUS
 62
     2
 10
946.76392402081478
 20
445.7782386656304
 30
0.0
 40
4.0
 50
57.77418116062497
 51
14.453881156675809
  0
CIRCLE
  5
DEC
  8
0
 10
946.76392402081478
 20
445.7782386656304
 30
0.0
 40
6.5
  0
LINE
  5
DED
  8
0
 10
942.01392402081467
 20
468.52823866563051
 30
0.0
 11
951.16544398539111
 21
468.52823866563051
 31
0.0
  0
ARC
  5
DEE
  8
0
 10
946.76392402081478
 20
445.7782386656304
 30
0.0
 40
9.5
 50
59.477512185929669
 51
115.58300197738799
  0
LINE
  5
DEF
  8
CENTER
  6
CENTER
 10
939.26392402081467
 20
445.7782386656304
 30
0.0
 11
954.26392402081467
 21
445.7782386656304
 31
0.0
  0
ARC
  5
DF0
  8
0
  6
CONTINUOUS
 10
942.6861462430428
 20
450.27823866563051
 30
0.0
 40
10.19983357405331
 50
155.3752531507763
 51
204.62474684922361
  0
LINE
  5
DF1
  8
0
  6
CONTINUOUS
 10
932.51392402081478
 20
446.02823866563051
 30
0.0
 11
932.51392402081478
 21
463.02823866563051
 31
0.0
  0
ARC
  5
DF2
  8
0
  6
CONTINUOUS
 10
927.34170179858688
 20
450.27823866563062
 30
0.0
 40
10.19983357405331
 50
335.3752531507788
 51
24.624746849221388
  0
SOLID
  5
DF3
  8
DIM
  6
CONTINUOUS
 10
921.01392402081478
 20
448.7782386656304
 30
0.0
 11
922.01392402081478
 21
448.7782386656304
 31
0.0
 12
921.51392402081467
 22
445.7782386656304
 32
0.0
 13
921.51392402081467
 23
445.7782386656304
 33
0.0
  0
LINE
  5
DF4
  8
CENTER
  6
CENTER
 10
946.76392402081478
 20
453.2782386656304
 30
0.0
 11
946.76392402081478
 21
438.2782386656304
 31
0.0
  0
LINE
  5
DF5
  8
0
  6
CONTINUOUS
 10
932.51392402081478
 20
446.02823866563051
 30
0.0
 11
937.51392402081467
 21
446.02823866563051
 31
0.0
  0
LINE
  5
DF6
  8
DIM
  6
CONTINUOUS
 10
938.26392402081467
 20
445.7782386656304
 30
0.0
 11
920.07077739787314
 21
445.7782386656304
 31
0.0
  0
ARC
  5
DF7
  8
0
 10
947.01392402081478
 20
446.0282386656304
 30
0.0
 40
9.0
 50
180.0
 51
270.0
  0
ARC
  5
DF8
  8
0
 10
947.01392402081478
 20
446.0282386656304
 30
0.0
 40
9.5
 50
180.0
 51
270.0
  0
LINE
  5
DF9
  8
CENTER
  6
CENTER
 10
948.65094384911413
 20
454.52823866563051
 30
0.0
 11
926.51392402081478
 21
454.52823866563051
 31
0.0
  0
ARC
  5
DFA
  8
0
  6
CONTINUOUS
 10
942.6861462430428
 20
458.77823866563051
 30
0.0
 40
10.19983357405331
 50
155.3752531507763
 51
204.62474684922361
  0
LINE
  5
DFB
  8
0
  6
CONTINUOUS
 10
932.51392402081478
 20
463.02823866563051
 30
0.0
 11
937.51392402081467
 21
463.02823866563051
 31
0.0
  0
LINE
  5
DFC
  8
0
  6
CONTINUOUS
 10
931.01392402081467
 20
459.52823866563062
 30
0.0
 11
929.51392402081467
 21
458.02823866563051
 31
0.0
  0
LINE
  5
DFD
  8
0
  6
CONTINUOUS
 10
931.01392402081467
 20
449.52823866563051
 30
0.0
 11
931.01392402081467
 21
459.52823866563062
 31
0.0
  0
LINE
  5
DFE
  8
0
  6
CONTINUOUS
 10
931.01392402081467
 20
449.52823866563051
 30
0.0
 11
929.51392402081467
 21
451.02823866563062
 31
0.0
  0
LINE
  5
DFF
  8
0
  6
CONTINUOUS
 62
     2
 10
932.51392402081478
 20
450.52823866563051
 30
0.0
 11
930.01392402081478
 21
450.52823866563051
 31
0.0
  0
LINE
  5
E00
  8
0
  6
CONTINUOUS
 62
     2
 10
932.51392402081478
 20
458.52823866563051
 30
0.0
 11
930.01392402081478
 21
458.52823866563051
 31
0.0
  0
LINE
  5
E01
  8
0
  6
CONTINUOUS
 10
932.51392402081478
 20
449.52823866563051
 30
0.0
 11
931.01392402081467
 21
449.52823866563051
 31
0.0
  0
LINE
  5
E02
  8
0
  6
CONTINUOUS
 10
929.51392402081467
 20
451.02823866563062
 30
0.0
 11
929.51392402081467
 21
458.02823866563051
 31
0.0
  0
POLYLINE
  5
E03
  8
DIM
  6
CONTINUOUS
 66
     1
 10
0.0
 20
0.0
 30
0.0
 70
     1
  0
VERTEX
  5
1462
  8
DIM
  6
CONTINUOUS
 10
917.30384515507376
 20
468.64618945293211
 30
0.0
  0
VERTEX
  5
1463
  8
DIM
  6
CONTINUOUS
 10
917.30384515507376
 20
466.00216839277869
 30
0.0
  0
VERTEX
  5
1464
  8
DIM
  6
CONTINUOUS
 10
919.7092163389807
 20
466.00216839277869
 30
0.0
  0
VERTEX
  5
1465
  8
DIM
  6
CONTINUOUS
 10
919.7092163389807
 20
468.64618945293211
 30
0.0
  0
SEQEND
  5
1466
  8
DIM
  6
CONTINUOUS
  0
LINE
  5
E09
  8
0
  6
CONTINUOUS
 10
932.51392402081478
 20
459.52823866563062
 30
0.0
 11
931.01392402081467
 21
459.52823866563062
 31
0.0
  0
ARC
  5
E0A
  8
0
  6
CONTINUOUS
 10
927.34170179858688
 20
458.77823866563062
 30
0.0
 40
10.19983357405331
 50
335.3752531507788
 51
24.624746849221388
  0
ARC
  5
E0B
  8
0
 10
942.01392402081467
 20
455.69980608212251
 30
0.0
 40
1.5
 50
180.0
 51
295.58300197742682
  0
LINE
  5
E0C
  8
0
 10
937.51392402081467
 20
449.0282386656304
 30
0.0
 11
938.01392402081478
 21
449.0282386656304
 31
0.0
  0
ARC
  5
E0D
  8
0
 10
942.01392402081467
 20
467.02823866563051
 30
0.0
 40
1.5
 50
90.0
 51
180.0
  0
LINE
  5
E0E
  8
CENTER
  6
CENTER
 10
970.01392402081478
 20
434.24805730284783
 30
0.0
 11
970.01392402081478
 21
448.24805730284771
 31
0.0
  0
LINE
  5
E0F
  8
0
 10
976.01392402081467
 20
441.0282386656304
 30
0.0
 11
976.01392402081467
 21
449.65612345172258
 31
0.0
  0
LINE
  5
E10
  8
0
 10
965.01392402081467
 20
441.0282386656304
 30
0.0
 11
965.01392402081467
 21
452.3949310128466
 31
0.0
  0
LINE
  5
E11
  8
0
 10
974.01392402081467
 20
441.0282386656304
 30
0.0
 11
974.01392402081467
 21
449.65612345172258
 31
0.0
  0
ARC
  5
E12
  8
0
 10
946.76392402081478
 20
445.7782386656304
 30
0.0
 40
9.5
 50
334.4169980226124
 51
30.522487814069859
  0
LINE
  5
E13
  8
0
 10
972.51392402081478
 20
439.5282386656304
 30
0.0
 11
956.68549143730695
 21
439.52823866563051
 31
0.0
  0
LINE
  5
E14
  8
0
 10
964.01392402081478
 20
427.5282386656304
 30
0.0
 11
964.01392402081478
 21
436.5282386656304
 31
0.0
  0
LINE
  5
E15
  8
0
  6
CONTINUOUS
 10
965.01392402081467
 20
426.5282386656304
 30
0.0
 11
964.01392402081478
 21
427.5282386656304
 31
0.0
  0
ARC
  5
E16
  8
0
 10
956.68549143730695
 20
441.0282386656304
 30
0.0
 40
1.5
 50
154.4169980225779
 51
270.0
  0
ARC
  5
E17
  8
0
 10
963.51392402081467
 20
441.0282386656304
 30
0.0
 40
1.5
 50
270.0
 51
0.0
  0
ARC
  5
E18
  8
0
 10
972.51392402081478
 20
441.0282386656304
 30
0.0
 40
1.5
 50
270.0
 51
0.0
  0
ARC
  5
E19
  8
0
 10
977.51392402081467
 20
441.0282386656304
 30
0.0
 40
1.5
 50
180.0
 51
270.0
  0
ARC
  5
E1A
  8
0
 10
955.85474270572888
 20
458.75814464707048
 30
0.0
 40
1.5
 50
314.99999999999841
 51
38.5552596602313
  0
LINE
  5
E1B
  8
0
 10
958.68316983047487
 20
455.92971752232438
 30
0.0
 11
955.17899266299401
 21
452.42554035484329
 31
0.0
  0
ARC
  5
E1C
  8
0
 10
956.23965283477378
 20
451.36488018306341
 30
0.0
 40
1.5
 50
134.99999999999841
 51
210.52248781406951
  0
ARC
  5
E1D
  8
0
 10
952.35056553824768
 20
455.25396747958939
 30
0.0
 40
1.5
 50
239.47751218593231
 51
314.99999999999841
  0
LINE
  5
E1E
  8
0
 10
956.91540287750877
 20
457.69748447529059
 30
0.0
 11
953.41122571002745
 21
454.1933073078095
 31
0.0
  0
ARC
  5
E1F
  8
0
 10
963.51392402081467
 20
452.3949310128466
 30
0.0
 40
1.5
 50
0.0
 51
62.005438267749533
  0
ARC
  5
E20
  8
0
 10
959.74383000225475
 20
454.86905735054449
 30
0.0
 40
1.5
 50
51.444740339770391
 51
134.99999999999841
  0
ARC
  5
E21
  8
0
 10
951.16544398539111
 20
466.52823866563051
 30
0.0
 40
2.0
 50
17.457603123720698
 51
90.0
  0
ARC
  5
E22
  8
0
 10
972.51392402081478
 20
449.65612345172258
 30
0.0
 40
1.5
 50
0.0
 51
84.143298090078574
  0
ARC
  5
E23
  8
0
 10
977.51392402081467
 20
449.65612345172258
 30
0.0
 40
1.5
 50
95.856701909921412
 51
180.0
  0
LINE
  5
E24
  8
DIM
  6
CONTINUOUS
 10
1046.0139240208141
 20
426.5282386656304
 30
0.0
 11
1056.568570537014
 21
426.5282386656304
 31
0.0
  0
LINE
  5
E25
  8
DIM
  6
CONTINUOUS
 10
1012.513924020814
 20
442.88499521139221
 30
0.0
 11
1012.513924020814
 21
377.13787333445782
 31
0.0
  0
LINE
  5
E26
  8
DIM
  6
CONTINUOUS
 10
1047.5139240208141
 20
434.72547139269761
 30
0.0
 11
1047.5139240208141
 21
358.52823866563102
 31
0.0
  0
LINE
  5
E27
  8
DIM
  6
CONTINUOUS
 10
975.01392402081467
 20
375.52823866563108
 30
0.0
 11
1044.5139240208141
 21
375.52823866563108
 31
0.0
  0
TEXT
  5
E28
  8
DIM
  6
CONTINUOUS
 10
989.22820973510045
 20
361.02823866563102
 30
0.0
 40
3.0
  1
110
  7
ROMANSS
 72
     1
 11
992.51392402081478
 21
362.52823866563102
 31
0.0
 73
     2
  0
TEXT
  5
E29
  8
DIM
  6
CONTINUOUS
 10
987.58535259224334
 20
377.02823866563108
 30
0.0
 40
3.0
  1
30
  7
ROMANSS
 72
     1
 11
990.01392402081467
 21
378.52823866563108
 31
0.0
 73
     2
  0
LINE
  5
E2A
  8
DIM
  6
CONTINUOUS
 10
1012.513924020814
 20
373.60531372335288
 30
0.0
 11
1012.513924020814
 21
366.52823866563108
 31
0.0
  0
SOLID
  5
E2B
  8
DIM
  6
CONTINUOUS
 10
1009.513924020814
 20
368.02823866563108
 30
0.0
 11
1009.513924020814
 21
367.02823866563108
 31
0.0
 12
1012.513924020814
 22
367.52823866563108
 32
0.0
 13
1012.513924020814
 23
367.52823866563108
 33
0.0
  0
SOLID
  5
E2C
  8
DIM
  6
CONTINUOUS
 10
1008.013924020814
 20
376.02823866563108
 30
0.0
 11
1008.013924020814
 21
375.02823866563108
 31
0.0
 12
1005.013924020814
 22
375.52823866563108
 32
0.0
 13
1005.013924020814
 23
375.52823866563108
 33
0.0
  0
LINE
  5
E2D
  8
DIM
  6
CONTINUOUS
 10
1005.013924020814
 20
379.52823866563091
 30
0.0
 11
1005.013924020814
 21
374.52823866563108
 31
0.0
  0
SOLID
  5
E2E
  8
DIM
  6
CONTINUOUS
 10
1002.013924020815
 20
376.02823866563108
 30
0.0
 11
1002.013924020815
 21
375.02823866563108
 31
0.0
 12
1005.013924020814
 22
375.52823866563108
 32
0.0
 13
1005.013924020814
 23
375.52823866563108
 33
0.0
  0
LINE
  5
E2F
  8
DIM
  6
CONTINUOUS
 10
1005.013924020814
 20
379.52823866563091
 30
0.0
 11
1005.013924020814
 21
374.52823866563108
 31
0.0
  0
TEXT
  5
E30
  8
DIM
  6
CONTINUOUS
 10
1021.692495449386
 20
377.02823866563108
 30
0.0
 40
3.0
  1
42.5
  7
ROMANSS
 72
     1
 11
1026.2639240208141
 21
378.52823866563108
 31
0.0
 73
     2
  0
SOLID
  5
E31
  8
DIM
  6
CONTINUOUS
 10
1044.5139240208141
 20
360.02823866563102
 30
0.0
 11
1044.5139240208141
 21
359.02823866563102
 31
0.0
 12
1047.5139240208141
 22
359.52823866563108
 32
0.0
 13
1047.5139240208141
 23
359.52823866563108
 33
0.0
  0
SOLID
  5
E32
  8
DIM
  6
CONTINUOUS
 10
1044.5139240208141
 20
376.02823866563108
 30
0.0
 11
1044.5139240208141
 21
375.02823866563108
 31
0.0
 12
1047.5139240208141
 22
375.52823866563108
 32
0.0
 13
1047.5139240208141
 23
375.52823866563108
 33
0.0
  0
POLYLINE
  5
E33
  8
0
  6
CONTINUOUS
 66
     1
 10
0.0
 20
0.0
 30
0.0
 70
     1
  0
VERTEX
  5
1467
  8
0
  6
CONTINUOUS
 10
1000.954522944056
 20
449.7782386656304
 30
0.0
  0
VERTEX
  5
1468
  8
0
  6
CONTINUOUS
 10
998.64512186729792
 20
445.7782386656304
 30
0.0
  0
VERTEX
  5
1469
  8
0
  6
CONTINUOUS
 10
1000.954522944056
 20
441.77823866563051
 30
0.0
  0
VERTEX
  5
146A
  8
0
  6
CONTINUOUS
 10
1005.573325097573
 20
441.77823866563051
 30
0.0
  0
VERTEX
  5
146B
  8
0
  6
CONTINUOUS
 10
1007.882726174331
 20
445.7782386656304
 30
0.0
  0
VERTEX
  5
146C
  8
0
  6
CONTINUOUS
 10
1005.573325097573
 20
449.7782386656304
 30
0.0
  0
SEQEND
  5
146D
  8
0
  6
CONTINUOUS
  0
CIRCLE
  5
E3B
  8
0
  6
CONTINUOUS
 10
1003.263924020814
 20
445.7782386656304
 30
0.0
 40
3.399999999999999
  0
ARC
  5
E3C
  8
0
  6
CONTINUOUS
 62
     2
 10
1003.263924020814
 20
445.7782386656304
 30
0.0
 40
4.0
 50
57.77418116062497
 51
14.453881156675809
  0
CIRCLE
  5
E3D
  8
0
 10
1003.263924020814
 20
445.7782386656304
 30
0.0
 40
6.5
  0
ARC
  5
E3E
  8
0
 10
1003.263924020814
 20
445.7782386656304
 30
0.0
 40
9.5
 50
149.4775121859295
 51
205.58300197738259
  0
LINE
  5
E3F
  8
CENTER
  6
CENTER
 10
1003.263924020814
 20
453.2782386656304
 30
0.0
 11
1003.263924020814
 21
438.2782386656304
 31
0.0
  0
LINE
  5
E40
  8
0
 10
985.01392402081478
 20
441.0282386656304
 30
0.0
 11
985.01392402081478
 21
452.3949310128466
 31
0.0
  0
LINE
  5
E41
  8
CENTER
  6
CENTER
 10
995.76392402081478
 20
445.7782386656304
 30
0.0
 11
1010.763924020814
 21
445.7782386656304
 31
0.0
  0
ARC
  5
E42
  8
0
 10
986.51392402081467
 20
441.0282386656304
 30
0.0
 40
1.5
 50
180.0
 51
270.0
  0
ARC
  5
E43
  8
0
 10
993.34235660432273
 20
441.0282386656304
 30
0.0
 40
1.5
 50
270.0
 51
25.583001977414259
  0
ARC
  5
E44
  8
0
 10
1003.013924020814
 20
446.0282386656304
 30
0.0
 40
9.0
 50
270.0
 51
0.0
  0
ARC
  5
E45
  8
0
 10
1003.013924020814
 20
446.0282386656304
 30
0.0
 40
9.5
 50
270.0
 51
0.0
  0
LINE
  5
E46
  8
0
 10
1008.013924020814
 20
464.02823866563028
 30
0.0
 11
996.64723167359875
 21
464.02823866563028
 31
0.0
  0
ARC
  5
E47
  8
0
 10
1003.263924020814
 20
445.7782386656304
 30
0.0
 40
9.5
 50
64.416998022605981
 51
120.5224878140703
  0
ARC
  5
E48
  8
0
 10
994.1731053359008
 20
458.75814464707042
 30
0.0
 40
1.5
 50
141.44474033976871
 51
225.00000000000151
  0
ARC
  5
E49
  8
0
 10
990.28401803937493
 20
454.86905735054449
 30
0.0
 40
1.5
 50
45.000000000001521
 51
128.55525966022961
  0
ARC
  5
E4A
  8
0
 10
986.51392402081467
 20
452.3949310128466
 30
0.0
 40
1.5
 50
117.9945617322504
 51
180.0
  0
ARC
  5
E4B
  8
0
 10
997.67728250338166
 20
455.25396747958928
 30
0.0
 40
1.5
 50
225.00000000000151
 51
300.52248781406757
  0
ARC
  5
E4C
  8
0
 10
993.78819520685579
 20
451.36488018306341
 30
0.0
 40
1.5
 50
329.47751218593049
 51
45.000000000001521
  0
LINE
  5
E4D
  8
0
 10
991.34467821115447
 20
455.92971752232438
 30
0.0
 11
994.84885537863579
 21
452.42554035484329
 31
0.0
  0
LINE
  5
E4E
  8
0
 10
993.1124451641208
 20
457.69748447529059
 30
0.0
 11
996.61662233160212
 21
454.1933073078095
 31
0.0
  0
ARC
  5
E4F
  8
0
 10
996.64723167359875
 20
462.52823866563028
 30
0.0
 40
1.5
 50
90.0
 51
152.0054382677456
  0
ARC
  5
E50
  8
0
 10
1008.013924020814
 20
455.69980608212251
 30
0.0
 40
1.5
 50
244.4169980225731
 51
0.0
  0
ARC
  5
E51
  8
0
 10
1008.013924020814
 20
462.52823866563028
 30
0.0
 40
1.5
 50
0.0
 51
90.0
  0
LINE
  5
E52
  8
CENTER
  6
CENTER
 10
1040.0139240208141
 20
434.24805730284783
 30
0.0
 11
1040.0139240208141
 21
448.24805730284783
 31
0.0
  0
LINE
  5
E53
  8
0
 10
1046.0139240208141
 20
427.5282386656304
 30
0.0
 11
1046.0139240208141
 21
436.5282386656304
 31
0.0
  0
LINE
  5
E54
  8
0
  6
CONTINUOUS
 10
1045.0139240208141
 20
426.5282386656304
 30
0.0
 11
1046.0139240208141
 21
427.5282386656304
 31
0.0
  0
SOLID
  5
E55
  8
DIM
  6
CONTINUOUS
 10
1055.0139240208141
 20
423.5282386656304
 30
0.0
 11
1056.013924020815
 21
423.5282386656304
 31
0.0
 12
1055.513924020815
 22
426.5282386656304
 32
0.0
 13
1055.513924020815
 23
426.5282386656304
 33
0.0
  0
TEXT
  5
E56
  8
DIM
  6
CONTINUOUS
 10
1054.013924020815
 20
429.37747759078701
 30
0.0
 40
3.0
  1
10
 50
90.0
  7
ROMANSS
 72
     1
 11
1052.513924020815
 21
431.52033473364418
 31
0.0
 73
     2
  0
LINE
  5
E57
  8
DIM
  6
CONTINUOUS
 10
1048.513924020815
 20
436.52823866563028
 30
0.0
 11
1056.513924020815
 21
436.52823866563028
 31
0.0
  0
SOLID
  5
E58
  8
DIM
  6
CONTINUOUS
 10
1055.0139240208141
 20
439.5282386656304
 30
0.0
 11
1056.013924020815
 21
439.5282386656304
 31
0.0
 12
1055.513924020815
 22
436.52823866563028
 32
0.0
 13
1055.513924020815
 23
436.52823866563028
 33
0.0
  0
LINE
  5
E59
  8
0
  6
CONTINUOUS
 10
937.51392402081467
 20
511.52823866563051
 30
0.0
 11
1047.513924020815
 21
511.52823866563051
 31
0.0
  0
LINE
  5
E5A
  8
0
  6
CONTINUOUS
 10
965.01392402081467
 20
521.52823866563062
 30
0.0
 11
1045.0139240208141
 21
521.52823866563062
 31
0.0
  0
LINE
  5
E5B
  8
0
  6
CONTINUOUS
 10
964.01392402081478
 20
520.52823866563062
 30
0.0
 11
1046.0139240208141
 21
520.52823866563062
 31
0.0
  0
LINE
  5
E5C
  8
0
 10
977.51392402081467
 20
508.5282386656304
 30
0.0
 11
993.34235660432273
 21
508.5282386656304
 31
0.0
  0
LINE
  5
E5D
  8
0
 10
947.01392402081478
 20
511.0282386656304
 30
0.0
 11
1003.013924020814
 21
511.0282386656304
 31
0.0
  0
LINE
  5
E5E
  8
CENTER
  6
CENTER
 10
934.51392402081478
 20
474.02823866563051
 30
0.0
 11
1050.5139240208141
 21
474.0282386656304
 31
0.0
  0
LINE
  5
E5F
  8
DIM
  6
CONTINUOUS
 10
767.21844595958862
 20
652.22313833922499
 30
0.0
 11
767.21844595958862
 21
716.22313833922487
 31
0.0
  0
LINE
  5
E60
  8
0
 10
717.75833494938934
 20
726.7231383392251
 30
0.0
 11
717.75833494938934
 21
616.72313833922487
 31
0.0
  0
LINE
  5
E61
  8
0
 10
793.75833494938911
 20
691.72313833922522
 30
0.0
 11
793.75833494938934
 21
616.72313833922522
 31
0.0
  0
LINE
  5
E62
  8
0
 10
830.75833494938922
 20
675.72313833922499
 30
0.0
 11
830.75833494938922
 21
632.72313833922487
 31
0.0
  0
LINE
  5
E63
  8
0
 10
825.75833494938911
 20
691.22313833922522
 30
0.0
 11
825.75833494938934
 21
617.22313833922522
 31
0.0
  0
LINE
  5
E64
  8
0
 10
793.75833494938911
 20
689.2231383392251
 30
0.0
 11
793.75833494938911
 21
619.22313833922522
 31
0.0
  0
LINE
  5
E65
  8
DIM
  6
CONTINUOUS
 10
715.75833494938934
 20
649.22313833922487
 30
0.0
 11
768.5353890446122
 21
649.22313833922487
 31
0.0
  0
LINE
  5
E66
  8
0
 10
717.75833494938934
 20
673.01324779779861
 30
0.0
 11
793.75833494938911
 21
673.01324779779861
 31
0.0
  0
LINE
  5
E67
  8
0
 10
717.75833494938934
 20
635.43302888065182
 30
0.0
 11
793.75833494938911
 21
635.43302888065182
 31
0.0
  0
LINE
  5
E68
  8
0
 10
717.75833494938934
 20
619.22313833922522
 30
0.0
 11
793.75833494938911
 21
619.22313833922522
 31
0.0
  0
LINE
  5
E69
  8
0
 10
717.75833494938934
 20
492.81834812420391
 30
0.0
 11
793.75833494938911
 21
492.81834812420391
 31
0.0
  0
LINE
  5
E6A
  8
0
 10
717.75833494938934
 20
509.02823866563051
 30
0.0
 11
793.75833494938911
 21
509.02823866563051
 31
0.0
  0
LINE
  5
E6B
  8
0
 10
684.758334949389
 20
563.52823866563062
 30
0.0
 11
684.75833494938922
 21
522.52823866563062
 31
0.0
  0
LINE
  5
E6C
  8
0
 10
713.75833494938934
 20
520.52823866563062
 30
0.0
 11
713.75833494938934
 21
511.52823866563051
 31
0.0
  0
LINE
  5
E6D
  8
CENTER
  6
CENTER
 10
707.75833494938934
 20
513.80842002841314
 30
0.0
 11
707.75833494938934
 21
495.79467065675362
 31
0.0
  0
LINE
  5
E6E
  8
0
 10
687.75833494938922
 20
522.52823866563062
 30
0.0
 11
687.75833494938922
 21
521.52823866563062
 31
0.0
  0
LINE
  5
E6F
  8
0
  6
CONTINUOUS
 10
712.75833494938934
 20
521.52823866563062
 30
0.0
 11
713.75833494938934
 21
520.52823866563062
 31
0.0
  0
LINE
  5
E70
  8
CENTER
  6
CENTER
 10
704.93196701469094
 20
705.72313833922487
 30
0.0
 11
729.52677542024105
 21
705.72313833922487
 31
0.0
  0
LINE
  5
E71
  8
DIM
  6
CONTINUOUS
 10
684.758334949389
 20
564.52823866563051
 30
0.0
 11
684.758334949389
 21
581.52823866563051
 31
0.0
  0
SOLID
  5
E72
  8
DIM
  6
CONTINUOUS
 10
681.75833494938911
 20
573.02823866563051
 30
0.0
 11
681.75833494938911
 21
572.02823866563062
 31
0.0
 12
684.758334949389
 22
572.52823866563062
 32
0.0
 13
684.758334949389
 23
572.52823866563062
 33
0.0
  0
LINE
  5
E73
  8
DIM
  6
CONTINUOUS
 10
684.758334949389
 20
564.52823866563051
 30
0.0
 11
684.758334949389
 21
573.52823866563062
 31
0.0
  0
LINE
  5
E74
  8
0
  6
CONTINUOUS
 10
683.75833494938911
 20
564.52823866563051
 30
0.0
 11
684.758334949389
 21
563.52823866563062
 31
0.0
  0
SOLID
  5
E75
  8
DIM
  6
CONTINUOUS
 10
681.75833494938911
 20
581.02823866563062
 30
0.0
 11
681.75833494938911
 21
580.02823866563062
 31
0.0
 12
684.758334949389
 22
580.52823866563062
 32
0.0
 13
684.758334949389
 23
580.52823866563062
 33
0.0
  0
ARC
  5
E76
  8
0
  6
CONTINUOUS
 10
732.75833373342005
 20
705.71709854846802
 30
0.0
 40
14.999999999999989
 50
160.50430776694631
 51
179.97692969770159
  0
ARC
  5
E77
  8
0
  6
CONTINUOUS
 10
707.7583361653584
 20
705.71709854852327
 30
0.0
 40
14.999999999999989
 50
0.023070302298829
 51
19.495692233054051
  0
LINE
  5
E78
  8
0
  6
CONTINUOUS
 10
724.25833494938922
 20
710.72313833937824
 30
0.0
 11
725.75833494938911
 21
709.22313833937824
 31
0.0
  0
LINE
  5
E79
  8
0
  6
CONTINUOUS
 10
724.25833494938922
 20
710.72313833937824
 30
0.0
 11
724.25833494938922
 21
700.72313833937812
 31
0.0
  0
LINE
  5
E7A
  8
0
  6
CONTINUOUS
 10
722.75833494938922
 20
713.97313833937824
 30
0.0
 11
722.75833494938922
 21
697.47313833937801
 31
0.0
  0
LINE
  5
E7B
  8
0
  6
CONTINUOUS
 10
724.25833494938922
 20
700.72313833937824
 30
0.0
 11
725.75833494938911
 21
702.22313833937824
 31
0.0
  0
ARC
  5
E7C
  8
0
  6
CONTINUOUS
 10
732.75833373342005
 20
705.72917813017796
 30
0.0
 40
14.999999999999989
 50
180.0230703022992
 51
199.4956922330544
  0
ARC
  5
E7D
  8
0
  6
CONTINUOUS
 10
707.7583361653584
 20
705.72917813023321
 30
0.0
 40
14.999999999999989
 50
340.50430776694589
 51
359.97692969770111
  0
LINE
  5
E7E
  8
0
  6
CONTINUOUS
 10
718.61833494937025
 20
700.72313833937835
 30
0.0
 11
721.89833494938864
 21
700.72313833937824
 31
0.0
  0
LINE
  5
E7F
  8
0
  6
CONTINUOUS
 10
718.65325411794856
 20
695.92313833937885
 30
0.0
 11
721.86341578079771
 21
695.92313833937885
 31
0.0
  0
LINE
  5
E80
  8
0
  6
CONTINUOUS
 10
718.65325411798074
 20
695.9231383393236
 30
0.0
 11
717.75833494938922
 21
697.47313833932276
 31
0.0
  0
ARC
  5
E81
  8
0
  6
CONTINUOUS
 10
721.28011303277924
 20
698.41667912582545
 30
0.0
 40
3.5220472269320542
 50
139.090720066529
 51
209.20514415783589
  0
LINE
  5
E82
  8
0
  6
CONTINUOUS
 10
722.75833494938922
 20
700.72313833937824
 30
0.0
 11
724.25833494938922
 21
700.72313833937824
 31
0.0
  0
ARC
  5
E83
  8
0
  6
CONTINUOUS
 10
719.23655686599921
 20
698.41667912588071
 30
0.0
 40
3.5220472269320542
 50
330.79485584216218
 51
40.909279933470948
  0
LINE
  5
E84
  8
0
  6
CONTINUOUS
 10
721.86341578079771
 20
695.92313833937885
 30
0.0
 11
722.75833494938922
 21
697.47313833937824
 31
0.0
  0
LINE
  5
E85
  8
0
  6
CONTINUOUS
 62
     2
 10
722.75833494938922
 20
701.72313833937824
 30
0.0
 11
725.25833494938922
 21
701.72313833937824
 31
0.0
  0
LINE
  5
E86
  8
0
  6
CONTINUOUS
 10
725.75833494938911
 20
709.22313833937824
 30
0.0
 11
725.75833494938911
 21
702.22313833937812
 31
0.0
  0
LINE
  5
E87
  8
0
  6
CONTINUOUS
 10
718.65325411801268
 20
715.52313833937751
 30
0.0
 11
721.86341578079771
 21
715.52313833937751
 31
0.0
  0
LINE
  5
E88
  8
0
  6
CONTINUOUS
 10
718.65325411798074
 20
715.52313833932214
 30
0.0
 11
717.75833494938922
 21
713.97313833932276
 31
0.0
  0
LINE
  5
E89
  8
0
  6
CONTINUOUS
 10
721.86341578079771
 20
715.52313833937751
 30
0.0
 11
722.75833494938922
 21
713.97313833937824
 31
0.0
  0
LINE
  5
E8A
  8
0
  6
CONTINUOUS
 10
718.61833494940925
 20
710.72313833937835
 30
0.0
 11
721.89833494938864
 21
710.72313833937824
 31
0.0
  0
LINE
  5
E8B
  8
0
  6
CONTINUOUS
 10
722.75833494938922
 20
710.72313833937824
 30
0.0
 11
724.25833494938922
 21
710.72313833937824
 31
0.0
  0
LINE
  5
E8C
  8
0
  6
CONTINUOUS
 62
     2
 10
722.75833494938922
 20
709.72313833937824
 30
0.0
 11
725.25833494938922
 21
709.72313833937824
 31
0.0
  0
ARC
  5
E8D
  8
0
  6
CONTINUOUS
 10
721.28011303277924
 20
713.02959755282029
 30
0.0
 40
3.5220472269320542
 50
150.79485584216411
 51
220.90927993347091
  0
ARC
  5
E8E
  8
0
  6
CONTINUOUS
 10
719.23655686599921
 20
713.02959755287554
 30
0.0
 40
3.5220472269320542
 50
319.090720066529
 51
29.20514415783769
  0
LINE
  5
E8F
  8
CENTER
  6
CENTER
 10
700.75833494938934
 20
649.22313833922487
 30
0.0
 11
714.75833494938934
 21
649.22313833922487
 31
0.0
  0
LINE
  5
E90
  8
CENTER
  6
CENTER
 10
707.75833494938934
 20
656.22313833922499
 30
0.0
 11
707.75833494938934
 21
642.22313833922499
 31
0.0
  0
CIRCLE
  5
E91
  8
0
  6
CONTINUOUS
 10
707.75833494938934
 20
649.22313833922487
 30
0.0
 40
3.399999999999999
  0
ARC
  5
E92
  8
0
  6
CONTINUOUS
 62
     2
 10
707.75833494938934
 20
649.22313833922487
 30
0.0
 40
4.0
 50
65.677517025119968
 51
24.771420425728412
  0
LINE
  5
E93
  8
CENTER
  6
CENTER
 10
692.20377143201915
 20
664.77770185659506
 30
0.0
 11
700.68905280625779
 21
656.29242048235642
 31
0.0
  0
CIRCLE
  5
E94
  8
0
  6
CONTINUOUS
 10
696.44641211913859
 20
660.53506116947574
 30
0.0
 40
2.5
  0
ARC
  5
E95
  8
0
  6
CONTINUOUS
 62
     2
 10
696.44641211913859
 20
660.53506116947574
 30
0.0
 40
3.0
 50
210.845012326004
 51
153.036401108983
  0
LINE
  5
E96
  8
DIM
  6
CONTINUOUS
 10
815.36736076582372
 20
489.90392334682838
 30
0.0
 11
837.00072539877397
 21
525.36733572185153
 31
0.0
  0
CIRCLE
  5
E97
  8
0
 10
809.75833494938934
 20
481.02823866563062
 30
0.0
 40
6.5
  0
CIRCLE
  5
E98
  8
0
 10
809.75833494938934
 20
481.02823866563062
 30
0.0
 40
7.5
  0
ARC
  5
E99
  8
0
 62
     2
 10
809.75833494938934
 20
481.02823866563062
 30
0.0
 40
8.25
 50
257.92480383695369
 51
198.6623931654444
  0
LINE
  5
E9A
  8
0
 10
793.75833494938934
 20
511.52823866563051
 30
0.0
 11
825.75833494938934
 21
511.02823866563051
 31
0.0
  0
LINE
  5
E9B
  8
CENTER
  6
CENTER
 10
797.25833494938934
 20
481.02823866563062
 30
0.0
 11
822.25833494938934
 21
481.02823866563062
 31
0.0
  0
CIRCLE
  5
E9C
  8
0
 10
809.75833494938934
 20
481.02823866563062
 30
0.0
 40
8.4999999999999574
  0
SOLID
  5
E9D
  8
DIM
  6
CONTINUOUS
 10
838.25833494938934
 20
493.52823866563062
 30
0.0
 11
839.25833494938934
 21
493.52823866563062
 31
0.0
 12
838.75833494938922
 22
496.52823866563051
 32
0.0
 13
838.75833494938922
 23
496.52823866563051
 33
0.0
  0
SOLID
  5
E9E
  8
DIM
  6
CONTINUOUS
 10
815.79420891551752
 20
489.64353775371131
 30
0.0
 11
814.94051261612992
 21
490.1643089399455
 31
0.0
 12
813.80504720712133
 22
487.34283444866531
 32
0.0
 13
813.80504720712133
 23
487.34283444866531
 33
0.0
  0
LINE
  5
E9F
  8
0
 10
825.75833494938911
 20
496.52823866563051
 30
0.0
 11
829.75833494938922
 21
496.52823866563051
 31
0.0
  0
LINE
  5
EA0
  8
DIM
  6
CONTINUOUS
 10
831.38282278662439
 20
496.52823866563051
 30
0.0
 11
839.75833494938945
 21
496.52823866563051
 31
0.0
  0
ARC
  5
EA1
  8
0
 10
829.75833494938922
 20
495.52823866563051
 30
0.0
 40
1.0
 50
0.0
 51
90.0
  0
TEXT
  5
EA2
  8
DIM
  6
CONTINUOUS
 10
819.99813364201714
 20
526.86733572185153
 30
0.0
 40
3.0
  1
2-G3/8
  7
ROMANSS
 11
819.99813364201714
 21
528.36733572185153
 31
0.0
 73
     2
  0
LINE
  5
EA3
  8
DIM
  6
CONTINUOUS
 10
819.45891296627087
 20
525.36733572185153
 30
0.0
 11
837.00072539877397
 21
525.36733572185153
 31
0.0
  0
LINE
  5
EA4
  8
DIM
  6
CONTINUOUS
 10
943.25987701174165
 20
508.33502581746029
 30
0.0
 11
929.07598686385381
 21
531.15019840660807
 31
0.0
  0
LINE
  5
EA5
  8
0
 10
964.01392402081478
 20
520.52823866563062
 30
0.0
 11
964.01392402081478
 21
511.52823866563051
 31
0.0
  0
LINE
  5
EA6
  8
CENTER
  6
CENTER
 10
934.45920208904658
 20
481.02823866563062
 30
0.0
 11
957.98728735857264
 21
481.02823866563062
 31
0.0
  0
POLYLINE
  5
EA7
  8
0
  6
CONTINUOUS
 66
     1
 10
0.0
 20
0.0
 30
0.0
 70
     1
  0
VERTEX
  5
146E
  8
0
  6
CONTINUOUS
 10
944.45452294405641
 20
506.2782386656304
 30
0.0
  0
VERTEX
  5
146F
  8
0
  6
CONTINUOUS
 10
942.14512186729769
 20
502.2782386656304
 30
0.0
  0
VERTEX
  5
1470
  8
0
  6
CONTINUOUS
 10
944.45452294405641
 20
498.2782386656304
 30
0.0
  0
VERTEX
  5
1471
  8
0
  6
CONTINUOUS
 10
949.07332509757339
 20
498.2782386656304
 30
0.0
  0
VERTEX
  5
1472
  8
0
  6
CONTINUOUS
 10
951.38272617433165
 20
502.2782386656304
 30
0.0
  0
VERTEX
  5
1473
  8
0
  6
CONTINUOUS
 10
949.07332509757339
 20
506.2782386656304
 30
0.0
  0
SEQEND
  5
1474
  8
0
  6
CONTINUOUS
  0
CIRCLE
  5
EAF
  8
0
  6
CONTINUOUS
 10
946.76392402081478
 20
502.2782386656304
 30
0.0
 40
3.399999999999999
  0
ARC
  5
EB0
  8
0
  6
CONTINUOUS
 62
     2
 10
946.76392402081478
 20
502.2782386656304
 30
0.0
 40
4.0
 50
57.77418116062497
 51
14.453881156675809
  0
CIRCLE
  5
EB1
  8
0
 10
946.76392402081478
 20
502.2782386656304
 30
0.0
 40
6.5
  0
ARC
  5
EB2
  8
0
 10
946.76392402081478
 20
502.2782386656304
 30
0.0
 40
9.5
 50
244.41699802260129
 51
300.52248781407019
  0
LINE
  5
EB3
  8
CENTER
  6
CENTER
 10
939.26392402081467
 20
502.2782386656304
 30
0.0
 11
954.26392402081467
 21
502.2782386656304
 31
0.0
  0
LINE
  5
EB4
  8
0
 10
942.01392402081467
 20
475.0282386656304
 30
0.0
 11
950.19457672883311
 21
475.0282386656304
 31
0.0
  0
LINE
  5
EB5
  8
0
 10
942.01392402081467
 20
473.02823866563051
 30
0.0
 11
950.64180880690697
 21
473.02823866563051
 31
0.0
  0
ARC
  5
EB6
  8
0
 10
942.01392402081467
 20
492.3566712491384
 30
0.0
 40
1.5
 50
64.416998022602257
 51
180.0
  0
LINE
  5
EB7
  8
0
 10
940.51392402081478
 20
492.3566712491384
 30
0.0
 11
940.51392402081478
 21
476.5282386656304
 31
0.0
  0
ARC
  5
EB8
  8
0
 10
942.01392402081467
 20
471.5282386656304
 30
0.0
 40
1.5
 50
90.0
 51
180.0
  0
ARC
  5
EB9
  8
0
 10
942.01392402081467
 20
476.5282386656304
 30
0.0
 40
1.5
 50
180.0
 51
270.0
  0
LINE
  5
EBA
  8
DIM
  6
CONTINUOUS
 10
938.26392402081467
 20
502.2782386656304
 30
0.0
 11
920.07077739787314
 21
502.2782386656304
 31
0.0
  0
SOLID
  5
EBB
  8
DIM
  6
CONTINUOUS
 10
921.01392402081478
 20
499.2782386656304
 30
0.0
 11
922.01392402081478
 21
499.2782386656304
 31
0.0
 12
921.51392402081467
 22
502.2782386656304
 32
0.0
 13
921.51392402081467
 23
502.2782386656304
 33
0.0
  0
LINE
  5
EBC
  8
CENTER
  6
CENTER
 10
946.76392402081478
 20
509.7782386656304
 30
0.0
 11
946.76392402081478
 21
494.7782386656304
 31
0.0
  0
ARC
  5
EBD
  8
0
 10
947.01392402081478
 20
502.0282386656304
 30
0.0
 40
9.0
 50
90.0
 51
180.0
  0
ARC
  5
EBE
  8
0
 10
947.01392402081478
 20
502.0282386656304
 30
0.0
 40
9.5
 50
90.0
 51
180.0
  0
LINE
  5
EBF
  8
0
 10
937.51392402081467
 20
499.0282386656304
 30
0.0
 11
938.01392402081478
 21
499.0282386656304
 31
0.0
  0
SOLID
  5
EC0
  8
DIM
  6
CONTINUOUS
 10
943.68450727703987
 20
508.59901282053579
 30
0.0
 11
942.83524674644354
 21
508.07103881438479
 31
0.0
 12
944.84379903019453
 22
505.78724422567097
 32
0.0
 13
944.84379903019453
 23
505.78724422567097
 33
0.0
  0
LINE
  5
EC1
  8
0
 10
956.60238382701777
 20
490.67201190646108
 30
0.0
 11
953.41122571002745
 21
493.86317002345129
 31
0.0
  0
LINE
  5
EC2
  8
0
 10
958.68316983047487
 20
492.12675980893653
 30
0.0
 11
955.17899266299401
 21
495.63093697641762
 31
0.0
  0
ARC
  5
EC3
  8
0
 10
950.19457672883311
 20
477.0282386656304
 30
0.0
 40
2.0
 50
270.0
 51
353.10789742065339
  0
ARC
  5
EC4
  8
0
 10
950.64180880690697
 20
471.5282386656304
 30
0.0
 40
1.5
 50
5.8567019099190381
 51
90.0
  0
ARC
  5
EC5
  8
0
 10
955.18817026464467
 20
489.25779834408797
 30
0.0
 40
2.0
 50
322.46959231641563
 51
45.0
  0
ARC
  5
EC6
  8
0
 10
959.74383000225475
 20
493.1874199807163
 30
0.0
 40
1.5
 50
225.00000000000151
 51
308.55525966022958
  0
LINE
  5
EC7
  8
0
 10
972.51392402081478
 20
508.5282386656304
 30
0.0
 11
956.68549143730695
 21
508.5282386656304
 31
0.0
  0
LINE
  5
EC8
  8
0
 10
965.01392402081467
 20
507.0282386656304
 30
0.0
 11
965.01392402081467
 21
495.6615463184142
 31
0.0
  0
ARC
  5
EC9
  8
0
 10
946.76392402081478
 20
502.2782386656304
 30
0.0
 40
9.5
 50
329.4775121859301
 51
25.583001977393081
  0
ARC
  5
ECA
  8
0
 10
956.23965283477378
 20
496.6915971481975
 30
0.0
 40
1.5
 50
149.47751218593049
 51
225.00000000000151
  0
ARC
  5
ECB
  8
0
 10
952.35056553824768
 20
492.80250985167152
 30
0.0
 40
1.5
 50
44.999999999995389
 51
120.5224878140676
  0
ARC
  5
ECC
  8
0
 10
963.51392402081467
 20
495.6615463184142
 30
0.0
 40
1.5
 50
297.99456173225042
 51
0.0
  0
ARC
  5
ECD
  8
0
 10
956.68549143730695
 20
507.0282386656304
 30
0.0
 40
1.5
 50
90.0
 51
205.58300197742781
  0
ARC
  5
ECE
  8
0
 10
963.51392402081467
 20
507.0282386656304
 30
0.0
 40
1.5
 50
0.0
 51
90.0
  0
LINE
  5
ECF
  8
CENTER
  6
CENTER
 10
970.01392402081478
 20
513.80842002841314
 30
0.0
 11
970.01392402081478
 21
499.80842002841308
 31
0.0
  0
LINE
  5
ED0
  8
0
 10
974.01392402081467
 20
507.0282386656304
 30
0.0
 11
974.01392402081467
 21
498.40035387953822
 31
0.0
  0
LINE
  5
ED1
  8
0
 10
976.01392402081467
 20
507.0282386656304
 30
0.0
 11
976.01392402081467
 21
498.40035387953822
 31
0.0
  0
ARC
  5
ED2
  8
0
 10
972.51392402081478
 20
498.40035387953822
 30
0.0
 40
1.5
 50
275.8567019099213
 51
0.0
  0
ARC
  5
ED3
  8
0
 10
977.51392402081467
 20
498.40035387953822
 30
0.0
 40
1.5
 50
180.0
 51
264.14329809007847
  0
ARC
  5
ED4
  8
0
 10
972.51392402081478
 20
507.0282386656304
 30
0.0
 40
1.5
 50
0.0
 51
90.0
  0
ARC
  5
ED5
  8
0
 10
977.51392402081467
 20
507.0282386656304
 30
0.0
 40
1.5
 50
90.0
 51
180.0
  0
TEXT
  5
ED6
  8
DIM
  6
CONTINUOUS
 10
927.53831998131386
 20
532.65019840660818
 30
0.0
 40
3.0
  1
2x4-M8x15L
  7
ROMANSS
 72
     2
 11
954.96689140988531
 21
534.15019840660818
 31
0.0
 73
     2
  0
LINE
  5
ED7
  8
DIM
  6
CONTINUOUS
 10
955.11743975881132
 20
531.15019840660807
 30
0.0
 11
929.07598686385381
 21
531.15019840660807
 31
0.0
  0
LINE
  5
ED8
  8
0
  6
CONTINUOUS
 10
965.01392402081467
 20
521.52823866563062
 30
0.0
 11
964.01392402081478
 21
520.52823866563062
 31
0.0
  0
LINE
  5
ED9
  8
0
 10
793.75833494938934
 20
616.72313833922522
 30
0.0
 11
825.75833494938934
 21
617.22313833922522
 31
0.0
  0
SOLID
  5
EDA
  8
DIM
  6
CONTINUOUS
 10
766.71844595958862
 20
652.22313833922499
 30
0.0
 11
767.71844595958862
 21
652.22313833922499
 31
0.0
 12
767.21844595958862
 22
649.22313833922487
 32
0.0
 13
767.21844595958862
 23
649.22313833922487
 33
0.0
  0
LINE
  5
EDB
  8
0
 10
825.75833494938934
 20
631.72313833922487
 30
0.0
 11
829.75833494938922
 21
631.72313833922487
 31
0.0
  0
ARC
  5
EDC
  8
0
 10
829.75833494938922
 20
632.72313833922487
 30
0.0
 40
1.0
 50
270.0
 51
0.0
  0
LINE
  5
EDD
  8
DIM
  6
CONTINUOUS
 10
715.75833494938934
 20
719.22313833922487
 30
0.0
 11
768.5353890446122
 21
719.22313833922487
 31
0.0
  0
LINE
  5
EDE
  8
0
 10
717.75833494938934
 20
689.22313833922499
 30
0.0
 11
793.75833494938911
 21
689.22313833922499
 31
0.0
  0
LINE
  5
EDF
  8
DIM
  6
CONTINUOUS
 10
741.10507172053599
 20
707.7128183510315
 30
0.0
 11
760.48002143104259
 21
707.7128183510315
 31
0.0
  0
TEXT
  5
EE0
  8
DIM
  6
CONTINUOUS
 10
743.87503124675413
 20
709.2128183510315
 30
0.0
 40
3.0
  1
M8x15L
  7
ROMANSS
 11
743.87503124675413
 21
710.71281835103139
 31
0.0
 73
     2
  0
TEXT
  5
EE1
  8
DIM
  6
CONTINUOUS
 10
725.71552780064485
 20
736.76760250710765
 30
0.0
 40
3.0
  1
2x4-M8x15L
  7
ROMANSS
 11
725.71552780064485
 21
738.26760250710765
 31
0.0
 73
     2
  0
LINE
  5
EE2
  8
DIM
  6
CONTINUOUS
 10
725.62552780064493
 20
735.26760250710765
 30
0.0
 11
750.34052780064485
 21
735.26760250710765
 31
0.0
  0
CIRCLE
  5
EE3
  8
0
  6
CONTINUOUS
 10
707.75833494938934
 20
719.22313833922487
 30
0.0
 40
3.399999999999999
  0
ARC
  5
EE4
  8
0
  6
CONTINUOUS
 62
     2
 10
707.75833494938934
 20
719.22313833922487
 30
0.0
 40
4.0
 50
155.67751702511779
 51
114.77142042572839
  0
LINE
  5
EE5
  8
CENTER
  6
CENTER
 10
707.75833494938934
 20
726.22313833922499
 30
0.0
 11
707.75833494938934
 21
712.22313833922487
 31
0.0
  0
LINE
  5
EE6
  8
CENTER
  6
CENTER
 10
700.75833494938934
 20
719.22313833922487
 30
0.0
 11
714.75833494938934
 21
719.22313833922487
 31
0.0
  0
LINE
  5
EE7
  8
DIM
  6
CONTINUOUS
 10
672.75833494938945
 20
740.02601621201438
 30
0.0
 11
672.75833494938934
 21
752.91854954445671
 31
0.0
  0
SOLID
  5
EE8
  8
DIM
  6
CONTINUOUS
 10
669.77015054775245
 20
751.35219807953865
 30
0.0
 11
669.74799247273245
 21
752.3519525592543
 31
0.0
 12
672.75833494938934
 22
751.91854954445671
 32
0.0
 13
672.75833494938934
 23
751.91854954445671
 33
0.0
  0
LINE
  5
EE9
  8
DIM
  6
CONTINUOUS
 10
712.7793036904643
 20
724.07596143836065
 30
0.0
 11
722.62552780064493
 21
735.26760250710765
 31
0.0
  0
LINE
  5
EEA
  8
DIM
  6
CONTINUOUS
 10
707.75833494938934
 20
727.22313833922499
 30
0.0
 11
707.75833494938934
 21
735.72313833922522
 31
0.0
  0
SOLID
  5
EEB
  8
DIM
  6
CONTINUOUS
 10
713.15470070384072
 20
723.74569324075765
 30
0.0
 11
712.40390667708789
 21
724.40622963596377
 31
0.0
 12
710.79769450484525
 22
721.82357935810205
 32
0.0
 13
710.79769450484525
 23
721.82357935810205
 33
0.0
  0
SOLID
  5
EEC
  8
DIM
  6
CONTINUOUS
 10
704.75833494938934
 20
735.2231383392251
 30
0.0
 11
704.75833494938934
 21
734.22313833922522
 31
0.0
 12
707.75833494938934
 22
734.72313833922522
 32
0.0
 13
707.75833494938934
 23
734.72313833922522
 33
0.0
  0
LINE
  5
EED
  8
DIM
  6
CONTINUOUS
 10
722.62552780064493
 20
735.26760250710765
 30
0.0
 11
725.62552780064493
 21
735.26760250710765
 31
0.0
  0
LINE
  5
EEE
  8
0
 10
793.75833494938934
 20
691.72313833922522
 30
0.0
 11
825.75833494938934
 21
691.22313833922522
 31
0.0
  0
LINE
  5
EEF
  8
0
 10
825.75833494938911
 20
676.72313833922499
 30
0.0
 11
829.75833494938922
 21
676.72313833922499
 31
0.0
  0
TEXT
  5
EF0
  8
DIM
  6
CONTINUOUS
 10
765.71844595958862
 20
691.64112803113505
 30
0.0
 40
3.0
  1
70
 50
90.0
  7
ROMANSS
 72
     1
 11
764.21844595958862
 21
694.0696994597065
 31
0.0
 73
     2
  0
ARC
  5
EF1
  8
0
 10
829.75833494938922
 20
675.72313833922499
 30
0.0
 40
1.0
 50
0.0
 51
90.0
  0
SOLID
  5
EF2
  8
DIM
  6
CONTINUOUS
 10
766.71844595958862
 20
716.22313833922487
 30
0.0
 11
767.71844595958862
 21
716.22313833922487
 31
0.0
 12
767.21844595958862
 22
719.22313833922487
 32
0.0
 13
767.21844595958862
 23
719.22313833922487
 33
0.0
  0
SOLID
  5
EF3
  8
DIM
  6
CONTINUOUS
 10
1063.013924020815
 20
561.52823866563062
 30
0.0
 11
1064.013924020815
 21
561.52823866563062
 31
0.0
 12
1063.513924020815
 22
564.52823866563051
 32
0.0
 13
1063.513924020815
 23
564.52823866563051
 33
0.0
  0
LINE
  5
EF4
  8
0
 10
993.01392402081467
 20
563.52823866563062
 30
0.0
 11
993.01392402081467
 21
522.52823866563062
 31
0.0
  0
LINE
  5
EF5
  8
0
 10
1017.013924020814
 20
563.52823866563062
 30
0.0
 11
1017.013924020814
 21
522.52823866563062
 31
0.0
  0
LINE
  5
EF6
  8
DIM
  6
CONTINUOUS
 10
1046.0139240208141
 20
521.52823866563062
 30
0.0
 11
1056.513924020815
 21
521.52823866563062
 31
0.0
  0
LINE
  5
EF7
  8
0
 10
1046.0139240208141
 20
520.52823866563062
 30
0.0
 11
1046.0139240208141
 21
511.52823866563051
 31
0.0
  0
ARC
  5
EF8
  8
0
 10
1008.013924020814
 20
492.3566712491384
 30
0.0
 40
1.5
 50
0.0
 51
115.5830019774171
  0
LINE
  5
EF9
  8
0
 10
993.11244516412103
 20
490.35899285597031
 30
0.0
 11
996.61662233160212
 21
493.86317002345129
 31
0.0
  0
LINE
  5
EFA
  8
0
 10
991.34467821115447
 20
492.12675980893653
 30
0.0
 11
994.84885537863579
 21
495.63093697641762
 31
0.0
  0
ARC
  5
EFB
  8
0
 10
1003.263924020814
 20
502.2782386656304
 30
0.0
 40
9.5
 50
239.47751218592961
 51
295.58300197738799
  0
LINE
  5
EFC
  8
0
 10
1008.013924020814
 20
484.0282386656304
 30
0.0
 11
996.64723167359875
 21
484.0282386656304
 31
0.0
  0
ARC
  5
EFD
  8
0
 10
999.3860392347226
 20
476.5282386656304
 30
0.0
 40
1.5
 50
185.856701909919
 51
270.0
  0
ARC
  5
EFE
  8
0
 10
999.3860392347226
 20
471.52823866563028
 30
0.0
 40
1.5
 50
90.0
 51
174.14329809008089
  0
ARC
  5
EFF
  8
0
 10
990.28401803937493
 20
493.1874199807163
 30
0.0
 40
1.5
 50
231.44474033977039
 51
314.99999999999841
  0
ARC
  5
F00
  8
0
 10
996.64723167359875
 20
485.52823866563051
 30
0.0
 40
1.5
 50
207.99456173225431
 51
270.0
  0
ARC
  5
F01
  8
0
 10
994.1731053359008
 20
489.29833268419031
 30
0.0
 40
1.5
 50
134.99999999999841
 51
218.5552596602312
  0
LINE
  5
F02
  8
0
 10
1009.513924020814
 20
476.5282386656304
 30
0.0
 11
1009.513924020814
 21
492.3566712491384
 31
0.0
  0
LINE
  5
F03
  8
0
 10
1008.013924020814
 20
475.0282386656304
 30
0.0
 11
999.3860392347226
 21
475.0282386656304
 31
0.0
  0
LINE
  5
F04
  8
0
 10
1008.013924020814
 20
473.02823866563028
 30
0.0
 11
999.3860392347226
 21
473.02823866563028
 31
0.0
  0
ARC
  5
F05
  8
0
 10
1008.013924020814
 20
476.5282386656304
 30
0.0
 40
1.5
 50
270.0
 51
0.0
  0
ARC
  5
F06
  8
0
 10
1008.013924020814
 20
471.52823866563028
 30
0.0
 40
1.5
 50
0.0
 51
90.0
  0
ARC
  5
F07
  8
0
 10
1008.013924020814
 20
485.52823866563051
 30
0.0
 40
1.5
 50
270.0
 51
0.0
  0
POLYLINE
  5
F08
  8
0
  6
CONTINUOUS
 66
     1
 10
0.0
 20
0.0
 30
0.0
 70
     1
  0
VERTEX
  5
1475
  8
0
  6
CONTINUOUS
 10
1000.954522944056
 20
506.2782386656304
 30
0.0
  0
VERTEX
  5
1476
  8
0
  6
CONTINUOUS
 10
998.64512186729792
 20
502.2782386656304
 30
0.0
  0
VERTEX
  5
1477
  8
0
  6
CONTINUOUS
 10
1000.954522944056
 20
498.2782386656304
 30
0.0
  0
VERTEX
  5
1478
  8
0
  6
CONTINUOUS
 10
1005.573325097573
 20
498.2782386656304
 30
0.0
  0
VERTEX
  5
1479
  8
0
  6
CONTINUOUS
 10
1007.882726174331
 20
502.2782386656304
 30
0.0
  0
VERTEX
  5
147A
  8
0
  6
CONTINUOUS
 10
1005.573325097573
 20
506.2782386656304
 30
0.0
  0
SEQEND
  5
147B
  8
0
  6
CONTINUOUS
  0
CIRCLE
  5
F10
  8
0
 10
1003.263924020814
 20
502.2782386656304
 30
0.0
 40
6.5
  0
LINE
  5
F11
  8
CENTER
  6
CENTER
 10
995.76392402081478
 20
502.2782386656304
 30
0.0
 11
1010.763924020814
 21
502.2782386656304
 31
0.0
  0
ARC
  5
F12
  8
0
 10
1003.263924020814
 20
502.2782386656304
 30
0.0
 40
9.5
 50
154.41699802261181
 51
210.5224878140705
  0
LINE
  5
F13
  8
0
 10
985.01392402081478
 20
507.0282386656304
 30
0.0
 11
985.01392402081478
 21
495.6615463184142
 31
0.0
  0
ARC
  5
F14
  8
0
 10
986.51392402081467
 20
495.6615463184142
 30
0.0
 40
1.5
 50
180.0
 51
242.0054382677495
  0
ARC
  5
F15
  8
0
 10
993.78819520685579
 20
496.6915971481975
 30
0.0
 40
1.5
 50
314.99999999999841
 51
30.522487814069471
  0
ARC
  5
F16
  8
0
 10
997.67728250338189
 20
492.8025098516714
 30
0.0
 40
1.5
 50
59.47751218593239
 51
134.99999999999841
  0
ARC
  5
F17
  8
0
 10
986.51392402081467
 20
507.0282386656304
 30
0.0
 40
1.5
 50
90.0
 51
180.0
  0
ARC
  5
F18
  8
0
 10
993.34235660432273
 20
507.0282386656304
 30
0.0
 40
1.5
 50
334.41699802257989
 51
90.0
  0
CIRCLE
  5
F19
  8
0
  6
CONTINUOUS
 10
1003.263924020814
 20
502.2782386656304
 30
0.0
 40
3.399999999999999
  0
ARC
  5
F1A
  8
0
  6
CONTINUOUS
 62
     2
 10
1003.263924020814
 20
502.2782386656304
 30
0.0
 40
4.0
 50
57.77418116062497
 51
14.453881156675809
  0
LINE
  5
F1B
  8
CENTER
  6
CENTER
 10
1003.263924020814
 20
509.7782386656304
 30
0.0
 11
1003.263924020814
 21
494.7782386656304
 31
0.0
  0
ARC
  5
F1C
  8
0
 10
1003.013924020814
 20
502.0282386656304
 30
0.0
 40
9.0
 50
0.0
 51
90.0
  0
ARC
  5
F1D
  8
0
 10
1003.013924020814
 20
502.0282386656304
 30
0.0
 40
9.5
 50
0.0
 51
90.0
  0
LINE
  5
F1E
  8
CENTER
  6
CENTER
 10
1040.0139240208141
 20
513.80842002841314
 30
0.0
 11
1040.0139240208141
 21
499.80842002841308
 31
0.0
  0
LINE
  5
F1F
  8
0
  6
CONTINUOUS
 10
990.01392402081467
 20
522.52823866563051
 30
0.0
 11
1020.013924020814
 21
522.52823866563062
 31
0.0
  0
LINE
  5
F20
  8
0
 10
990.01392402081467
 20
522.52823866563062
 30
0.0
 11
990.01392402081467
 21
521.52823866563062
 31
0.0
  0
LINE
  5
F21
  8
0
 10
1020.013924020814
 20
522.52823866563062
 30
0.0
 11
1020.013924020814
 21
521.52823866563062
 31
0.0
  0
LINE
  5
F22
  8
0
  6
CONTINUOUS
 10
1045.0139240208141
 20
521.52823866563062
 30
0.0
 11
1046.0139240208141
 21
520.52823866563062
 31
0.0
  0
TEXT
  5
F23
  8
DIM
  6
CONTINUOUS
 10
1054.013924020815
 20
514.10760363901659
 30
0.0
 40
3.0
  1
10
 50
90.0
  7
ROMANSS
 72
     1
 11
1052.513924020815
 21
516.25046078187358
 31
0.0
 73
     2
  0
TEXT
  5
F24
  8
DIM
  6
CONTINUOUS
 10
1062.013924020815
 20
470.82726726169369
 30
0.0
 40
3.0
  1
181
 50
90.0
  7
ROMANSS
 72
     1
 11
1060.513924020815
 21
473.75583869026519
 31
0.0
 73
     2
  0
TEXT
  5
F25
  8
DIM
  6
CONTINUOUS
 10
1054.013924020815
 20
471.45682534854859
 30
0.0
 40
3.0
  1
75
 50
90.0
  7
ROMANSS
 72
     1
 11
1052.513924020815
 21
473.88539677711998
 31
0.0
 73
     2
  0
LINE
  5
F26
  8
DIM
  6
CONTINUOUS
 10
1048.513924020815
 20
511.52823866563051
 30
0.0
 11
1056.513924020815
 21
511.52823866563051
 31
0.0
  0
SOLID
  5
F27
  8
DIM
  6
CONTINUOUS
 10
1055.0139240208141
 20
508.52823866563051
 30
0.0
 11
1056.013924020815
 21
508.52823866563051
 31
0.0
 12
1055.513924020815
 22
511.52823866563051
 32
0.0
 13
1055.513924020815
 23
511.52823866563051
 33
0.0
  0
SOLID
  5
F28
  8
DIM
  6
CONTINUOUS
 10
1055.0139240208141
 20
524.52823866563062
 30
0.0
 11
1056.013924020815
 21
524.52823866563062
 31
0.0
 12
1055.513924020815
 22
521.52823866563062
 32
0.0
 13
1055.513924020815
 23
521.52823866563062
 33
0.0
  0
LINE
  5
F29
  8
DIM
  6
CONTINUOUS
 10
1017.013924020814
 20
564.52823866563051
 30
0.0
 11
1064.513924020815
 21
564.52823866563051
 31
0.0
  0
LINE
  5
F2A
  8
0
  6
CONTINUOUS
 10
994.01392402081478
 20
564.52823866563051
 30
0.0
 11
1016.013924020814
 21
564.52823866563051
 31
0.0
  0
LINE
  5
F2B
  8
0
  6
CONTINUOUS
 10
993.01392402081467
 20
563.52823866563062
 30
0.0
 11
1017.013924020814
 21
563.52823866563062
 31
0.0
  0
LINE
  5
F2C
  8
0
  6
CONTINUOUS
 10
994.01392402081478
 20
564.52823866563051
 30
0.0
 11
993.01392402081467
 21
563.52823866563062
 31
0.0
  0
LINE
  5
F2D
  8
0
  6
CONTINUOUS
 10
1016.013924020814
 20
564.52823866563051
 30
0.0
 11
1017.013924020814
 21
563.52823866563062
 31
0.0
  0
TEXT
  5
F2E
  8
DIM
  6
CONTINUOUS
 10
619.55841005459217
 20
729.53179332800255
 30
0.0
 40
3.0
  1
90%%p5%%d
 50
45.000000000000007
  7
ROMANSS
 72
     1
 11
623.04343633329734
 21
735.13813995026715
 31
0.0
 73
     2
  0
LINE
  5
F31
  8
HIDDEN
  6
HIDDEN
 10
825.75833494938945
 20
621.97313833922522
 30
0.0
 11
807.75833494938945
 21
621.97313833922522
 31
0.0
  0
LINE
  5
F32
  8
HIDDEN
  6
HIDDEN
 10
825.75833494938968
 20
629.97313833922522
 30
0.0
 11
807.75833494938945
 21
629.97313833922522
 31
0.0
  0
LINE
  5
F33
  8
CENTER
  6
CENTER
 10
793.75833494938956
 20
625.97313833922487
 30
0.0
 11
828.75833494938956
 21
625.97313833922487
 31
0.0
  0
LINE
  5
F34
  8
HIDDEN
  6
HIDDEN
 10
819.75833494938945
 20
621.97313833922522
 30
0.0
 11
819.75833494938945
 21
629.97313833922522
 31
0.0
  0
LINE
  5
F35
  8
HIDDEN
  6
HIDDEN
 10
804.75833494938956
 20
629.37313833922497
 30
0.0
 11
802.79534403414482
 21
625.97313833922522
 31
0.0
  0
LINE
  5
F36
  8
HIDDEN
  6
HIDDEN
 10
804.75833494938956
 20
622.57313833922501
 30
0.0
 11
804.75833494938956
 21
629.37313833922497
 31
0.0
  0
LINE
  5
F37
  8
HIDDEN
  6
HIDDEN
 10
807.75833494938945
 20
621.97313833922522
 30
0.0
 11
807.75833494938945
 21
629.97313833922522
 31
0.0
  0
LINE
  5
F38
  8
CENTER
  6
CENTER
 10
809.75833494938945
 20
613.96880765576771
 30
0.0
 11
809.75833494938945
 21
633.74323215953109
 31
0.0
  0
LINE
  5
F39
  8
HIDDEN
  6
HIDDEN
 10
819.75833494938945
 20
622.57313833922501
 30
0.0
 11
804.75833494938956
 21
622.57313833922501
 31
0.0
  0
LINE
  5
F3A
  8
CENTER
  6
CENTER
 10
800.75833494938968
 20
614.19066944843655
 30
0.0
 11
800.75833494938945
 21
633.93564850342216
 31
0.0
  0
LINE
  5
F3B
  8
HIDDEN
  6
HIDDEN
 10
804.75833494938956
 20
622.57313833922501
 30
0.0
 11
802.79534403414482
 21
625.97313833922522
 31
0.0
  0
LINE
  5
F3C
  8
HIDDEN
  6
HIDDEN
 10
819.75833494938945
 20
629.37313833922497
 30
0.0
 11
804.75833494938956
 21
629.37313833922497
 31
0.0
  0
LINE
  5
F3D
  8
HIDDEN
  6
HIDDEN
 10
825.75833494938968
 20
678.47313833922499
 30
0.0
 11
807.75833494938945
 21
678.47313833922499
 31
0.0
  0
LINE
  5
F3E
  8
HIDDEN
  6
HIDDEN
 10
825.75833494938945
 20
686.47313833922499
 30
0.0
 11
807.75833494938945
 21
686.47313833922499
 31
0.0
  0
LINE
  5
F3F
  8
CENTER
  6
CENTER
 10
793.75833494938956
 20
682.47313833922499
 30
0.0
 11
828.75833494938956
 21
682.47313833922499
 31
0.0
  0
LINE
  5
F40
  8
HIDDEN
  6
HIDDEN
 10
819.75833494938945
 20
685.87313833922497
 30
0.0
 11
804.75833494938956
 21
685.87313833922497
 31
0.0
  0
LINE
  5
F41
  8
HIDDEN
  6
HIDDEN
 10
819.75833494938945
 20
679.07313833922512
 30
0.0
 11
804.75833494938956
 21
679.07313833922512
 31
0.0
  0
LINE
  5
F42
  8
HIDDEN
  6
HIDDEN
 10
819.75833494938945
 20
686.47313833922499
 30
0.0
 11
819.75833494938945
 21
678.47313833922499
 31
0.0
  0
LINE
  5
F43
  8
HIDDEN
  6
HIDDEN
 10
804.75833494938956
 20
679.07313833922512
 30
0.0
 11
802.79534403414482
 21
682.47313833922499
 31
0.0
  0
LINE
  5
F44
  8
HIDDEN
  6
HIDDEN
 10
807.75833494938945
 20
686.47313833922499
 30
0.0
 11
807.75833494938945
 21
678.47313833922499
 31
0.0
  0
LINE
  5
F45
  8
HIDDEN
  6
HIDDEN
 10
804.75833494938956
 20
685.87313833922497
 30
0.0
 11
804.75833494938956
 21
679.07313833922512
 31
0.0
  0
LINE
  5
F46
  8
HIDDEN
  6
HIDDEN
 10
804.75833494938956
 20
685.87313833922497
 30
0.0
 11
802.79534403414482
 21
682.47313833922499
 31
0.0
  0
LINE
  5
F47
  8
HIDDEN
  6
HIDDEN
 10
519.75833494938934
 20
441.77823866563068
 30
0.0
 11
537.75833494938934
 21
441.77823866563068
 31
0.0
  0
LINE
  5
F48
  8
HIDDEN
  6
HIDDEN
 10
519.75833494938911
 20
449.77823866563068
 30
0.0
 11
537.75833494938934
 21
449.77823866563068
 31
0.0
  0
LINE
  5
F49
  8
CENTER
  6
CENTER
 10
551.75833494938934
 20
445.77823866563051
 30
0.0
 11
516.75833494938911
 21
445.77823866563051
 31
0.0
  0
LINE
  5
F4A
  8
HIDDEN
  6
HIDDEN
 10
525.75833494938934
 20
441.77823866563068
 30
0.0
 11
525.75833494938934
 21
449.77823866563068
 31
0.0
  0
LINE
  5
F4B
  8
HIDDEN
  6
HIDDEN
 10
540.75833494938934
 20
449.17823866563049
 30
0.0
 11
542.72132586463397
 21
445.77823866563068
 31
0.0
  0
LINE
  5
F4C
  8
HIDDEN
  6
HIDDEN
 10
540.75833494938934
 20
442.37823866563059
 30
0.0
 11
540.75833494938934
 21
449.17823866563049
 31
0.0
  0
LINE
  5
F4D
  8
HIDDEN
  6
HIDDEN
 10
537.75833494938934
 20
441.77823866563068
 30
0.0
 11
537.75833494938934
 21
449.77823866563068
 31
0.0
  0
LINE
  5
F4E
  8
HIDDEN
  6
HIDDEN
 10
525.75833494938934
 20
442.37823866563059
 30
0.0
 11
540.75833494938934
 21
442.37823866563059
 31
0.0
  0
LINE
  5
F4F
  8
HIDDEN
  6
HIDDEN
 10
540.75833494938934
 20
442.37823866563059
 30
0.0
 11
542.72132586463397
 21
445.77823866563068
 31
0.0
  0
LINE
  5
F50
  8
HIDDEN
  6
HIDDEN
 10
525.75833494938934
 20
449.17823866563049
 30
0.0
 11
540.75833494938934
 21
449.17823866563049
 31
0.0
  0
LINE
  5
F51
  8
HIDDEN
  6
HIDDEN
 10
519.75833494938911
 20
498.27823866563051
 30
0.0
 11
537.75833494938934
 21
498.27823866563051
 31
0.0
  0
LINE
  5
F52
  8
HIDDEN
  6
HIDDEN
 10
519.75833494938934
 20
506.27823866563051
 30
0.0
 11
537.75833494938934
 21
506.27823866563051
 31
0.0
  0
LINE
  5
F53
  8
CENTER
  6
CENTER
 10
551.75833494938934
 20
502.27823866563051
 30
0.0
 11
516.75833494938934
 21
502.27823866563051
 31
0.0
  0
LINE
  5
F54
  8
HIDDEN
  6
HIDDEN
 10
525.75833494938934
 20
505.6782386656306
 30
0.0
 11
540.75833494938934
 21
505.6782386656306
 31
0.0
  0
LINE
  5
F55
  8
HIDDEN
  6
HIDDEN
 10
525.75833494938934
 20
498.87823866563059
 30
0.0
 11
540.75833494938934
 21
498.87823866563059
 31
0.0
  0
LINE
  5
F56
  8
HIDDEN
  6
HIDDEN
 10
525.75833494938934
 20
506.27823866563051
 30
0.0
 11
525.75833494938934
 21
498.27823866563051
 31
0.0
  0
LINE
  5
F57
  8
HIDDEN
  6
HIDDEN
 10
540.75833494938934
 20
498.87823866563059
 30
0.0
 11
542.72132586463397
 21
502.27823866563051
 31
0.0
  0
LINE
  5
F58
  8
HIDDEN
  6
HIDDEN
 10
537.75833494938934
 20
506.27823866563051
 30
0.0
 11
537.75833494938934
 21
498.27823866563051
 31
0.0
  0
LINE
  5
F59
  8
HIDDEN
  6
HIDDEN
 10
540.75833494938934
 20
505.6782386656306
 30
0.0
 11
540.75833494938934
 21
498.87823866563059
 31
0.0
  0
LINE
  5
F5A
  8
HIDDEN
  6
HIDDEN
 10
540.75833494938934
 20
505.6782386656306
 30
0.0
 11
542.72132586463397
 21
502.27823866563051
 31
0.0
  0
LINE
  5
F5B
  8
HIDDEN
  6
HIDDEN
 10
825.75833494938945
 20
441.77823866563068
 30
0.0
 11
807.75833494938945
 21
441.77823866563068
 31
0.0
  0
LINE
  5
F5C
  8
HIDDEN
  6
HIDDEN
 10
825.75833494938945
 20
449.77823866563068
 30
0.0
 11
807.75833494938945
 21
449.77823866563068
 31
0.0
  0
LINE
  5
F5D
  8
CENTER
  6
CENTER
 10
793.75833494938956
 20
445.77823866563051
 30
0.0
 11
828.75833494938956
 21
445.77823866563051
 31
0.0
  0
LINE
  5
F5E
  8
HIDDEN
  6
HIDDEN
 10
819.75833494938945
 20
441.77823866563068
 30
0.0
 11
819.75833494938945
 21
449.77823866563068
 31
0.0
  0
LINE
  5
F5F
  8
HIDDEN
  6
HIDDEN
 10
804.75833494938956
 20
449.17823866563049
 30
0.0
 11
802.79534403414482
 21
445.77823866563068
 31
0.0
  0
LINE
  5
F60
  8
HIDDEN
  6
HIDDEN
 10
804.75833494938956
 20
442.37823866563059
 30
0.0
 11
804.75833494938956
 21
449.17823866563049
 31
0.0
  0
LINE
  5
F61
  8
HIDDEN
  6
HIDDEN
 10
807.75833494938945
 20
441.77823866563068
 30
0.0
 11
807.75833494938945
 21
449.77823866563068
 31
0.0
  0
LINE
  5
F62
  8
HIDDEN
  6
HIDDEN
 10
819.75833494938945
 20
442.37823866563059
 30
0.0
 11
804.75833494938956
 21
442.37823866563059
 31
0.0
  0
LINE
  5
F63
  8
HIDDEN
  6
HIDDEN
 10
804.75833494938956
 20
442.37823866563059
 30
0.0
 11
802.79534403414482
 21
445.77823866563068
 31
0.0
  0
LINE
  5
F64
  8
HIDDEN
  6
HIDDEN
 10
819.75833494938945
 20
449.17823866563049
 30
0.0
 11
804.75833494938956
 21
449.17823866563049
 31
0.0
  0
LINE
  5
F65
  8
HIDDEN
  6
HIDDEN
 10
825.75833494938945
 20
498.27823866563051
 30
0.0
 11
807.75833494938945
 21
498.27823866563051
 31
0.0
  0
LINE
  5
F66
  8
HIDDEN
  6
HIDDEN
 10
825.75833494938945
 20
506.27823866563051
 30
0.0
 11
807.75833494938945
 21
506.27823866563051
 31
0.0
  0
LINE
  5
F67
  8
CENTER
  6
CENTER
 10
793.75833494938956
 20
502.27823866563051
 30
0.0
 11
828.75833494938956
 21
502.27823866563051
 31
0.0
  0
LINE
  5
F68
  8
HIDDEN
  6
HIDDEN
 10
819.75833494938945
 20
505.6782386656306
 30
0.0
 11
804.75833494938956
 21
505.6782386656306
 31
0.0
  0
LINE
  5
F69
  8
HIDDEN
  6
HIDDEN
 10
819.75833494938945
 20
498.87823866563059
 30
0.0
 11
804.75833494938956
 21
498.87823866563059
 31
0.0
  0
LINE
  5
F6A
  8
HIDDEN
  6
HIDDEN
 10
819.75833494938945
 20
506.27823866563051
 30
0.0
 11
819.75833494938945
 21
498.27823866563051
 31
0.0
  0
LINE
  5
F6B
  8
HIDDEN
  6
HIDDEN
 10
804.75833494938956
 20
498.87823866563059
 30
0.0
 11
802.79534403414482
 21
502.27823866563051
 31
0.0
  0
LINE
  5
F6C
  8
HIDDEN
  6
HIDDEN
 10
807.75833494938945
 20
506.27823866563051
 30
0.0
 11
807.75833494938945
 21
498.27823866563051
 31
0.0
  0
LINE
  5
F6D
  8
HIDDEN
  6
HIDDEN
 10
804.75833494938956
 20
505.6782386656306
 30
0.0
 11
804.75833494938956
 21
498.87823866563059
 31
0.0
  0
LINE
  5
F6E
  8
HIDDEN
  6
HIDDEN
 10
804.75833494938956
 20
505.6782386656306
 30
0.0
 11
802.79534403414482
 21
502.27823866563051
 31
0.0
  0
LINE
  5
F6F
  8
HIDDEN
  6
HIDDEN
 10
519.75833494938934
 20
237.43244711387251
 30
0.0
 11
537.75833494938934
 21
237.43244711387251
 31
0.0
  0
LINE
  5
F70
  8
HIDDEN
  6
HIDDEN
 10
519.75833494938922
 20
245.43244711387251
 30
0.0
 11
537.75833494938934
 21
245.43244711387251
 31
0.0
  0
LINE
  5
F71
  8
CENTER
  6
CENTER
 10
551.75833494938934
 20
241.4324471138722
 30
0.0
 11
516.75833494938922
 21
241.4324471138722
 31
0.0
  0
LINE
  5
F72
  8
HIDDEN
  6
HIDDEN
 10
525.75833494938934
 20
237.43244711387251
 30
0.0
 11
525.75833494938934
 21
245.43244711387251
 31
0.0
  0
LINE
  5
F73
  8
HIDDEN
  6
HIDDEN
 10
540.75833494938934
 20
244.83244711387229
 30
0.0
 11
542.72132586463397
 21
241.43244711387251
 31
0.0
  0
LINE
  5
F74
  8
HIDDEN
  6
HIDDEN
 10
540.75833494938934
 20
238.03244711387239
 30
0.0
 11
540.75833494938934
 21
244.83244711387229
 31
0.0
  0
LINE
  5
F75
  8
HIDDEN
  6
HIDDEN
 10
537.75833494938934
 20
237.43244711387251
 30
0.0
 11
537.75833494938934
 21
245.43244711387251
 31
0.0
  0
LINE
  5
F76
  8
HIDDEN
  6
HIDDEN
 10
525.75833494938934
 20
238.03244711387239
 30
0.0
 11
540.75833494938934
 21
238.03244711387239
 31
0.0
  0
LINE
  5
F77
  8
HIDDEN
  6
HIDDEN
 10
540.75833494938934
 20
238.03244711387239
 30
0.0
 11
542.72132586463397
 21
241.43244711387251
 31
0.0
  0
LINE
  5
F78
  8
HIDDEN
  6
HIDDEN
 10
525.75833494938934
 20
244.83244711387229
 30
0.0
 11
540.75833494938934
 21
244.83244711387229
 31
0.0
  0
LINE
  5
F79
  8
HIDDEN
  6
HIDDEN
 10
519.75833494938922
 20
293.93244711387217
 30
0.0
 11
537.75833494938934
 21
293.93244711387217
 31
0.0
  0
LINE
  5
F7A
  8
HIDDEN
  6
HIDDEN
 10
519.75833494938934
 20
301.93244711387217
 30
0.0
 11
537.75833494938934
 21
301.93244711387217
 31
0.0
  0
LINE
  5
F7B
  8
CENTER
  6
CENTER
 10
551.75833494938934
 20
297.93244711387217
 30
0.0
 11
516.75833494938934
 21
297.93244711387217
 31
0.0
  0
LINE
  5
F7C
  8
HIDDEN
  6
HIDDEN
 10
525.75833494938934
 20
301.33244711387232
 30
0.0
 11
540.75833494938934
 21
301.33244711387232
 31
0.0
  0
LINE
  5
F7D
  8
HIDDEN
  6
HIDDEN
 10
525.75833494938934
 20
294.53244711387242
 30
0.0
 11
540.75833494938934
 21
294.53244711387242
 31
0.0
  0
LINE
  5
F7E
  8
HIDDEN
  6
HIDDEN
 10
525.75833494938934
 20
301.93244711387217
 30
0.0
 11
525.75833494938934
 21
293.93244711387217
 31
0.0
  0
LINE
  5
F7F
  8
HIDDEN
  6
HIDDEN
 10
540.75833494938934
 20
294.53244711387242
 30
0.0
 11
542.72132586463397
 21
297.93244711387217
 31
0.0
  0
LINE
  5
F80
  8
HIDDEN
  6
HIDDEN
 10
537.75833494938934
 20
301.93244711387217
 30
0.0
 11
537.75833494938934
 21
293.93244711387217
 31
0.0
  0
LINE
  5
F81
  8
HIDDEN
  6
HIDDEN
 10
540.75833494938934
 20
301.33244711387232
 30
0.0
 11
540.75833494938934
 21
294.53244711387242
 31
0.0
  0
LINE
  5
F82
  8
HIDDEN
  6
HIDDEN
 10
540.75833494938934
 20
301.33244711387232
 30
0.0
 11
542.72132586463397
 21
297.93244711387217
 31
0.0
  0
LINE
  5
F83
  8
HIDDEN
  6
HIDDEN
 10
825.75833494938945
 20
237.43244711387251
 30
0.0
 11
807.75833494938945
 21
237.43244711387251
 31
0.0
  0
LINE
  5
F84
  8
HIDDEN
  6
HIDDEN
 10
825.75833494938968
 20
245.43244711387251
 30
0.0
 11
807.75833494938945
 21
245.43244711387251
 31
0.0
  0
LINE
  5
F85
  8
CENTER
  6
CENTER
 10
793.75833494938956
 20
241.4324471138722
 30
0.0
 11
828.75833494938956
 21
241.4324471138722
 31
0.0
  0
LINE
  5
F86
  8
HIDDEN
  6
HIDDEN
 10
819.75833494938945
 20
237.43244711387251
 30
0.0
 11
819.75833494938945
 21
245.43244711387251
 31
0.0
  0
LINE
  5
F87
  8
HIDDEN
  6
HIDDEN
 10
804.75833494938956
 20
244.83244711387229
 30
0.0
 11
802.79534403414482
 21
241.43244711387251
 31
0.0
  0
LINE
  5
F88
  8
HIDDEN
  6
HIDDEN
 10
804.75833494938956
 20
238.03244711387239
 30
0.0
 11
804.75833494938956
 21
244.83244711387229
 31
0.0
  0
LINE
  5
F89
  8
HIDDEN
  6
HIDDEN
 10
807.75833494938945
 20
237.43244711387251
 30
0.0
 11
807.75833494938945
 21
245.43244711387251
 31
0.0
  0
LINE
  5
F8A
  8
HIDDEN
  6
HIDDEN
 10
819.75833494938945
 20
238.03244711387239
 30
0.0
 11
804.75833494938956
 21
238.03244711387239
 31
0.0
  0
LINE
  5
F8B
  8
HIDDEN
  6
HIDDEN
 10
804.75833494938956
 20
238.03244711387239
 30
0.0
 11
802.79534403414482
 21
241.43244711387251
 31
0.0
  0
LINE
  5
F8C
  8
HIDDEN
  6
HIDDEN
 10
819.75833494938945
 20
244.83244711387229
 30
0.0
 11
804.75833494938956
 21
244.83244711387229
 31
0.0
  0
LINE
  5
F8D
  8
HIDDEN
  6
HIDDEN
 10
825.75833494938968
 20
293.93244711387217
 30
0.0
 11
807.75833494938945
 21
293.93244711387217
 31
0.0
  0
LINE
  5
F8E
  8
HIDDEN
  6
HIDDEN
 10
825.75833494938945
 20
301.93244711387217
 30
0.0
 11
807.75833494938945
 21
301.93244711387217
 31
0.0
  0
LINE
  5
F8F
  8
CENTER
  6
CENTER
 10
793.75833494938956
 20
297.93244711387217
 30
0.0
 11
828.75833494938956
 21
297.93244711387217
 31
0.0
  0
LINE
  5
F90
  8
HIDDEN
  6
HIDDEN
 10
819.75833494938945
 20
301.33244711387232
 30
0.0
 11
804.75833494938956
 21
301.33244711387232
 31
0.0
  0
LINE
  5
F91
  8
HIDDEN
  6
HIDDEN
 10
819.75833494938945
 20
294.53244711387242
 30
0.0
 11
804.75833494938956
 21
294.53244711387242
 31
0.0
  0
LINE
  5
F92
  8
HIDDEN
  6
HIDDEN
 10
819.75833494938945
 20
301.93244711387217
 30
0.0
 11
819.75833494938945
 21
293.93244711387217
 31
0.0
  0
LINE
  5
F93
  8
HIDDEN
  6
HIDDEN
 10
804.75833494938956
 20
294.53244711387242
 30
0.0
 11
802.79534403414482
 21
297.93244711387217
 31
0.0
  0
LINE
  5
F94
  8
HIDDEN
  6
HIDDEN
 10
807.75833494938945
 20
301.93244711387217
 30
0.0
 11
807.75833494938945
 21
293.93244711387217
 31
0.0
  0
LINE
  5
F95
  8
HIDDEN
  6
HIDDEN
 10
804.75833494938956
 20
301.33244711387232
 30
0.0
 11
804.75833494938956
 21
294.53244711387242
 31
0.0
  0
LINE
  5
F96
  8
HIDDEN
  6
HIDDEN
 10
804.75833494938956
 20
301.33244711387232
 30
0.0
 11
802.79534403414482
 21
297.93244711387217
 31
0.0
  0
LINE
  5
F97
  8
CENTER
  6
CENTER
 10
535.75833494938945
 20
309.93677779732968
 30
0.0
 11
535.75833494938934
 21
290.16235329356641
 31
0.0
  0
LINE
  5
F98
  8
CENTER
  6
CENTER
 10
544.75833494938922
 20
309.71491600466072
 30
0.0
 11
544.75833494938934
 21
289.96993694967512
 31
0.0
  0
LINE
  5
F99
  8
CENTER
  6
CENTER
 10
809.75833494938945
 20
309.93677779732968
 30
0.0
 11
809.75833494938945
 21
290.16235329356641
 31
0.0
  0
LINE
  5
F9A
  8
CENTER
  6
CENTER
 10
800.75833494938968
 20
309.71491600466072
 30
0.0
 11
800.75833494938945
 21
289.96993694967512
 31
0.0
  0
CIRCLE
  5
F9B
  8
0
  6
CONTINUOUS
 10
672.75833494938934
 20
650.72313833922499
 30
0.0
 40
5.0
  0
CIRCLE
  5
F9C
  8
0
  6
CONTINUOUS
 10
672.75833494938934
 20
650.72313833922499
 30
0.0
 40
4.5381062355658202
  0
POLYLINE
  5
F9D
  8
0
  6
CONTINUOUS
 66
     1
 10
0.0
 20
0.0
 30
0.0
 70
     1
  0
VERTEX
  5
147C
  8
0
  6
CONTINUOUS
 10
671.31495927641515
 20
653.22313833922487
 30
0.0
  0
VERTEX
  5
147D
  8
0
  6
CONTINUOUS
 10
669.8715836034412
 20
650.72313833922499
 30
0.0
  0
VERTEX
  5
147E
  8
0
  6
CONTINUOUS
 10
671.31495927641515
 20
648.22313833922499
 30
0.0
  0
VERTEX
  5
147F
  8
0
  6
CONTINUOUS
 10
674.20171062236341
 20
648.22313833922499
 30
0.0
  0
VERTEX
  5
1480
  8
0
  6
CONTINUOUS
 10
675.64508629533736
 20
650.72313833922499
 30
0.0
  0
VERTEX
  5
1481
  8
0
  6
CONTINUOUS
 10
674.20171062236341
 20
653.22313833922487
 30
0.0
  0
SEQEND
  5
1482
  8
0
  6
CONTINUOUS
  0
CIRCLE
  5
FA5
  8
0
  6
CONTINUOUS
 10
672.75833494938934
 20
717.72313833922499
 30
0.0
 40
5.0
  0
CIRCLE
  5
FA6
  8
0
  6
CONTINUOUS
 10
672.75833494938934
 20
717.72313833922499
 30
0.0
 40
4.5381062355658202
  0
POLYLINE
  5
FA7
  8
0
  6
CONTINUOUS
 66
     1
 10
0.0
 20
0.0
 30
0.0
 70
     1
  0
VERTEX
  5
1483
  8
0
  6
CONTINUOUS
 10
671.31495927641515
 20
720.22313833922487
 30
0.0
  0
VERTEX
  5
1484
  8
0
  6
CONTINUOUS
 10
669.8715836034412
 20
717.72313833922499
 30
0.0
  0
VERTEX
  5
1485
  8
0
  6
CONTINUOUS
 10
671.31495927641515
 20
715.22313833922487
 30
0.0
  0
VERTEX
  5
1486
  8
0
  6
CONTINUOUS
 10
674.20171062236341
 20
715.22313833922487
 30
0.0
  0
VERTEX
  5
1487
  8
0
  6
CONTINUOUS
 10
675.64508629533736
 20
717.72313833922499
 30
0.0
  0
VERTEX
  5
1488
  8
0
  6
CONTINUOUS
 10
674.20171062236341
 20
720.22313833922487
 30
0.0
  0
SEQEND
  5
1489
  8
0
  6
CONTINUOUS
  0
CIRCLE
  5
FAF
  8
0
  6
CONTINUOUS
 10
639.25833494938934
 20
684.22313833922499
 30
0.0
 40
5.0
  0
CIRCLE
  5
FB0
  8
0
  6
CONTINUOUS
 10
639.25833494938934
 20
684.22313833922499
 30
0.0
 40
4.5381062355658202
  0
POLYLINE
  5
FB1
  8
0
  6
CONTINUOUS
 66
     1
 10
0.0
 20
0.0
 30
0.0
 70
     1
  0
VERTEX
  5
148A
  8
0
  6
CONTINUOUS
 10
637.81495927641515
 20
686.72313833922487
 30
0.0
  0
VERTEX
  5
148B
  8
0
  6
CONTINUOUS
 10
636.3715836034412
 20
684.22313833922499
 30
0.0
  0
VERTEX
  5
148C
  8
0
  6
CONTINUOUS
 10
637.81495927641515
 20
681.72313833922487
 30
0.0
  0
VERTEX
  5
148D
  8
0
  6
CONTINUOUS
 10
640.70171062236341
 20
681.72313833922487
 30
0.0
  0
VERTEX
  5
148E
  8
0
  6
CONTINUOUS
 10
642.14508629533736
 20
684.22313833922499
 30
0.0
  0
VERTEX
  5
148F
  8
0
  6
CONTINUOUS
 10
640.70171062236341
 20
686.72313833922487
 30
0.0
  0
SEQEND
  5
1490
  8
0
  6
CONTINUOUS
  0
CIRCLE
  5
FB9
  8
0
  6
CONTINUOUS
 10
706.25833494938934
 20
684.22313833922499
 30
0.0
 40
5.0
  0
CIRCLE
  5
FBA
  8
0
  6
CONTINUOUS
 10
706.25833494938934
 20
684.22313833922499
 30
0.0
 40
4.5381062355658202
  0
POLYLINE
  5
FBB
  8
0
  6
CONTINUOUS
 66
     1
 10
0.0
 20
0.0
 30
0.0
 70
     1
  0
VERTEX
  5
1491
  8
0
  6
CONTINUOUS
 10
704.81495927641515
 20
686.72313833922487
 30
0.0
  0
VERTEX
  5
1492
  8
0
  6
CONTINUOUS
 10
703.3715836034412
 20
684.22313833922499
 30
0.0
  0
VERTEX
  5
1493
  8
0
  6
CONTINUOUS
 10
704.81495927641515
 20
681.72313833922487
 30
0.0
  0
VERTEX
  5
1494
  8
0
  6
CONTINUOUS
 10
707.70171062236341
 20
681.72313833922487
 30
0.0
  0
VERTEX
  5
1495
  8
0
  6
CONTINUOUS
 10
709.14508629533736
 20
684.22313833922499
 30
0.0
  0
VERTEX
  5
1496
  8
0
  6
CONTINUOUS
 10
707.70171062236341
 20
686.72313833922487
 30
0.0
  0
SEQEND
  5
1497
  8
0
  6
CONTINUOUS
  0
CIRCLE
  5
FC3
  8
0
  6
CONTINUOUS
 10
672.75833494938934
 20
206.1824471138724
 30
0.0
 40
5.0
  0
CIRCLE
  5
FC4
  8
0
  6
CONTINUOUS
 10
672.75833494938934
 20
206.1824471138724
 30
0.0
 40
4.5381062355658202
  0
POLYLINE
  5
FC5
  8
0
  6
CONTINUOUS
 66
     1
 10
0.0
 20
0.0
 30
0.0
 70
     1
  0
VERTEX
  5
1498
  8
0
  6
CONTINUOUS
 10
671.31495927641515
 20
203.68244711387231
 30
0.0
  0
VERTEX
  5
1499
  8
0
  6
CONTINUOUS
 10
669.8715836034412
 20
206.18244711387231
 30
0.0
  0
VERTEX
  5
149A
  8
0
  6
CONTINUOUS
 10
671.31495927641515
 20
208.68244711387231
 30
0.0
  0
VERTEX
  5
149B
  8
0
  6
CONTINUOUS
 10
674.20171062236341
 20
208.68244711387231
 30
0.0
  0
VERTEX
  5
149C
  8
0
  6
CONTINUOUS
 10
675.64508629533736
 20
206.18244711387231
 30
0.0
  0
VERTEX
  5
149D
  8
0
  6
CONTINUOUS
 10
674.20171062236341
 20
203.68244711387231
 30
0.0
  0
SEQEND
  5
149E
  8
0
  6
CONTINUOUS
  0
CIRCLE
  5
FCD
  8
0
  6
CONTINUOUS
 10
639.25833494938934
 20
239.6824471138724
 30
0.0
 40
5.0
  0
CIRCLE
  5
FCE
  8
0
  6
CONTINUOUS
 10
639.25833494938934
 20
239.6824471138724
 30
0.0
 40
4.5381062355658202
  0
POLYLINE
  5
FCF
  8
0
  6
CONTINUOUS
 66
     1
 10
0.0
 20
0.0
 30
0.0
 70
     1
  0
VERTEX
  5
149F
  8
0
  6
CONTINUOUS
 10
637.81495927641515
 20
237.18244711387231
 30
0.0
  0
VERTEX
  5
14A0
  8
0
  6
CONTINUOUS
 10
636.3715836034412
 20
239.68244711387231
 30
0.0
  0
VERTEX
  5
14A1
  8
0
  6
CONTINUOUS
 10
637.81495927641515
 20
242.18244711387231
 30
0.0
  0
VERTEX
  5
14A2
  8
0
  6
CONTINUOUS
 10
640.70171062236341
 20
242.18244711387231
 30
0.0
  0
VERTEX
  5
14A3
  8
0
  6
CONTINUOUS
 10
642.14508629533736
 20
239.68244711387231
 30
0.0
  0
VERTEX
  5
14A4
  8
0
  6
CONTINUOUS
 10
640.70171062236341
 20
237.18244711387231
 30
0.0
  0
SEQEND
  5
14A5
  8
0
  6
CONTINUOUS
  0
CIRCLE
  5
FD7
  8
0
  6
CONTINUOUS
 10
672.75833494938934
 20
273.1824471138724
 30
0.0
 40
5.0
  0
CIRCLE
  5
FD8
  8
0
  6
CONTINUOUS
 10
672.75833494938934
 20
273.1824471138724
 30
0.0
 40
4.5381062355658202
  0
POLYLINE
  5
FD9
  8
0
  6
CONTINUOUS
 66
     1
 10
0.0
 20
0.0
 30
0.0
 70
     1
  0
VERTEX
  5
14A6
  8
0
  6
CONTINUOUS
 10
671.31495927641515
 20
270.6824471138724
 30
0.0
  0
VERTEX
  5
14A7
  8
0
  6
CONTINUOUS
 10
669.8715836034412
 20
273.1824471138724
 30
0.0
  0
VERTEX
  5
14A8
  8
0
  6
CONTINUOUS
 10
671.31495927641515
 20
275.68244711387229
 30
0.0
  0
VERTEX
  5
14A9
  8
0
  6
CONTINUOUS
 10
674.20171062236341
 20
275.68244711387229
 30
0.0
  0
VERTEX
  5
14AA
  8
0
  6
CONTINUOUS
 10
675.64508629533736
 20
273.1824471138724
 30
0.0
  0
VERTEX
  5
14AB
  8
0
  6
CONTINUOUS
 10
674.20171062236341
 20
270.6824471138724
 30
0.0
  0
SEQEND
  5
14AC
  8
0
  6
CONTINUOUS
  0
CIRCLE
  5
FE1
  8
0
  6
CONTINUOUS
 10
706.25833494938934
 20
239.6824471138724
 30
0.0
 40
5.0
  0
CIRCLE
  5
FE2
  8
0
  6
CONTINUOUS
 10
706.25833494938934
 20
239.6824471138724
 30
0.0
 40
4.5381062355658202
  0
POLYLINE
  5
FE3
  8
0
  6
CONTINUOUS
 66
     1
 10
0.0
 20
0.0
 30
0.0
 70
     1
  0
VERTEX
  5
14AD
  8
0
  6
CONTINUOUS
 10
704.81495927641515
 20
237.18244711387231
 30
0.0
  0
VERTEX
  5
14AE
  8
0
  6
CONTINUOUS
 10
703.3715836034412
 20
239.68244711387231
 30
0.0
  0
VERTEX
  5
14AF
  8
0
  6
CONTINUOUS
 10
704.81495927641515
 20
242.18244711387231
 30
0.0
  0
VERTEX
  5
14B0
  8
0
  6
CONTINUOUS
 10
707.70171062236341
 20
242.18244711387231
 30
0.0
  0
VERTEX
  5
14B1
  8
0
  6
CONTINUOUS
 10
709.14508629533736
 20
239.68244711387231
 30
0.0
  0
VERTEX
  5
14B2
  8
0
  6
CONTINUOUS
 10
707.70171062236341
 20
237.18244711387231
 30
0.0
  0
SEQEND
  5
14B3
  8
0
  6
CONTINUOUS
  0
LINE
  5
FEB
  8
0
 10
328.50274587796372
 20
384.52823866563028
 30
0.0
 11
328.5027458779636
 21
425.52823866563028
 31
0.0
  0
LINE
  5
FEC
  8
0
 10
352.50274587796372
 20
384.52823866563028
 30
0.0
 11
352.50274587796372
 21
425.52823866563028
 31
0.0
  0
LINE
  5
FED
  8
0
  6
CONTINUOUS
 10
355.5027458779636
 20
425.52823866563028
 30
0.0
 11
325.5027458779636
 21
425.52823866563028
 31
0.0
  0
LINE
  5
FEE
  8
0
 10
336.50274587796372
 20
390.52823866563028
 30
0.0
 11
336.50274587796372
 21
418.52823866563023
 31
0.0
  0
LINE
  5
FEF
  8
0
 10
344.50274587796372
 20
390.52823866563028
 30
0.0
 11
344.50274587796372
 21
418.52823866563023
 31
0.0
  0
LINE
  5
FF0
  8
0
 10
325.5027458779636
 20
425.52823866563028
 30
0.0
 11
325.5027458779636
 21
426.52823866563028
 31
0.0
  0
ARC
  5
FF1
  8
0
  6
CONTINUOUS
 10
340.50274587796372
 20
418.52823866563028
 30
0.0
 40
4.0
 50
0.0
 51
180.0
  0
ARC
  5
FF2
  8
0
  6
CONTINUOUS
 10
340.50274587796372
 20
390.52823866563028
 30
0.0
 40
4.0
 50
180.0
 51
0.0
  0
LINE
  5
FF3
  8
0
 10
355.5027458779636
 20
425.52823866563023
 30
0.0
 11
355.50274587796372
 21
426.52823866563023
 31
0.0
  0
LINE
  5
FF4
  8
0
  6
CONTINUOUS
 10
352.50274587796372
 20
384.52823866563028
 30
0.0
 11
328.50274587796372
 21
384.52823866563028
 31
0.0
  0
LINE
  5
FF5
  8
0
  6
CONTINUOUS
 10
351.50274587796372
 20
383.52823866563028
 30
0.0
 11
329.50274587796372
 21
383.52823866563028
 31
0.0
  0
LINE
  5
FF6
  8
0
  6
CONTINUOUS
 10
329.50274587796372
 20
383.52823866563028
 30
0.0
 11
328.50274587796372
 21
384.52823866563028
 31
0.0
  0
LINE
  5
FF7
  8
0
  6
CONTINUOUS
 10
351.50274587796372
 20
383.52823866563028
 30
0.0
 11
352.50274587796372
 21
384.52823866563028
 31
0.0
  0
SOLID
  5
FF8
  8
DIM
  6
CONTINUOUS
 10
1063.013924020815
 20
386.52823866563028
 30
0.0
 11
1064.013924020815
 21
386.52823866563028
 31
0.0
 12
1063.513924020815
 22
383.52823866563028
 32
0.0
 13
1063.513924020815
 23
383.52823866563028
 33
0.0
  0
LINE
  5
FF9
  8
0
 10
993.01392402081467
 20
384.52823866563028
 30
0.0
 11
993.01392402081467
 21
425.52823866563028
 31
0.0
  0
LINE
  5
FFA
  8
0
 10
1017.013924020814
 20
384.52823866563028
 30
0.0
 11
1017.013924020814
 21
425.52823866563028
 31
0.0
  0
LINE
  5
FFB
  8
0
  6
CONTINUOUS
 10
990.01392402081467
 20
425.52823866563028
 30
0.0
 11
1020.013924020814
 21
425.52823866563028
 31
0.0
  0
LINE
  5
FFC
  8
0
 10
990.01392402081467
 20
425.52823866563023
 30
0.0
 11
990.01392402081467
 21
426.52823866563023
 31
0.0
  0
LINE
  5
FFD
  8
0
 10
1020.013924020814
 20
425.52823866563028
 30
0.0
 11
1020.013924020814
 21
426.52823866563028
 31
0.0
  0
LINE
  5
FFE
  8
DIM
  6
CONTINUOUS
 10
1017.013924020814
 20
383.52823866563028
 30
0.0
 11
1064.513924020815
 21
383.52823866563028
 31
0.0
  0
LINE
  5
FFF
  8
0
  6
CONTINUOUS
 10
994.01392402081478
 20
383.52823866563028
 30
0.0
 11
1016.013924020814
 21
383.52823866563028
 31
0.0
  0
LINE
  5
1000
  8
0
  6
CONTINUOUS
 10
993.01392402081467
 20
384.52823866563028
 30
0.0
 11
1017.013924020814
 21
384.52823866563028
 31
0.0
  0
LINE
  5
1001
  8
0
  6
CONTINUOUS
 10
994.01392402081478
 20
383.52823866563028
 30
0.0
 11
993.01392402081467
 21
384.52823866563028
 31
0.0
  0
LINE
  5
1002
  8
0
  6
CONTINUOUS
 10
1016.013924020814
 20
383.52823866563028
 30
0.0
 11
1017.013924020814
 21
384.52823866563028
 31
0.0
  0
ARC
  5
1003
  8
0
  6
CONTINUOUS
 10
672.75833494938934
 20
239.68244711387231
 30
0.0
 40
15.00000000000005
 50
195.4660099534203
 51
164.53399004657959
  0
CIRCLE
  5
1004
  8
0
  6
CONTINUOUS
 10
672.75833494938934
 20
239.68244711387231
 30
0.0
 40
11.00000000000005
  0
CIRCLE
  5
1005
  8
0
  6
CONTINUOUS
 10
672.75833494938934
 20
239.68244711387231
 30
0.0
 40
12.00000000000005
  0
TEXT
  5
1006
  8
DIM
  6
CONTINUOUS
 10
648.25833494938911
 20
247.81532709942761
 30
0.0
 40
3.0
  1
8
 50
90.0
  7
ROMANSS
 72
     1
 11
646.75833494938911
 21
248.81532709942761
 31
0.0
 73
     2
  0
LINE
  5
1007
  8
DIM
  6
CONTINUOUS
 10
649.75833494938911
 20
231.2957126347662
 30
0.0
 11
649.75833494938911
 21
250.77595069098831
 31
0.0
  0
LINE
  5
1008
  8
0
 10
657.75833494938911
 20
243.68244711387231
 30
0.0
 11
657.75833494938911
 21
235.68244711387231
 31
0.0
  0
SOLID
  5
1009
  8
DIM
  6
CONTINUOUS
 10
649.25833494938911
 20
232.68244711387231
 30
0.0
 11
650.25833494938911
 21
232.68244711387231
 31
0.0
 12
649.75833494938911
 22
235.68244711387231
 32
0.0
 13
649.75833494938911
 23
235.68244711387231
 33
0.0
  0
LINE
  5
100A
  8
DIM
  6
CONTINUOUS
 10
656.75833494938911
 20
235.68244711387231
 30
0.0
 11
648.75833494938911
 21
235.68244711387231
 31
0.0
  0
LINE
  5
100B
  8
0
 10
657.75833494938911
 20
235.68244711387231
 30
0.0
 11
661.44462645040448
 21
235.68244711387231
 31
0.0
  0
SOLID
  5
100C
  8
DIM
  6
CONTINUOUS
 10
649.25833494938911
 20
246.68244711387231
 30
0.0
 11
650.25833494938911
 21
246.68244711387231
 31
0.0
 12
649.75833494938911
 22
243.68244711387231
 32
0.0
 13
649.75833494938911
 23
243.68244711387231
 33
0.0
  0
LINE
  5
100D
  8
DIM
  6
CONTINUOUS
 10
656.75833494938911
 20
243.68244711387231
 30
0.0
 11
648.75833494938911
 21
243.68244711387231
 31
0.0
  0
LINE
  5
100E
  8
0
 10
657.75833494938911
 20
243.68244711387231
 30
0.0
 11
661.44462645040448
 21
243.68244711387231
 31
0.0
  0
CIRCLE
  5
100F
  8
0
  6
CONTINUOUS
 10
672.75833494938934
 20
239.68244711387231
 30
0.0
 40
3.399999999999999
  0
ARC
  5
1010
  8
0
  6
CONTINUOUS
 62
     2
 10
672.75833494938934
 20
239.68244711387231
 30
0.0
 40
4.0
 50
155.67751702511919
 51
114.77142042572839
  0
LINE
  5
1011
  8
DIM
  6
CONTINUOUS
 10
679.51014227453743
 20
237.90112261383439
 30
0.0
 11
741.10507172053599
 21
216.1927671020658
 31
0.0
  0
SOLID
  5
1012
  8
DIM
  6
CONTINUOUS
 10
679.67634105727916
 20
238.37269229544589
 30
0.0
 11
679.34394349179547
 21
237.42955293222309
 31
0.0
 12
676.6807241848685
 22
238.89831531028551
 32
0.0
 13
676.6807241848685
 23
238.89831531028551
 33
0.0
  0
LINE
  5
1013
  8
DIM
  6
CONTINUOUS
 10
741.1050717205361
 20
216.1927671020658
 30
0.0
 11
760.4800214310427
 21
216.1927671020658
 31
0.0
  0
TEXT
  5
1014
  8
DIM
  6
CONTINUOUS
 10
743.87503124675425
 20
217.69276710206589
 30
0.0
 40
3.0
  1
M8x15L
  7
ROMANSS
 11
743.87503124675425
 21
219.1927671020658
 31
0.0
 73
     2
  0
LINE
  5
1015
  8
DIM
  6
CONTINUOUS
 10
681.75833494938911
 20
367.52823866563062
 30
0.0
 11
660.75833494938911
 21
367.52823866563062
 31
0.0
  0
LINE
  5
1016
  8
DIM
  6
CONTINUOUS
 10
681.75833494938911
 20
375.52823866563062
 30
0.0
 11
663.758334949389
 21
375.52823866563062
 31
0.0
  0
LINE
  5
1017
  8
0
  6
CONTINUOUS
 10
657.75833494938922
 20
425.52823866563068
 30
0.0
 11
687.75833494938922
 21
425.52823866563068
 31
0.0
  0
LINE
  5
1018
  8
0
  6
CONTINUOUS
 10
660.75833494938911
 20
384.52823866563062
 30
0.0
 11
684.758334949389
 21
384.52823866563062
 31
0.0
  0
LINE
  5
1019
  8
0
  6
CONTINUOUS
 10
661.75833494938911
 20
383.52823866563062
 30
0.0
 11
683.75833494938911
 21
383.52823866563062
 31
0.0
  0
LINE
  5
101A
  8
DIM
  6
CONTINUOUS
 10
657.75833494938911
 20
385.52823866563062
 30
0.0
 11
657.75833494938911
 21
366.52823866563062
 31
0.0
  0
SOLID
  5
101B
  8
DIM
  6
CONTINUOUS
 10
611.25833494938922
 20
386.52823866563062
 30
0.0
 11
612.25833494938922
 21
386.52823866563062
 31
0.0
 12
611.75833494938922
 22
383.52823866563062
 32
0.0
 13
611.75833494938922
 23
383.52823866563062
 33
0.0
  0
LINE
  5
101C
  8
0
 10
660.75833494938911
 20
384.52823866563062
 30
0.0
 11
660.75833494938911
 21
425.52823866563068
 31
0.0
  0
LINE
  5
101D
  8
DIM
  6
CONTINUOUS
 10
631.76486157697275
 20
426.52823866563062
 30
0.0
 11
610.75833494938911
 21
426.52823866563062
 31
0.0
  0
LINE
  5
101E
  8
DIM
  6
CONTINUOUS
 10
656.75833494938922
 20
425.52823866563068
 30
0.0
 11
610.75833494938922
 21
425.52823866563068
 31
0.0
  0
LINE
  5
101F
  8
DIM
  6
CONTINUOUS
 10
611.75833494938922
 20
386.52823866563062
 30
0.0
 11
611.75833494938922
 21
433.58741572947088
 31
0.0
  0
SOLID
  5
1020
  8
DIM
  6
CONTINUOUS
 10
611.25833494938911
 20
429.52823866563068
 30
0.0
 11
612.25833494938911
 21
429.52823866563068
 31
0.0
 12
611.75833494938911
 22
426.52823866563062
 32
0.0
 13
611.75833494938911
 23
426.52823866563062
 33
0.0
  0
SOLID
  5
1021
  8
DIM
  6
CONTINUOUS
 10
611.25833494938922
 20
422.52823866563062
 30
0.0
 11
612.25833494938922
 21
422.52823866563062
 31
0.0
 12
611.75833494938922
 22
425.52823866563068
 32
0.0
 13
611.75833494938922
 23
425.52823866563068
 33
0.0
  0
LINE
  5
1022
  8
DIM
  6
CONTINUOUS
 10
656.75833494938911
 20
422.52823866563062
 30
0.0
 11
618.75833494938922
 21
422.52823866563062
 31
0.0
  0
LINE
  5
1023
  8
DIM
  6
CONTINUOUS
 10
656.75833494938911
 20
386.52823866563062
 30
0.0
 11
618.75833494938922
 21
386.52823866563062
 31
0.0
  0
LINE
  5
1024
  8
DIM
  6
CONTINUOUS
 10
619.75833494938922
 20
389.52823866563062
 30
0.0
 11
619.75833494938922
 21
419.52823866563062
 31
0.0
  0
SOLID
  5
1025
  8
DIM
  6
CONTINUOUS
 10
619.25833494938922
 20
419.52823866563062
 30
0.0
 11
620.25833494938922
 21
419.52823866563062
 31
0.0
 12
619.75833494938922
 22
422.52823866563062
 32
0.0
 13
619.75833494938922
 23
422.52823866563062
 33
0.0
  0
SOLID
  5
1026
  8
DIM
  6
CONTINUOUS
 10
619.25833494938922
 20
389.52823866563062
 30
0.0
 11
620.25833494938922
 21
389.52823866563062
 31
0.0
 12
619.75833494938922
 22
386.52823866563062
 32
0.0
 13
619.75833494938922
 23
386.52823866563062
 33
0.0
  0
LINE
  5
1027
  8
0
 10
657.75833494938911
 20
386.52823866563062
 30
0.0
 11
657.75833494938911
 21
422.52823866563062
 31
0.0
  0
LINE
  5
1028
  8
0
  6
CONTINUOUS
 10
657.75833494938911
 20
422.52823866563062
 30
0.0
 11
660.75833494938911
 21
422.52823866563062
 31
0.0
  0
LINE
  5
1029
  8
0
 10
657.75833494938922
 20
425.52823866563068
 30
0.0
 11
657.75833494938911
 21
426.52823866563062
 31
0.0
  0
LINE
  5
102A
  8
0
  6
CONTINUOUS
 10
657.75833494938911
 20
386.52823866563062
 30
0.0
 11
660.75833494938922
 21
386.52823866563062
 31
0.0
  0
LINE
  5
102B
  8
DIM
  6
CONTINUOUS
 10
660.75833494938911
 20
383.52823866563062
 30
0.0
 11
610.75833494938922
 21
383.52823866563062
 31
0.0
  0
SOLID
  5
102C
  8
DIM
  6
CONTINUOUS
 10
663.758334949389
 20
375.02823866563062
 30
0.0
 11
663.758334949389
 21
376.02823866563062
 31
0.0
 12
660.75833494938911
 22
375.52823866563062
 32
0.0
 13
660.75833494938911
 23
375.52823866563062
 33
0.0
  0
LINE
  5
102D
  8
DIM
  6
CONTINUOUS
 10
660.75833494938911
 20
383.52823866563062
 30
0.0
 11
660.75833494938911
 21
374.52823866563062
 31
0.0
  0
LINE
  5
102E
  8
0
  6
CONTINUOUS
 10
661.75833494938911
 20
383.52823866563062
 30
0.0
 11
660.75833494938911
 21
384.52823866563062
 31
0.0
  0
SOLID
  5
102F
  8
DIM
  6
CONTINUOUS
 10
660.75833494938911
 20
367.02823866563062
 30
0.0
 11
660.75833494938911
 21
368.02823866563062
 31
0.0
 12
657.75833494938911
 22
367.52823866563062
 32
0.0
 13
657.75833494938911
 23
367.52823866563062
 33
0.0
  0
LINE
  5
1030
  8
0
 10
684.758334949389
 20
384.52823866563062
 30
0.0
 11
684.75833494938922
 21
425.52823866563068
 31
0.0
  0
LINE
  5
1031
  8
0
 10
687.75833494938922
 20
425.52823866563068
 30
0.0
 11
687.75833494938922
 21
426.52823866563062
 31
0.0
  0
LINE
  5
1032
  8
DIM
  6
CONTINUOUS
 10
684.758334949389
 20
383.52823866563062
 30
0.0
 11
684.758334949389
 21
366.52823866563062
 31
0.0
  0
SOLID
  5
1033
  8
DIM
  6
CONTINUOUS
 10
681.75833494938911
 20
375.02823866563062
 30
0.0
 11
681.75833494938911
 21
376.02823866563062
 31
0.0
 12
684.758334949389
 22
375.52823866563062
 32
0.0
 13
684.758334949389
 23
375.52823866563062
 33
0.0
  0
LINE
  5
1034
  8
DIM
  6
CONTINUOUS
 10
684.758334949389
 20
383.52823866563062
 30
0.0
 11
684.758334949389
 21
374.52823866563062
 31
0.0
  0
LINE
  5
1035
  8
0
  6
CONTINUOUS
 10
683.75833494938911
 20
383.52823866563062
 30
0.0
 11
684.758334949389
 21
384.52823866563062
 31
0.0
  0
SOLID
  5
1036
  8
DIM
  6
CONTINUOUS
 10
681.75833494938911
 20
367.02823866563062
 30
0.0
 11
681.75833494938911
 21
368.02823866563062
 31
0.0
 12
684.758334949389
 22
367.52823866563062
 32
0.0
 13
684.758334949389
 23
367.52823866563062
 33
0.0
  0
TEXT
  5
1037
  8
DIM
  6
CONTINUOUS
 10
610.25833494938922
 20
430.5087570693268
 30
0.0
 40
3.0
  1
1
 50
90.0
  7
ROMANSS
 72
     1
 11
608.75833494938922
 21
430.86589992646969
 31
0.0
 73
     2
  0
TEXT
  5
1038
  8
DIM
  6
CONTINUOUS
 10
618.25833494938922
 20
402.03225572071619
 30
0.0
 40
3.0
  1
36
 50
90.0
  7
ROMANSS
 72
     1
 11
616.75833494938922
 21
404.38939857785903
 31
0.0
 73
     2
  0
TEXT
  5
1039
  8
DIM
  6
CONTINUOUS
 10
610.25833494938922
 20
401.96082714928758
 30
0.0
 40
3.0
  1
42
 50
90.0
  7
ROMANSS
 72
     1
 11
608.75833494938922
 21
404.38939857785903
 31
0.0
 73
     2
  0
TEXT
  5
103A
  8
DIM
  6
CONTINUOUS
 10
666.25833494938911
 20
377.02823866563062
 30
0.0
 40
3.0
  1
%%c24h6
  7
ROMANSS
 72
     1
 11
672.758334949389
 21
378.52823866563062
 31
0.0
 73
     2
  0
TEXT
  5
103B
  8
DIM
  6
CONTINUOUS
 10
668.82976352081766
 20
369.02823866563062
 30
0.0
 40
3.0
  1
27
  7
ROMANSS
 72
     1
 11
671.25833494938911
 21
370.52823866563062
 31
0.0
 73
     2
  0
ARC
  5
1048
  8
DIM
  6
CONTINUOUS
 10
672.75833494938934
 20
684.22313833922499
 30
0.0
 40
67.695411205231821
 50
90.0
 51
180.0
  0
TEXT
  5
104D
  8
LOGO
 62
     6
 10
892.68417704333035
 20
85.523905260131855
 30
0.0
 40
16.361220344331429
  1
作動角度
 41
0.9
  7
CHINESET
 72
     4
 11
922.13437366312701
 21
93.193898278342672
 31
0.0
  0
LINE
  5
104E
  8
LOGO
 62
     6
 10
964.38399009766954
 20
62.516610132721347
 30
0.0
 11
879.88475722858448
 21
62.516610132721212
 31
0.0
  0
LINE
  5
104F
  8
LOGO
 62
     6
 10
964.38399009766954
 20
107.5099660796328
 30
0.0
 11
879.88475722858448
 21
107.5099660796328
 31
0.0
  0
TEXT
  5
1050
  8
LOGO
  6
CONTINUOUS
 62
     6
 10
883.56863999434563
 20
69.333785276192685
 30
0.0
 40
10.225762715207139
  1
Rotary angle
 41
0.8
  7
CHINESET
 72
     4
 11
922.13437366312701
 21
72.742372847928408
 31
0.0
  0
TEXT
  5
1051
  8
LOGO
  6
CONTINUOUS
 62
     7
 10
907.48718645309009
 20
133.86502755208301
 30
0.0
 40
20.451525430414289
  1
90
  7
CHINESET
 72
     1
 11
924.04318323009215
 21
144.0907902672902
 31
0.0
 73
     2
  0
LINE
  5
1052
  8
LOGO
 62
     6
 10
956.20337992550378
 20
162.72908474175139
 30
0.0
 11
888.06536740075023
 21
162.72908474175139
 31
0.0
  0
LINE
  5
1053
  8
LOGO
 62
     6
 10
956.20337992550378
 20
125.9163389670056
 30
0.0
 11
888.06536740075023
 21
125.9163389670057
 31
0.0
  0
LINE
  5
1054
  8
LOGO
 62
     1
 10
1107.0
 20
175.0
 30
0.0
 11
227.0
 21
175.0
 31
0.0
  0
LINE
  5
1055
  8
LOGO
 62
     1
 10
1107.0
 20
52.290847417514229
 30
0.0
 11
227.0
 21
52.290847417514229
 31
0.0
  0
LINE
  5
1056
  8
LOGO
  6
CONTINUOUS
 62
     6
 10
460.31234331157378
 20
142.3879934646065
 30
0.0
 11
482.64812660094179
 21
145.338284026514
 31
0.0
  0
LINE
  5
1057
  8
LOGO
  6
CONTINUOUS
 62
     6
 10
460.31234331157378
 20
134.03901014096931
 30
0.0
 11
482.64812660094179
 21
131.08871957906169
 31
0.0
  0
LINE
  5
1058
  8
LOGO
 62
     1
 10
496.96013568146873
 20
150.45816948350279
 30
0.0
 11
316.98671189382293
 21
150.45816948350279
 31
0.0
  0
LINE
  5
1059
  8
LOGO
 62
     1
 10
496.96013568146873
 20
125.9163389670057
 30
0.0
 11
316.98671189382293
 21
125.9163389670057
 31
0.0
  0
TEXT
  5
105A
  8
LOGO
 62
     6
 10
433.56243015833928
 20
156.5936271126271
 30
0.0
 40
12.27091525824858
  1
1 : 1
  7
CHINESET
 72
     1
 11
455.18261418477721
 21
162.72908474175139
 31
0.0
 73
     2
  0
TEXT
  5
105B
  8
LOGO
 62
     6
 10
433.56243015833928
 20
107.5099660796327
 30
0.0
 40
12.27091525824858
  1
m/m
  7
CHINESET
 72
     1
 11
455.18261418477721
 21
113.64542370875699
 31
0.0
 73
     2
  0
LINE
  5
105C
  8
LOGO
 62
     1
 10
496.96013568146873
 20
101.3745084505086
 30
0.0
 11
226.9999999999998
 21
101.3745084505086
 31
0.0
  0
TEXT
  5
105D
  8
LOGO
  6
CONTINUOUS
 62
     5
 10
231.0164777474609
 20
76.396875258085728
 30
0.0
 40
18.406372887372861
  1
金器工業股份有限公司
 41
0.8
  7
LOGO
  0
TEXT
  5
105E
  8
LOGO
  6
CONTINUOUS
 62
     5
 10
236.2869527758431
 20
57.986896164742291
 30
0.0
 40
12.27091525824858
  1
MINDMAN INDUSTRIAL CO.,LTD
 41
0.85
  7
CHINESET
  0
SOLID
  5
105F
  8
LOGO
 62
     5
 10
239.73127151364491
 20
121.773158440099
 30
0.0
 11
245.03689328249499
 21
121.77315844009721
 31
0.0
 12
267.17414273183761
 22
172.08508900678399
 32
0.0
 13
272.47976450068722
 23
172.08508900678049
 33
0.0
  0
SOLID
  5
1060
  8
LOGO
 62
     5
 10
247.23232297995361
 20
121.773158440099
 30
0.0
 11
252.5379447488032
 21
121.773158440099
 31
0.0
 12
272.47976450068722
 22
168.06013456144731
 32
0.0
 13
267.17414273183761
 23
148.60618807566189
 33
0.0
  0
SOLID
  5
1061
  8
LOGO
 62
     2
 10
245.03689328249499
 20
121.77315844009721
 30
0.0
 11
247.23232297995361
 21
121.773158440099
 31
0.0
 12
272.47976450068722
 22
172.08508900678049
 32
0.0
 13
274.67519419814408
 23
172.08508900678049
 33
0.0
  0
SOLID
  5
1062
  8
LOGO
 62
     5
 10
245.18827639381709
 20
112.62553470070161
 30
0.0
 11
247.01780114169469
 21
112.62553470070161
 31
0.0
 12
245.18827639381709
 22
103.4779109613058
 32
0.0
 13
247.01780114169469
 23
103.4779109613058
 33
0.0
  0
SOLID
  5
1063
  8
LOGO
 62
     5
 10
231.2250587203452
 20
103.4779109613058
 30
0.0
 11
233.05458346822661
 21
103.4779109613058
 31
0.0
 12
238.20666755708001
 22
112.62553470070161
 32
0.0
 13
240.03619230495809
 23
112.62553470070161
 33
0.0
  0
SOLID
  5
1064
  8
LOGO
 62
     5
 10
238.20666755708001
 20
112.62553470070161
 30
0.0
 11
240.03619230495809
 21
112.62553470070161
 31
0.0
 12
238.20666755708001
 22
103.4779109613058
 32
0.0
 13
240.03619230495809
 23
103.4779109613058
 33
0.0
  0
SOLID
  5
1065
  8
LOGO
 62
     5
 10
238.20666755708001
 20
103.4779109613058
 30
0.0
 11
240.03619230495809
 21
103.4779109613058
 31
0.0
 12
245.18827639381709
 22
112.62553470070161
 32
0.0
 13
247.01780114169469
 23
112.62553470070161
 33
0.0
  0
LINE
  5
1066
  8
LOGO
 62
     1
 10
227.0
 20
52.290847417514229
 30
0.0
 11
227.0
 21
175.0
 31
0.0
  0
TEXT
  5
1067
  8
LOGO
 62
     6
 10
327.1047388947091
 20
156.59966594887621
 30
0.0
 40
12.27091525824858
  1
比例 Scale:
 41
0.9
  7
CHINESET
 72
     4
 11
366.07037292681719
 21
162.72908474175139
 31
0.0
  0
TEXT
  5
1068
  8
LOGO
 62
     6
 10
331.3940811479273
 20
132.2244066655845
 30
0.0
 40
12.27091525824858
  1
投影 View:
 41
0.9
  7
CHINESET
 72
     4
 11
366.07037292681719
 21
138.18725422525421
 31
0.0
  0
TEXT
  5
1069
  8
LOGO
 62
     6
 10
332.59378223790782
 20
107.5099660796327
 30
0.0
 40
12.27091525824858
  1
單位 Unit:
 41
0.9
  7
CHINESET
 72
     4
 11
366.07037292681719
 21
113.64542370875699
 31
0.0
  0
POLYLINE
  5
106A
  8
LOGO
 62
     5
 66
     1
 10
0.0
 20
0.0
 30
0.0
 70
     1
 40
1.8324566785651211
 41
1.8324566785651211
  0
VERTEX
  5
14B4
  8
LOGO
 62
     5
 10
289.73253939596111
 20
108.05172283100281
 30
0.0
 42
1.0
  0
VERTEX
  5
14B5
  8
LOGO
 62
     5
 10
297.06236611022138
 20
108.05172283100281
 30
0.0
 42
1.0
  0
SEQEND
  5
14B6
  8
LOGO
 62
     5
  0
LINE
  5
106B
  8
LOGO
 62
     5
 10
307.42368718518429
 20
103.4779109613058
 30
0.0
 11
307.42368718518429
 21
108.9664852049426
 31
0.0
  0
SOLID
  5
106C
  8
LOGO
 62
     5
 10
296.14155692243969
 20
112.62553470070161
 30
0.0
 11
297.97108167031757
 21
112.62553470070161
 31
0.0
 12
296.14155692243969
 22
103.4779109613058
 32
0.0
 13
297.97108167031757
 23
103.4779109613058
 33
0.0
  0
SOLID
  5
106D
  8
LOGO
 62
     5
 10
300.10558819366639
 20
103.4779109613058
 30
0.0
 11
301.93511294154757
 21
103.4779109613058
 31
0.0
 12
300.10558819366639
 22
112.62553470070161
 32
0.0
 13
301.93511294154757
 23
112.62553470070161
 33
0.0
  0
SOLID
  5
106E
  8
LOGO
 62
     5
 10
305.59416243730669
 20
108.9664852049426
 30
0.0
 11
307.42368718518429
 21
108.9664852049423
 31
0.0
 12
305.59416243730669
 22
103.4779109613058
 32
0.0
 13
307.42368718518429
 23
103.4779109613058
 33
0.0
  0
SOLID
  5
106F
  8
LOGO
 62
     5
 10
269.91824690118318
 20
115.3698218225216
 30
0.0
 11
271.74777164906078
 21
115.3698218225216
 31
0.0
 12
269.91824690118318
 22
103.4779109613058
 32
0.0
 13
271.74777164906078
 23
103.4779109613058
 33
0.0
  0
SOLID
  5
1070
  8
LOGO
 62
     5
 10
273.88227817241489
 20
112.62553470070161
 30
0.0
 11
275.71180292029271
 21
112.62553470070161
 31
0.0
 12
273.88227817241489
 22
103.4779109613058
 32
0.0
 13
275.71180292029271
 23
103.4779109613058
 33
0.0
  0
SOLID
  5
1071
  8
LOGO
 62
     5
 10
279.37085241605172
 20
108.9664852049426
 30
0.0
 11
281.20037716392949
 21
108.9664852049426
 31
0.0
 12
279.37085241605172
 22
103.4779109613058
 32
0.0
 13
281.20037716392949
 23
103.4779109613058
 33
0.0
  0
SOLID
  5
1072
  8
LOGO
 62
     5
 10
284.85942665968872
 20
108.9664852049426
 30
0.0
 11
286.68895140756632
 21
108.9664852049426
 31
0.0
 12
284.85942665968872
 22
103.4779109613024
 32
0.0
 13
286.68895140756632
 23
103.4779109613024
 33
0.0
  0
LINE
  5
1073
  8
LOGO
 62
     1
 10
316.98671189382293
 20
101.3745084505085
 30
0.0
 11
316.98671189382293
 21
175.0
 31
0.0
  0
SOLID
  5
1074
  8
LOGO
 62
     5
 10
253.14754239479689
 20
112.62553470070161
 30
0.0
 11
254.97706714267451
 21
112.62553470070161
 31
0.0
 12
253.14754239479689
 22
103.4779109613058
 32
0.0
 13
254.97706714267451
 23
103.4779109613058
 33
0.0
  0
SOLID
  5
1075
  8
LOGO
 62
     5
 10
258.63611663843329
 20
108.9664852049426
 30
0.0
 11
260.46564138631442
 21
108.9664852049426
 31
0.0
 12
258.63611663843329
 22
103.4779109613058
 32
0.0
 13
260.46564138631442
 23
103.4779109613058
 33
0.0
  0
SOLID
  5
1076
  8
LOGO
 62
     5
 10
249.18351112356481
 20
112.62553470070161
 30
0.0
 11
251.01303587144781
 21
112.62553470070161
 31
0.0
 12
249.18351112356481
 22
103.4779109613024
 32
0.0
 13
251.01303587144781
 23
103.4779109613058
 33
0.0
  0
POLYLINE
  5
1077
  8
LOGO
 62
     5
 66
     1
 10
0.0
 20
0.0
 30
0.0
 70
     1
 40
1.8324566785651211
 41
1.8324566785651211
  0
VERTEX
  5
14B7
  8
LOGO
 62
     5
 10
263.50922937470608
 20
108.05172283100281
 30
0.0
 42
1.0
  0
VERTEX
  5
14B8
  8
LOGO
 62
     5
 10
270.83905608896669
 20
108.05172283100281
 30
0.0
 42
1.0
  0
SEQEND
  5
14B9
  8
LOGO
 62
     5
  0
POLYLINE
  5
1078
  8
LOGO
 62
     5
 66
     1
 10
0.0
 20
0.0
 30
0.0
 40
1.8324566785651211
 41
1.8324566785651211
  0
VERTEX
  5
14BA
  8
LOGO
 62
     5
 10
306.51332270727488
 20
108.9664852049426
 30
0.0
 42
1.0
  0
VERTEX
  5
14BB
  8
LOGO
 62
     5
 10
301.01595267157938
 20
108.9664852049426
 30
0.0
 42
1.0
  0
SEQEND
  5
14BC
  8
LOGO
 62
     5
  0
SOLID
  5
1079
  8
LOGO
 62
     5
 10
302.11806541633479
 20
121.77315844009721
 30
0.0
 11
307.42368718518429
 21
121.77315844009721
 31
0.0
 12
302.11806541633479
 22
172.08508900678049
 32
0.0
 13
307.42368718518429
 23
172.08508900678399
 33
0.0
  0
SOLID
  5
107A
  8
LOGO
 62
     5
 10
274.67519419814408
 20
172.08508900678049
 30
0.0
 11
279.98081596699348
 21
172.08508900678399
 31
0.0
 12
274.67519419814408
 22
125.7981128854321
 32
0.0
 13
279.98081596699348
 23
145.2520593712176
 33
0.0
  0
SOLID
  5
107B
  8
LOGO
 62
     5
 10
274.67519419814408
 20
125.7981128854321
 30
0.0
 11
279.98081596699348
 21
145.2520593712176
 31
0.0
 12
299.92263571887781
 22
172.08508900678399
 32
0.0
 13
294.61701395002768
 23
172.08508900678399
 33
0.0
  0
SOLID
  5
107C
  8
LOGO
 62
     5
 10
299.92263571887781
 20
168.06013456144731
 30
0.0
 11
294.61701395002768
 21
148.60618807566189
 31
0.0
 12
299.92263571887781
 22
121.77315844009721
 32
0.0
 13
294.61701395002768
 23
121.77315844009721
 33
0.0
  0
SOLID
  5
107D
  8
LOGO
 62
     2
 10
299.92263571887781
 20
172.08508900678399
 30
0.0
 11
302.11806541633479
 21
172.08508900678049
 31
0.0
 12
299.92263571887781
 22
121.77315844009721
 32
0.0
 13
302.11806541633479
 23
121.77315844009721
 33
0.0
  0
SOLID
  5
107E
  8
LOGO
 62
     5
 10
267.17414273183761
 20
121.773158440099
 30
0.0
 11
272.47976450068722
 21
121.773158440099
 31
0.0
 12
267.17414273183761
 22
148.60618807566189
 32
0.0
 13
272.47976450068722
 23
168.06013456144731
 33
0.0
  0
SOLID
  5
107F
  8
LOGO
 62
     2
 10
272.47976450068722
 20
172.08508900678049
 30
0.0
 11
274.67519419814408
 21
172.08508900678049
 31
0.0
 12
272.47976450068722
 22
121.773158440099
 32
0.0
 13
274.67519419814408
 23
121.773158440099
 33
0.0
  0
SOLID
  5
1080
  8
LOGO
 62
     5
 10
274.67519419814408
 20
121.773158440099
 30
0.0
 11
279.98081596699348
 21
121.773158440099
 31
0.0
 12
299.92263571887781
 22
168.06013456144731
 32
0.0
 13
294.61701395002768
 23
148.60618807566189
 33
0.0
  0
SOLID
  5
1081
  8
LOGO
 62
     2
 10
272.47976450068722
 20
121.773158440099
 30
0.0
 11
274.67519419814408
 21
121.773158440099
 31
0.0
 12
299.92263571887781
 22
172.08508900678399
 32
0.0
 13
302.11806541633479
 23
172.08508900678049
 33
0.0
  0
POLYLINE
  5
1082
  8
LOGO
 62
     5
 66
     1
 10
0.0
 20
0.0
 30
0.0
 40
1.8324566785651211
 41
1.8324566785651211
  0
VERTEX
  5
14BD
  8
LOGO
 62
     5
 10
280.29001268602002
 20
108.9664852049426
 30
0.0
 42
1.0
  0
VERTEX
  5
14BE
  8
LOGO
 62
     5
 10
274.79264265032441
 20
108.9664852049426
 30
0.0
 42
1.0
  0
SEQEND
  5
14BF
  8
LOGO
 62
     5
  0
POLYLINE
  5
1083
  8
LOGO
 62
     5
 66
     1
 10
0.0
 20
0.0
 30
0.0
 40
1.8324566785651211
 41
1.8324566785651211
  0
VERTEX
  5
14C0
  8
LOGO
 62
     5
 10
259.55527690840199
 20
108.9664852049426
 30
0.0
 42
1.0
  0
VERTEX
  5
14C1
  8
LOGO
 62
     5
 10
254.0579068727065
 20
108.9664852049426
 30
0.0
 42
1.0
  0
SEQEND
  5
14C2
  8
LOGO
 62
     5
  0
SOLID
  5
1084
  8
LOGO
 62
     5
 10
249.18351112356481
 20
113.9062020242163
 30
0.0
 11
251.01303587144781
 21
113.9062020242163
 31
0.0
 12
249.18351112356481
 22
115.3698218225216
 32
0.0
 13
251.01303587144781
 23
115.3698218225216
 33
0.0
  0
POLYLINE
  5
1085
  8
LOGO
 62
     5
 66
     1
 10
0.0
 20
0.0
 30
0.0
 70
     1
  0
VERTEX
  5
14C3
  8
LOGO
 62
     5
 10
290.65316563127283
 20
108.0517228310037
 30
0.0
 42
1.0000000573306349
  0
VERTEX
  5
14C4
  8
LOGO
 62
     5
 10
296.14173987491199
 20
108.0517228310037
 30
0.0
 42
1.0000000573306349
  0
SEQEND
  5
14C5
  8
LOGO
 62
     5
  0
CIRCLE
  5
1086
  8
LOGO
 62
     5
 10
293.3974527530923
 20
108.0517228310037
 30
0.0
 40
2.7442871218191258
  0
POLYLINE
  5
1087
  8
LOGO
 62
     5
 66
     1
 10
0.0
 20
0.0
 30
0.0
 40
1.8324566785651211
 41
1.8324566785651211
  0
VERTEX
  5
14C6
  8
LOGO
 62
     5
 10
285.77858692965668
 20
108.9664852049426
 30
0.0
 42
1.0
  0
VERTEX
  5
14C7
  8
LOGO
 62
     5
 10
280.28121689396119
 20
108.9664852049426
 30
0.0
 42
1.0
  0
SEQEND
  5
14C8
  8
LOGO
 62
     5
  0
LINE
  5
1088
  8
LOGO
 62
     1
 10
415.15403395981139
 20
101.3745084505085
 30
0.0
 11
415.15403395981139
 21
175.0
 31
0.0
  0
CIRCLE
  5
1089
  8
LOGO
  6
CONTINUOUS
 62
     6
 10
437.87516838227742
 20
138.2135018027879
 30
0.0
 40
7.1247822237261182
  0
CIRCLE
  5
108A
  8
LOGO
  6
CONTINUOUS
 62
     6
 10
437.87516838227742
 20
138.2135018027879
 30
0.0
 40
4.174491661818597
  0
LINE
  5
108B
  8
LOGO
 62
     6
 10
460.31234331157412
 20
134.03901014096931
 30
0.0
 11
460.31234331157378
 21
142.38799346460661
 31
0.0
  0
TEXT
  5
108C
  8
LOGO
  6
CONTINUOUS
 62
     6
 10
695.34714671594804
 20
67.629491490324909
 30
0.0
 40
10.225762715207139
  1
Model
  7
CHINESET
 72
     4
 11
714.82478998300917
 21
72.742372847928479
 31
0.0
  0
TEXT
  5
108D
  8
LOGO
  6
CONTINUOUS
 62
     7
 10
677.33032669391639
 20
134.09694913917139
 30
0.0
 40
20.451525430414289
  1
MRTH
  7
CHINESET
 72
     1
 11
714.82478998300917
 21
144.3227118543785
 31
0.0
 73
     2
  0
LINE
  5
108E
  8
LOGO
 62
     6
 10
763.90845101600337
 20
162.72908474175139
 30
0.0
 11
665.74112895001485
 21
162.72908474175139
 31
0.0
  0
LINE
  5
108F
  8
LOGO
 62
     6
 10
763.90845101600337
 20
125.9163389670057
 30
0.0
 11
665.74112895001485
 21
125.9163389670057
 31
0.0
  0
LINE
  5
1090
  8
LOGO
 62
     6
 10
755.72784084383773
 20
107.5099660796328
 30
0.0
 11
673.92173912218061
 21
107.5099660796328
 31
0.0
  0
LINE
  5
1091
  8
LOGO
 62
     6
 10
755.72784084383773
 20
62.516610132721347
 30
0.0
 11
673.92173912218061
 21
62.516610132721212
 31
0.0
  0
TEXT
  5
1092
  8
LOGO
 62
     7
 10
507.00447964671059
 20
144.27641893919051
 30
0.0
 40
24.541830516497161
  1
訂購代號:
  7
CHINESET
  0
TEXT
  5
1093
  8
LOGO
 62
     7
 10
504.06914141515028
 20
121.2432083282702
 30
0.0
 40
16.361220344331429
  1
Order example:
 41
0.8
  7
CHINESET
  0
LINE
  5
1094
  8
LOGO
 62
     1
 10
496.96013568146873
 20
52.290847417514229
 30
0.0
 11
496.96013568146873
 21
175.0
 31
0.0
  0
LINE
  5
1095
  8
LOGO
 62
     6
 10
482.64812660094179
 20
131.08871957906169
 30
0.0
 11
482.64812660094179
 21
145.338284026514
 31
0.0
  0
LINE
  5
1096
  8
LOGO
 62
     6
 10
673.92173912218061
 20
107.5099660796328
 30
0.0
 11
673.92173912218061
 21
62.516610132721212
 31
0.0
  0
LINE
  5
1097
  8
LOGO
 62
     6
 10
665.74112895001485
 20
162.72908474175139
 30
0.0
 11
665.74112895001485
 21
125.9163389670057
 31
0.0
  0
TEXT
  5
1098
  8
LOGO
  6
CONTINUOUS
 62
     7
 10
811.61878585422664
 20
133.86502755208321
 30
0.0
 40
20.451525430414289
  1
63
  7
CHINESET
 72
     1
 11
828.17478263122871
 21
144.0907902672904
 31
0.0
 73
     2
  0
LINE
  5
1099
  8
LOGO
 62
     6
 10
859.10172341945474
 20
62.516610132721553
 30
0.0
 11
793.43022270907193
 21
62.516610132721489
 31
0.0
  0
LINE
  5
109A
  8
LOGO
 62
     6
 10
859.10172341945474
 20
125.9163389670059
 30
0.0
 11
793.43022270907193
 21
125.9163389670059
 31
0.0
  0
LINE
  5
109B
  8
LOGO
 62
     6
 10
859.10172341945474
 20
107.509966079633
 30
0.0
 11
793.43022270907193
 21
107.509966079633
 31
0.0
  0
LINE
  5
109C
  8
LOGO
 62
     6
 10
859.10172341945474
 20
162.7290847417519
 30
0.0
 11
793.43022270907193
 21
162.72908474175159
 31
0.0
  0
LINE
  5
109D
  8
LOGO
 62
     6
 10
793.43022270907193
 20
107.509966079633
 30
0.0
 11
793.43022270907193
 21
62.516610132721553
 31
0.0
  0
LINE
  5
109E
  8
LOGO
 62
     6
 10
755.72784084383795
 20
107.5099660796328
 30
0.0
 11
755.72784084383795
 21
62.516610132721347
 31
0.0
  0
TEXT
  5
109F
  8
LOGO
 62
     6
 10
698.46356963867788
 20
85.431980752784
 30
0.0
 40
16.361220344331429
  1
型式
  7
CHINESET
 72
     4
 11
714.82478998300917
 21
93.193898278342814
 31
0.0
  0
LINE
  5
10A0
  8
LOGO
 62
     6
 10
714.82478998300917
 20
125.9163389670057
 30
0.0
 11
714.82478998300917
 21
107.5099660796328
 31
0.0
  0
LINE
  5
10A1
  8
LOGO
 62
     6
 10
793.43022270907193
 20
162.72908474175159
 30
0.0
 11
793.43022270907193
 21
125.9163389670059
 31
0.0
  0
LINE
  5
10A2
  8
LOGO
 62
     6
 10
763.90845101600371
 20
162.72908474175139
 30
0.0
 11
763.90845101600371
 21
125.9163389670057
 31
0.0
  0
LINE
  5
10A3
  8
LOGO
  6
CONTINUOUS
 62
     7
 10
770.80886158462295
 20
144.19231529105559
 30
0.0
 11
787.06402688134415
 21
144.19231529105559
 31
0.0
  0
LINE
  5
10A4
  8
LOGO
 62
     6
 10
879.88475722858448
 20
107.5099660796328
 30
0.0
 11
879.88475722858448
 21
62.516610132721212
 31
0.0
  0
LINE
  5
10A5
  8
LOGO
 62
     6
 10
859.10172341945474
 20
107.509966079633
 30
0.0
 11
859.10172341945474
 21
62.516610132721688
 31
0.0
  0
TEXT
  5
10A6
  8
LOGO
  6
CONTINUOUS
 62
     6
 10
813.60550494067354
 20
67.629491490325051
 30
0.0
 40
10.225762715207139
  1
Bore
 41
0.8
  7
CHINESET
 72
     4
 11
826.26597306426333
 21
72.742372847928621
 31
0.0
  0
TEXT
  5
10A7
  8
LOGO
 62
     6
 10
810.6205561099963
 20
85.013288106177242
 30
0.0
 40
16.361220344331429
  1
內徑
 41
0.9
  7
CHINESET
 72
     4
 11
826.26597306426333
 21
93.193898278342957
 31
0.0
  0
LINE
  5
10A8
  8
LOGO
  6
CONTINUOUS
 62
     7
 10
865.44400627630148
 20
144.19231529105579
 30
0.0
 11
881.6991715730228
 21
144.19231529105579
 31
0.0
  0
LINE
  5
10A9
  8
LOGO
 62
     6
 10
859.10172341945474
 20
162.7290847417519
 30
0.0
 11
859.10172341945474
 21
125.9163389670059
 31
0.0
  0
LINE
  5
10AA
  8
LOGO
 62
     6
 10
826.26597212110244
 20
125.9163389670059
 30
0.0
 11
826.26597212110244
 21
107.509966079633
 31
0.0
  0
LINE
  5
10AB
  8
LOGO
 62
     6
 10
888.06536740075023
 20
162.72908474175139
 30
0.0
 11
888.06536740075023
 21
125.9163389670057
 31
0.0
  0
LINE
  5
10AC
  8
LOGO
 62
     6
 10
923.00066314098353
 20
125.9163389670057
 30
0.0
 11
923.00066314098353
 21
107.5099660796328
 31
0.0
  0
TEXT
  5
10AD
  8
LOGO
 62
     6
 10
1007.72280281105
 20
85.717819001910087
 30
0.0
 40
16.361220344331429
  1
雙心轉軸
 41
0.9
  7
CHINESET
 72
     4
 11
1037.326385871575
 21
93.193898278343028
 31
0.0
  0
LINE
  5
10AE
  8
LOGO
 62
     6
 10
1097.1470977555359
 20
62.516610132721688
 30
0.0
 11
977.50567398761291
 21
62.516610132721553
 31
0.0
  0
LINE
  5
10AF
  8
LOGO
 62
     6
 10
1097.1470977555359
 20
107.509966079633
 30
0.0
 11
977.50567398761291
 21
107.509966079633
 31
0.0
  0
TEXT
  5
10B0
  8
LOGO
  6
CONTINUOUS
 62
     6
 10
997.00766430875819
 20
69.333785276192955
 30
0.0
 40
10.225762715207139
  1
End rod type
 41
0.8
  7
CHINESET
 72
     4
 11
1037.326385871575
 21
72.742372847928692
 31
0.0
  0
LINE
  5
10B1
  8
LOGO
 62
     6
 10
977.50567398761291
 20
107.509966079633
 30
0.0
 11
977.50567398761291
 21
62.516610132721553
 31
0.0
  0
LINE
  5
10B2
  8
LOGO
 62
     6
 10
964.38399009766954
 20
107.5099660796328
 30
0.0
 11
964.38399009766954
 21
62.346955346695438
 31
0.0
  0
LINE
  5
10B3
  8
LOGO
 62
     6
 10
956.20337992550378
 20
162.72908474175139
 30
0.0
 11
956.20337992550378
 21
125.9163389670056
 31
0.0
  0
LINE
  5
10B4
  8
LOGO
  6
CONTINUOUS
 62
     7
 10
963.44989829868916
 20
144.19231529105559
 30
0.0
 11
979.70506359541048
 21
144.19231529105559
 31
0.0
  0
TEXT
  5
10B5
  8
LOGO
  6
CONTINUOUS
 62
     7
 10
998.06406694860834
 20
133.86502755208301
 30
0.0
 40
20.451525430414289
  1
D
  7
CHINESET
 72
     1
 11
1004.881242092079
 21
144.0907902672902
 31
0.0
 73
     2
  0
LINE
  5
10B6
  8
LOGO
 62
     6
 10
1023.002345953066
 20
162.72908474175159
 30
0.0
 11
1023.002345953066
 21
125.9163389670057
 31
0.0
  0
LINE
  5
10B7
  8
LOGO
 62
     6
 10
985.75569527886023
 20
162.72908474175159
 30
0.0
 11
985.75569527886023
 21
125.9163389670057
 31
0.0
  0
LINE
  5
10B8
  8
LOGO
 62
     6
 10
1023.002345953066
 20
125.9163389670057
 30
0.0
 11
985.75569527886023
 21
125.9163389670057
 31
0.0
  0
LINE
  5
10B9
  8
LOGO
 62
     6
 10
1004.379020615963
 20
125.9163389670057
 30
0.0
 11
1004.379020615963
 21
107.509966079633
 31
0.0
  0
LINE
  5
10BA
  8
LOGO
 62
     6
 10
1023.002345953066
 20
162.72908474175159
 30
0.0
 11
985.75569527886023
 21
162.72908474175159
 31
0.0
  0
LINE
  5
10BB
  8
LOGO
 62
     6
 10
1097.1470977555359
 20
107.509966079633
 30
0.0
 11
1097.1470977555359
 21
62.516610132721688
 31
0.0
  0
LINE
  5
10BC
  8
LOGO
 62
     1
 10
1107.0
 20
52.290847417514229
 30
0.0
 11
1107.0
 21
175.0
 31
0.0
  0
ENDSEC
  0
EOF
