  0
SECTION
  2
HEADER
  9
$ACADVER
  1
AC1009
  9
$INSBASE
 10
0.0
 20
0.0
 30
0.0
  9
$EXTMIN
 10
129.9426290601757
 20
26.991761668342861
 30
-0.0015258207003583
  9
$EXTMAX
 10
810.03296090526635
 20
567.00824109768519
 30
0.0000000349246037
  9
$LIMMIN
 10
0.0
 20
0.0
  9
$LIMMAX
 10
840.0
 20
594.0
  9
$ORTHOMODE
 70
     0
  9
$REGENMODE
 70
     1
  9
$FILLMODE
 70
     1
  9
$QTEXTMODE
 70
     0
  9
$MIRRTEXT
 70
     1
  9
$DRAGMODE
 70
     2
  9
$LTSCALE
 40
1.0
  9
$OSMODE
 70
    39
  9
$ATTMODE
 70
     1
  9
$TEXTSIZE
 40
3.0
  9
$TRACEWID
 40
0.05
  9
$TEXTSTYLE
  7
ITALICT
  9
$CLAYER
  8
0
  9
$CELTYPE
  6
CONTINUOUS
  9
$CECOLOR
 62
   256
  9
$DIMSCALE
 40
1.0
  9
$DIMASZ
 40
3.0
  9
$DIMEXO
 40
1.0
  9
$DIMDLI
 40
1.6471290567571920E+015
  9
$DIMRND
 40
0.0
  9
$DIMDLE
 40
0.0
  9
$DIMEXE
 40
1.0
  9
$DIMTP
 40
0.15
  9
$DIMTM
 40
-0.1
  9
$DIMTXT
 40
3.0
  9
$DIMCEN
 40
2.0
  9
$DIMTSZ
 40
0.0
  9
$DIMTOL
 70
     0
  9
$DIMLIM
 70
     0
  9
$DIMTIH
 70
     0
  9
$DIMTOH
 70
     0
  9
$DIMSE1
 70
     0
  9
$DIMSE2
 70
     0
  9
$DIMTAD
 70
     1
  9
$DIMZIN
 70
     0
  9
$DIMBLK
  1

  9
$DIMASO
 70
     0
  9
$DIMSHO
 70
     0
  9
$DIMPOST
  1

  9
$DIMAPOST
  1

  9
$DIMALT
 70
     0
  9
$DIMALTD
 70
     2
  9
$DIMALTF
 40
25.399999999999999
  9
$DIMLFAC
 40
1.0
  9
$DIMTOFL
 70
     1
  9
$DIMTVP
 40
1.0
  9
$DIMTIX
 70
     0
  9
$DIMSOXD
 70
     0
  9
$DIMSAH
 70
     0
  9
$DIMBLK1
  1

  9
$DIMBLK2
  1

  9
$DIMSTYLE
  2
STANDARD
  9
$DIMCLRD
 70
     0
  9
$DIMCLRE
 70
     0
  9
$DIMCLRT
 70
     0
  9
$DIMTFAC
 40
1.0
  9
$DIMGAP
 40
0.09
  9
$LUNITS
 70
     2
  9
$LUPREC
 70
     2
  9
$SKETCHINC
 40
0.1
  9
$FILLETRAD
 40
0.75
  9
$AUNITS
 70
     0
  9
$AUPREC
 70
     2
  9
$MENU
  1
ACAD
  9
$ELEVATION
 40
0.0
  9
$PELEVATION
 40
0.0
  9
$THICKNESS
 40
0.0
  9
$LIMCHECK
 70
     0
  9
$BLIPMODE
 70
     0
  9
$CHAMFERA
 40
0.0
  9
$CHAMFERB
 40
0.0
  9
$SKPOLY
 70
     1
  9
$TDCREATE
 40
2450580.7034460641
  9
$TDUPDATE
 40
2451939.407186389
  9
$TDINDWG
 40
0.0930870023
  9
$TDUSRTIMER
 40
0.0930870023
  9
$USRTIMER
 70
     1
  9
$ANGBASE
 50
0.0
  9
$ANGDIR
 70
     0
  9
$PDMODE
 70
     0
  9
$PDSIZE
 40
0.0
  9
$PLINEWID
 40
0.0
  9
$COORDS
 70
     2
  9
$SPLFRAME
 70
     0
  9
$SPLINETYPE
 70
     6
  9
$SPLINESEGS
 70
     8
  9
$ATTDIA
 70
     0
  9
$ATTREQ
 70
     1
  9
$HANDLING
 70
 12289
  9
$HANDSEED
  5
152B
  9
$SURFTAB1
 70
     6
  9
$SURFTAB2
 70
     6
  9
$SURFTYPE
 70
     6
  9
$SURFU
 70
     6
  9
$SURFV
 70
     6
  9
$UCSNAME
  2

  9
$UCSORG
 10
0.0
 20
0.0
 30
0.0
  9
$UCSXDIR
 10
1.0
 20
0.0
 30
0.0
  9
$UCSYDIR
 10
0.0
 20
1.0
 30
0.0
  9
$PUCSNAME
  2

  9
$PUCSORG
 10
0.0
 20
0.0
 30
0.0
  9
$PUCSXDIR
 10
1.0
 20
0.0
 30
0.0
  9
$PUCSYDIR
 10
0.0
 20
1.0
 30
0.0
  9
$USERI1
 70
     0
  9
$USERI2
 70
-31485
  9
$USERI3
 70
     0
  9
$USERI4
 70
     0
  9
$USERI5
 70
     0
  9
$USERR1
 40
0.0
  9
$USERR2
 40
0.0
  9
$USERR3
 40
0.0
  9
$USERR4
 40
0.0
  9
$USERR5
 40
0.0
  9
$WORLDVIEW
 70
     1
  9
$SHADEDGE
 70
     3
  9
$SHADEDIF
 70
    70
  9
$TILEMODE
 70
     1
  9
$MAXACTVP
 70
    64
  9
$PLIMCHECK
 70
     0
  9
$PEXTMIN
 10
1.0000000000000000E+020
 20
1.0000000000000000E+020
 30
1.0000000000000000E+020
  9
$PEXTMAX
 10
-1.0000000000000000E+020
 20
-1.0000000000000000E+020
 30
-1.0000000000000000E+020
  9
$PLIMMIN
 10
0.0
 20
0.0
  9
$PLIMMAX
 10
12.0
 20
9.0
  9
$UNITMODE
 70
     0
  9
$VISRETAIN
 70
     1
  9
$PLINEGEN
 70
     0
  9
$PSLTSCALE
 70
     0
  0
ENDSEC
  0
SECTION
  2
TABLES
  0
TABLE
  2
VPORT
 70
     2
  0
VPORT
  2
*ACTIVE
 70
     0
 10
0.0
 20
0.0
 11
1.0
 21
1.0
 12
469.9877949827212
 22
297.00000138301402
 13
0.0
 23
0.0
 14
1.0
 24
1.0
 15
0.0
 25
0.0
 16
0.0
 26
0.0
 36
1.0
 17
0.0
 27
0.0
 37
0.0
 40
545.97254354069526
 41
1.7274401473296499
 42
1.0
 43
0.0
 44
0.0
 50
0.0
 51
0.0
 71
     0
 72
   100
 73
     1
 74
     1
 75
     0
 76
     0
 77
     0
 78
     0
  0
ENDTAB
  0
TABLE
  2
LTYPE
 70
     3
  0
LTYPE
  2
CONTINUOUS
 70
     0
  3
Solid line
 72
    65
 73
     0
 40
0.0
  0
LTYPE
  2
CENTER
 70
     0
  3
_______________ _ _______________ _ ___________
 72
    65
 73
     4
 40
18.0
 49
15.0
 49
-1.0
 49
1.0
 49
-1.0
  0
LTYPE
  2
HIDDEN
 70
     0
  3
___ ___ ___ ___ ___ ___ ___ ___ ___ ___ 
 72
    65
 73
     2
 40
4.0
 49
3.0
 49
-1.0
  0
ENDTAB
  0
TABLE
  2
LAYER
 70
     5
  0
LAYER
  2
0
 70
     0
 62
     7
  6
CONTINUOUS
  0
LAYER
  2
CENTER
 70
     0
 62
     1
  6
CENTER
  0
LAYER
  2
DIM
 70
     0
 62
     5
  6
CONTINUOUS
  0
LAYER
  2
HIDDEN
 70
     0
 62
     6
  6
HIDDEN
  0
LAYER
  2
LOGO
 70
     0
 62
     7
  6
CONTINUOUS
  0
ENDTAB
  0
TABLE
  2
STYLE
 70
     8
  0
STYLE
  2
STANDARD
 70
     0
 40
0.0
 41
1.0
 50
0.0
 71
     0
 42
3.0
  3
txt
  4

  0
STYLE
  2
ITALICT
 70
     0
 40
0.0
 41
1.0
 50
0.0
 71
     0
 42
3.0
  3
ITALICT.SHX
  4

  0
STYLE
  2
ROMANSS
 70
     0
 40
0.0
 41
1.0
 50
0.0
 71
     0
 42
3.0
  3
ROMANSS.SHX
  4
LMP
  0
STYLE
  2
CHINESET
 70
     0
 40
0.0
 41
1.0
 50
0.0
 71
     0
 42
4.0
  3
C:\r13\com\fonts\simplex.shx
  4
C:\r13\com\fonts\chineset.shx
  0
STYLE
  2
LOGO
 70
     0
 40
0.0
 41
1.0
 50
0.0
 71
     0
 42
5.0
  3
txt
  4

  0
ENDTAB
  0
TABLE
  2
VIEW
 70
     0
  0
ENDTAB
  0
TABLE
  2
UCS
 70
     0
  0
ENDTAB
  0
TABLE
  2
APPID
 70
     2
  0
APPID
  2
ACAD
 70
     0
  0
APPID
  2
TCAD
 70
     0
  0
ENDTAB
  0
TABLE
  2
DIMSTYLE
 70
     1
  0
DIMSTYLE
  2
STANDARD
 70
     0
  3

  4

  5

  6

  7

 40
1.0
 41
0.18
 42
0.0625
 43
0.38
 44
0.18
 45
0.0
 46
0.0
 47
0.0
 48
0.0
140
0.18
141
0.09
142
0.0
143
25.399999999999999
144
1.0
145
0.0
146
1.0
147
0.09
 71
     0
 72
     0
 73
     1
 74
     1
 75
     0
 76
     0
 77
     0
 78
     0
170
     0
171
     2
172
     0
173
     0
174
     0
175
     0
176
     0
177
     0
178
     0
  0
ENDTAB
  0
ENDSEC
  0
SECTION
  2
BLOCKS
  0
BLOCK
  8
0
  2
$MODEL_SPACE
 70
     0
 10
0.0
 20
0.0
 30
0.0
  3
$MODEL_SPACE
  1

  0
ENDBLK
  5
3F
  8
0
  0
BLOCK
 67
     1
  8
0
  2
$PAPER_SPACE
 70
     0
 10
0.0
 20
0.0
 30
0.0
  3
$PAPER_SPACE
  1

  0
ENDBLK
  5
3D
 67
     1
  8
0
  0
ENDSEC
  0
SECTION
  2
ENTITIES
  0
LINE
  5
B25
  8
0
 62
     4
 10
810.0
 20
567.0
 30
0.0
 11
810.0
 21
137.0
 31
0.0
  0
LINE
  5
B26
  8
0
 62
     4
 10
130.0
 20
137.0
 30
0.0
 11
130.0
 21
567.0
 31
0.0
  0
LINE
  5
B28
  8
0
 62
     4
 10
810.0
 20
137.0
 30
0.0
 11
130.0
 21
137.0
 31
0.0
  0
LINE
  5
B29
  8
0
 62
     4
 10
130.0
 20
567.0
 30
0.0
 11
810.0
 21
567.0
 31
0.0
  0
LINE
  5
B32
  8
CENTER
  6
CENTER
 10
323.02663243378868
 20
211.00458911885269
 30
0.0
 11
600.64292522575977
 21
211.00458911885269
 31
0.0
  0
LINE
  5
B33
  8
0
 10
424.02663243378879
 20
235.20458911885271
 30
0.0
 11
360.02663243378879
 21
235.2045891188526
 31
0.0
  0
LINE
  5
B34
  8
0
 10
424.02663243378879
 20
186.80458911885259
 30
0.0
 11
360.02663243378879
 21
186.80458911885259
 31
0.0
  0
LINE
  5
B35
  8
0
 10
424.02663243378879
 20
199.2023648162008
 30
0.0
 11
360.02663243378879
 21
199.2023648162008
 31
0.0
  0
LINE
  5
B36
  8
0
 10
424.02663243378879
 20
222.8068134215045
 30
0.0
 11
360.02663243378879
 21
222.8068134215045
 31
0.0
  0
LINE
  5
B37
  8
CENTER
  6
CENTER
 10
323.02663243378868
 20
329.88443071016212
 30
0.0
 11
599.4140508802368
 21
329.88443071016212
 31
0.0
  0
LINE
  5
B38
  8
DIM
  6
CONTINUOUS
 10
317.32428921319882
 20
265.38443071016201
 30
0.0
 11
605.89007969745467
 21
265.38443071016201
 31
0.0
  0
LINE
  5
B39
  8
0
 10
424.02663243378879
 20
491.94204973755092
 30
0.0
 11
360.02663243378879
 21
491.94204973755092
 31
0.0
  0
LINE
  5
B3A
  8
0
 10
424.02663243378879
 20
479.54427404020282
 30
0.0
 11
360.02663243378879
 21
479.54427404020282
 31
0.0
  0
LINE
  5
B3B
  8
0
 10
424.02663243378879
 20
455.93982543489898
 30
0.0
 11
360.02663243378879
 21
455.93982543489898
 31
0.0
  0
LINE
  5
B3C
  8
0
 10
424.02663243378879
 20
443.54204973755088
 30
0.0
 11
360.02663243378879
 21
443.54204973755088
 31
0.0
  0
LINE
  5
B3D
  8
0
 10
424.02663243378862
 20
354.084430710162
 30
0.0
 11
360.02663243378868
 21
354.084430710162
 31
0.0
  0
LINE
  5
B3E
  8
0
 10
424.02663243378868
 20
341.6866550128139
 30
0.0
 11
360.02663243378879
 21
341.6866550128139
 31
0.0
  0
LINE
  5
B3F
  8
0
 10
424.02663243378868
 20
318.08220640751023
 30
0.0
 11
360.02663243378879
 21
318.08220640751023
 31
0.0
  0
LINE
  5
B40
  8
0
 10
424.02663243378868
 20
305.68443071016202
 30
0.0
 11
360.02663243378879
 21
305.68443071016202
 31
0.0
  0
LINE
  5
B41
  8
CENTER
  6
CENTER
 10
323.02663243378868
 20
467.74204973755081
 30
0.0
 11
600.64292522575977
 21
467.74204973755081
 31
0.0
  0
ARC
  5
B42
  8
0
  6
CONTINUOUS
 10
186.66655414267089
 20
376.38443071016212
 30
0.0
 40
2.5
 50
180.0
 51
0.0
  0
LINE
  5
B43
  8
0
 10
178.66655414267089
 20
400.38443071016212
 30
0.0
 11
178.66655414267089
 21
371.38443071016212
 31
0.0
  0
LINE
  5
B44
  8
0
 10
194.66655414267089
 20
400.38443071016212
 30
0.0
 11
194.66655414267089
 21
371.38443071016212
 31
0.0
  0
LINE
  5
B45
  8
CENTER
  6
CENTER
 10
186.66655414267089
 20
404.38443071016212
 30
0.0
 11
186.66655414267089
 21
286.38443071016201
 31
0.0
  0
LINE
  5
B46
  8
0
  6
CONTINUOUS
 10
221.66655414267089
 20
370.38443071016212
 30
0.0
 11
151.66655414267089
 21
370.38443071016212
 31
0.0
  0
LINE
  5
B47
  8
0
  6
CONTINUOUS
 10
222.66655414267089
 20
369.38443071016212
 30
0.0
 11
150.66655414267089
 21
369.38443071016212
 31
0.0
  0
LINE
  5
B48
  8
0
  6
CONTINUOUS
 10
242.16655414267089
 20
362.38443071016212
 30
0.0
 11
149.16655414267089
 21
362.38443071016201
 31
0.0
  0
LINE
  5
B49
  8
0
  6
CONTINUOUS
 10
222.66655414267089
 20
290.38443071016201
 30
0.0
 11
150.66655414267089
 21
290.38443071016201
 31
0.0
  0
LINE
  5
B4A
  8
0
  6
CONTINUOUS
 10
221.66655414267089
 20
289.38443071016201
 30
0.0
 11
151.66655414267089
 21
289.38443071016201
 31
0.0
  0
LINE
  5
B4B
  8
CENTER
  6
CENTER
 10
245.16655414267089
 20
329.88443071016212
 30
0.0
 11
146.16655414267089
 21
329.88443071016212
 31
0.0
  0
LINE
  5
B4C
  8
0
  6
CONTINUOUS
 10
242.16655414267089
 20
297.38443071016201
 30
0.0
 11
149.16655414267089
 21
297.38443071016201
 31
0.0
  0
LINE
  5
B4D
  8
0
  6
CONTINUOUS
 10
150.66655414267089
 20
369.38443071016212
 30
0.0
 11
151.66655414267089
 21
370.38443071016212
 31
0.0
  0
LINE
  5
B4E
  8
0
 10
150.66655414267089
 20
362.38443071016212
 30
0.0
 11
150.66655414267089
 21
369.38443071016212
 31
0.0
  0
LINE
  5
B4F
  8
0
 10
150.66655414267089
 20
297.38443071016201
 30
0.0
 11
150.66655414267089
 21
290.38443071016201
 31
0.0
  0
LINE
  5
B50
  8
0
  6
CONTINUOUS
 10
150.66655414267089
 20
290.38443071016201
 30
0.0
 11
151.66655414267089
 21
289.38443071016201
 31
0.0
  0
LINE
  5
B51
  8
CENTER
  6
CENTER
 10
156.66655414267089
 20
313.48207308021591
 30
0.0
 11
156.66655414267089
 21
293.11794518312689
 31
0.0
  0
LINE
  5
B52
  8
0
 10
149.16655414267089
 20
362.38443071016201
 30
0.0
 11
149.16655414267089
 21
297.38443071016201
 31
0.0
  0
LINE
  5
B53
  8
CENTER
  6
CENTER
 10
156.66655414267089
 20
347.54752031667152
 30
0.0
 11
156.66655414267089
 21
367.22309200344142
 31
0.0
  0
LINE
  5
B54
  8
0
 10
196.66655414267089
 20
371.38443071016212
 30
0.0
 11
196.66655414267089
 21
370.38443071016212
 31
0.0
  0
LINE
  5
B55
  8
0
 10
176.66655414267089
 20
371.38443071016212
 30
0.0
 11
176.66655414267089
 21
370.38443071016212
 31
0.0
  0
LINE
  5
B56
  8
0
  6
CONTINUOUS
 10
196.66655414267089
 20
371.38443071016212
 30
0.0
 11
176.66655414267089
 21
371.38443071016212
 31
0.0
  0
LINE
  5
B57
  8
0
  6
CONTINUOUS
 10
222.66655414267089
 20
369.38443071016212
 30
0.0
 11
221.66655414267089
 21
370.38443071016212
 31
0.0
  0
LINE
  5
B58
  8
0
 10
222.66655414267089
 20
362.38443071016212
 30
0.0
 11
222.66655414267089
 21
369.38443071016212
 31
0.0
  0
LINE
  5
B59
  8
CENTER
  6
CENTER
 10
195.16655414267089
 20
317.38443071016212
 30
0.0
 11
195.16655414267089
 21
304.38443071016212
 31
0.0
  0
LINE
  5
B5A
  8
0
 10
213.16655414267089
 20
307.38443071016212
 30
0.0
 11
213.16655414267089
 21
310.98998708247098
 31
0.0
  0
LINE
  5
B5B
  8
0
 10
215.16655414267089
 20
307.38443071016212
 30
0.0
 11
215.16655414267089
 21
310.98998708247098
 31
0.0
  0
LINE
  5
B5C
  8
0
 10
206.16655414267089
 20
307.38443071016212
 30
0.0
 11
206.16655414267089
 21
313.15123017948071
 31
0.0
  0
ARC
  5
B5D
  8
0
 10
195.16655414267089
 20
310.88443071016212
 30
0.0
 40
7.5
 50
335.68426082882991
 51
34.193077125139702
  0
LINE
  5
B5E
  8
0
 10
222.16655414267089
 20
307.38443071016212
 30
0.0
 11
222.16655414267089
 21
313.15123017948071
 31
0.0
  0
ARC
  5
B5F
  8
0
 10
223.16655414267089
 20
307.38443071016212
 30
0.0
 40
1.0
 50
180.0
 51
270.0
  0
LINE
  5
B60
  8
0
 10
212.16655414267089
 20
306.38443071016212
 30
0.0
 11
202.91252083508621
 21
306.38443071016212
 31
0.0
  0
ARC
  5
B61
  8
0
 10
216.16655414267089
 20
307.38443071016212
 30
0.0
 40
1.0
 50
180.0
 51
270.0
  0
ARC
  5
B62
  8
0
 10
212.16655414267089
 20
307.38443071016212
 30
0.0
 40
1.0
 50
270.0
 51
0.0
  0
ARC
  5
B63
  8
0
 10
202.91252083508621
 20
307.38443071016212
 30
0.0
 40
1.0
 50
155.68426082881459
 51
270.0
  0
ARC
  5
B64
  8
0
 10
205.16655414267089
 20
307.38443071016212
 30
0.0
 40
1.0
 50
270.0
 51
0.0
  0
ARC
  5
B65
  8
0
 10
223.16655414267089
 20
313.15123017948071
 30
0.0
 40
1.0
 50
118.2737136313652
 51
180.0
  0
LINE
  5
B66
  8
0
 10
222.16655414267089
 20
352.38443071016212
 30
0.0
 11
222.16655414267089
 21
346.61763124084348
 31
0.0
  0
ARC
  5
B67
  8
0
 10
223.16655414267089
 20
346.61763124084348
 30
0.0
 40
1.0
 50
180.0
 51
241.7262863686347
  0
ARC
  5
B68
  8
0
 10
223.16655414267089
 20
352.38443071016212
 30
0.0
 40
1.0
 50
90.0
 51
180.0
  0
ARC
  5
B69
  8
0
 10
195.16655414267089
 20
348.88443071016212
 30
0.0
 40
7.5
 50
245.6842608288265
 51
304.19307712514018
  0
LINE
  5
B6A
  8
0
 10
191.66655414267089
 20
337.88443071016212
 30
0.0
 11
197.43335361198939
 21
337.88443071016212
 31
0.0
  0
ARC
  5
B6B
  8
0
 10
195.2721105149798
 20
327.88443071016212
 30
0.0
 40
1.0
 50
6.0423284190542867
 51
90.0
  0
ARC
  5
B6C
  8
0
 10
214.16655414267089
 20
329.88443071016212
 30
0.0
 40
17.999999999999972
 50
139.6507090048799
 51
173.9576715809458
  0
ARC
  5
B6D
  8
0
 10
195.2721105149798
 20
331.88443071016212
 30
0.0
 40
1.0
 50
270.0
 51
353.95767158094571
  0
ARC
  5
B6E
  8
0
 10
195.16655414267089
 20
310.88443071016212
 30
0.0
 40
7.5
 50
55.806922874859701
 51
114.315739171172
  0
LINE
  5
B6F
  8
CENTER
  6
CENTER
 10
201.66655414267089
 20
310.88443071016212
 30
0.0
 11
188.66655414267089
 21
310.88443071016212
 31
0.0
  0
LINE
  5
B70
  8
0
 10
191.66655414267089
 20
321.88443071016212
 30
0.0
 11
197.43335361198939
 21
321.88443071016212
 31
0.0
  0
ARC
  5
B71
  8
0
 10
214.16655414267089
 20
329.88443071016212
 30
0.0
 40
17.999999999999972
 50
186.04232841905389
 51
220.34929099511979
  0
ARC
  5
B72
  8
0
 10
214.16655414267089
 20
329.88443071016212
 30
0.0
 40
17.999999999999972
 50
229.6507090048799
 51
263.95767158094588
  0
ARC
  5
B73
  8
0
 10
216.16655414267089
 20
310.98998708247098
 30
0.0
 40
1.0
 50
96.042328419054286
 51
180.0
  0
ARC
  5
B74
  8
0
 10
212.16655414267089
 20
310.98998708247098
 30
0.0
 40
1.0
 50
0.0
 51
83.957671580945714
  0
ARC
  5
B75
  8
0
 10
202.18880950404551
 20
315.78536572797702
 30
0.0
 40
0.5
 50
49.650709004877889
 51
135.0
  0
ARC
  5
B76
  8
0
 10
205.16655414267089
 20
313.15123017948071
 30
0.0
 40
1.0
 50
0.0
 51
61.72628636863471
  0
ARC
  5
B77
  8
0
 10
200.06748916048591
 20
317.90668607153668
 30
0.0
 40
0.5
 50
315.00000000000688
 51
40.349290995122097
  0
ARC
  5
B78
  8
0
 10
199.66242166361451
 20
317.50161857466537
 30
0.0
 40
0.5
 50
235.80692287485761
 51
315.0
  0
LINE
  5
B79
  8
0
 10
200.4210425510793
 20
317.55313268094352
 30
0.0
 11
200.0159750542079
 21
317.14806518407221
 31
0.0
  0
LINE
  5
B7A
  8
0
 10
201.8352561134524
 20
316.1389191185703
 30
0.0
 11
201.43018861658101
 21
315.73385162169888
 31
0.0
  0
ARC
  5
B7B
  8
0
 10
201.78374200717431
 20
315.38029823110571
 30
0.0
 40
0.5
 50
135.0
 51
214.19307712514231
  0
ARC
  5
B7C
  8
0
 10
197.43335361198939
 20
320.88443071016212
 30
0.0
 40
1.0
 50
28.273713631367489
 51
90.0
  0
LINE
  5
B7D
  8
0
 10
200.4210425510793
 20
342.21572873938072
 30
0.0
 11
200.0159750542079
 21
342.62079623625198
 31
0.0
  0
ARC
  5
B7E
  8
0
 10
197.43335361198939
 20
338.88443071016212
 30
0.0
 40
1.0
 50
270.0
 51
331.72628636863169
  0
ARC
  5
B7F
  8
0
 10
200.06748916048591
 20
341.8621753487875
 30
0.0
 40
0.5
 50
319.65070900487791
 51
44.999999999993094
  0
ARC
  5
B80
  8
0
 10
199.66242166361451
 20
342.26724284565881
 30
0.0
 40
0.5
 50
45.0
 51
124.1930771251423
  0
LINE
  5
B81
  8
0
 10
190.66655414267089
 20
327.88443071016212
 30
0.0
 11
190.66655414267089
 21
318.63039740257727
 31
0.0
  0
ARC
  5
B82
  8
0
 10
191.66655414267089
 20
318.63039740257727
 30
0.0
 40
1.0
 50
180.0
 51
294.31573917118533
  0
ARC
  5
B83
  8
0
 10
191.66655414267089
 20
320.88443071016212
 30
0.0
 40
1.0
 50
90.0
 51
180.0
  0
LINE
  5
B84
  8
0
 10
190.66655414267089
 20
331.88443071016212
 30
0.0
 11
190.66655414267089
 21
341.13846401774691
 31
0.0
  0
ARC
  5
B85
  8
0
 10
191.66655414267089
 20
327.88443071016212
 30
0.0
 40
1.0
 50
90.0
 51
180.0
  0
ARC
  5
B86
  8
0
 10
191.66655414267089
 20
331.88443071016212
 30
0.0
 40
1.0
 50
180.0
 51
270.0
  0
LINE
  5
B87
  8
0
 10
191.66655414267089
 20
328.88443071016212
 30
0.0
 11
195.2721105149798
 21
328.88443071016212
 31
0.0
  0
LINE
  5
B88
  8
0
 10
191.66655414267089
 20
330.88443071016212
 30
0.0
 11
195.2721105149798
 21
330.88443071016212
 31
0.0
  0
ARC
  5
B89
  8
0
 10
191.66655414267089
 20
341.13846401774691
 30
0.0
 40
1.0
 50
65.684260828814644
 51
180.0
  0
ARC
  5
B8A
  8
0
 10
191.66655414267089
 20
338.88443071016212
 30
0.0
 40
1.0
 50
180.0
 51
270.0
  0
LINE
  5
B8B
  8
CENTER
  6
CENTER
 10
201.66655414267089
 20
348.88443071016212
 30
0.0
 11
188.66655414267089
 21
348.88443071016212
 31
0.0
  0
LINE
  5
B8C
  8
0
 10
212.16655414267089
 20
353.38443071016212
 30
0.0
 11
202.91252083508621
 21
353.38443071016212
 31
0.0
  0
ARC
  5
B8D
  8
0
 10
214.16655414267089
 20
329.88443071016212
 30
0.0
 40
17.999999999999972
 50
96.042328419054115
 51
130.34929099511999
  0
LINE
  5
B8E
  8
0
 10
215.16655414267089
 20
352.38443071016212
 30
0.0
 11
215.16655414267089
 21
348.77887433785321
 31
0.0
  0
LINE
  5
B8F
  8
0
 10
213.16655414267089
 20
352.38443071016212
 30
0.0
 11
213.16655414267089
 21
348.77887433785321
 31
0.0
  0
ARC
  5
B90
  8
0
 10
216.16655414267089
 20
348.77887433785321
 30
0.0
 40
1.0
 50
180.0
 51
263.95767158094571
  0
ARC
  5
B91
  8
0
 10
212.16655414267089
 20
348.77887433785321
 30
0.0
 40
1.0
 50
276.04232841905417
 51
0.0
  0
ARC
  5
B92
  8
0
 10
216.16655414267089
 20
352.38443071016212
 30
0.0
 40
1.0
 50
90.0
 51
180.0
  0
ARC
  5
B93
  8
0
 10
212.16655414267089
 20
352.38443071016212
 30
0.0
 40
1.0
 50
0.0
 51
90.0
  0
ARC
  5
B94
  8
0
 10
195.16655414267089
 20
348.88443071016212
 30
0.0
 40
7.5
 50
325.80692287486028
 51
24.31573917117197
  0
LINE
  5
B95
  8
0
 10
206.16655414267089
 20
352.38443071016212
 30
0.0
 11
206.16655414267089
 21
346.61763124084348
 31
0.0
  0
ARC
  5
B96
  8
0
 10
202.18880950404551
 20
343.98349569234711
 30
0.0
 40
0.5
 50
225.0
 51
310.34929099512209
  0
ARC
  5
B97
  8
0
 10
205.16655414267089
 20
346.61763124084348
 30
0.0
 40
1.0
 50
298.27371363136518
 51
0.0
  0
LINE
  5
B98
  8
0
 10
201.8352561134524
 20
343.62994230175377
 30
0.0
 11
201.43018861658101
 21
344.0350097986252
 31
0.0
  0
ARC
  5
B99
  8
0
 10
201.78374200717431
 20
344.38856318921842
 30
0.0
 40
0.5
 50
145.80692287485761
 51
225.0
  0
ARC
  5
B9A
  8
0
 10
202.91252083508621
 20
352.38443071016212
 30
0.0
 40
1.0
 50
90.0
 51
204.3157391711853
  0
ARC
  5
B9B
  8
0
 10
205.16655414267089
 20
352.38443071016212
 30
0.0
 40
1.0
 50
0.0
 51
90.0
  0
POLYLINE
  5
B9C
  8
0
 66
     1
 10
0.0
 20
0.0
 30
0.0
 70
     1
  0
VERTEX
  5
140B
  8
0
 10
198.16655414267089
 20
350.61648151773102
 30
0.0
  0
VERTEX
  5
140C
  8
0
 10
198.16655414267089
 20
347.15237990259322
 30
0.0
  0
VERTEX
  5
140D
  8
0
 10
195.16655414267089
 20
345.42032909502439
 30
0.0
  0
VERTEX
  5
140E
  8
0
 10
192.16655414267089
 20
347.15237990259322
 30
0.0
  0
VERTEX
  5
140F
  8
0
 10
192.16655414267089
 20
350.61648151773102
 30
0.0
  0
VERTEX
  5
1410
  8
0
 10
195.16655414267089
 20
352.34853232529991
 30
0.0
  0
SEQEND
  5
1411
  8
0
  0
CIRCLE
  5
BA4
  8
0
 10
195.16655414267089
 20
348.88443071016212
 30
0.0
 40
5.5
  0
CIRCLE
  5
BA5
  8
0
 10
195.16655414267089
 20
348.88443071016212
 30
0.0
 40
5.0
  0
CIRCLE
  5
BA6
  8
0
 10
195.16655414267089
 20
310.88443071016212
 30
0.0
 40
5.5
  0
CIRCLE
  5
BA7
  8
0
 10
195.16655414267089
 20
310.88443071016212
 30
0.0
 40
5.0
  0
POLYLINE
  5
BA8
  8
0
 66
     1
 10
0.0
 20
0.0
 30
0.0
 70
     1
  0
VERTEX
  5
1412
  8
0
 10
198.16655414267089
 20
312.61648151773102
 30
0.0
  0
VERTEX
  5
1413
  8
0
 10
198.16655414267089
 20
309.15237990259322
 30
0.0
  0
VERTEX
  5
1414
  8
0
 10
195.16655414267089
 20
307.42032909502439
 30
0.0
  0
VERTEX
  5
1415
  8
0
 10
192.16655414267089
 20
309.15237990259322
 30
0.0
  0
VERTEX
  5
1416
  8
0
 10
192.16655414267089
 20
312.61648151773102
 30
0.0
  0
VERTEX
  5
1417
  8
0
 10
195.16655414267089
 20
314.34853232529991
 30
0.0
  0
SEQEND
  5
1418
  8
0
  0
ARC
  5
BB0
  8
0
 10
199.66242166361451
 20
317.50161857466549
 30
0.0
 40
0.5
 50
235.80692287485761
 51
315.0
  0
LINE
  5
BB1
  8
0
 10
222.66655414267089
 20
297.38443071016201
 30
0.0
 11
222.66655414267089
 21
290.38443071016201
 31
0.0
  0
LINE
  5
BB2
  8
0
  6
CONTINUOUS
 10
222.66655414267089
 20
290.38443071016201
 30
0.0
 11
221.66655414267089
 21
289.38443071016201
 31
0.0
  0
LINE
  5
BB3
  8
CENTER
  6
CENTER
 10
216.66655414267089
 20
313.48207308021591
 30
0.0
 11
216.66655414267089
 21
292.95767173255581
 31
0.0
  0
LINE
  5
BB4
  8
CENTER
  6
CENTER
 10
252.96927695139121
 20
311.38443071016212
 30
0.0
 11
233.89888388750489
 21
311.38443071016212
 31
0.0
  0
LINE
  5
BB5
  8
0
  6
CONTINUOUS
 62
     2
 10
247.26655414266941
 20
308.18443071016139
 30
0.0
 11
249.76655414266941
 21
308.18443071016139
 31
0.0
  0
LINE
  5
BB6
  8
0
  6
CONTINUOUS
 62
     2
 10
247.26655414266941
 20
314.58443071016279
 30
0.0
 11
249.76655414266941
 21
314.58443071016279
 31
0.0
  0
LINE
  5
BB7
  8
0
  6
CONTINUOUS
 10
247.26655414266941
 20
315.38443071016212
 30
0.0
 11
248.96655414267019
 21
315.38443071016212
 31
0.0
  0
LINE
  5
BB8
  8
0
  6
CONTINUOUS
 10
247.26655414266941
 20
307.38443071016212
 30
0.0
 11
248.96655414267019
 21
307.38443071016212
 31
0.0
  0
LINE
  5
BB9
  8
0
  6
CONTINUOUS
 10
250.16655414267089
 20
308.58443071016279
 30
0.0
 11
250.16655414267089
 21
314.18443071016122
 31
0.0
  0
LINE
  5
BBA
  8
0
  6
CONTINUOUS
 10
248.96655414267019
 20
307.38443071016212
 30
0.0
 11
248.96655414267019
 21
315.38443071016212
 31
0.0
  0
LINE
  5
BBB
  8
0
  6
CONTINUOUS
 10
248.96655414267019
 20
307.38443071016212
 30
0.0
 11
250.16655414267089
 21
308.58443071016279
 31
0.0
  0
LINE
  5
BBC
  8
0
  6
CONTINUOUS
 10
248.96655414267019
 20
315.38443071016212
 30
0.0
 11
250.16655414267089
 21
314.18443071016139
 31
0.0
  0
LINE
  5
BBD
  8
CENTER
  6
CENTER
 10
233.16655414267089
 20
317.38443071016212
 30
0.0
 11
233.16655414267089
 21
304.38443071016212
 31
0.0
  0
ARC
  5
BBE
  8
0
 10
233.16655414267089
 20
310.88443071016212
 30
0.0
 40
7.5
 50
145.80692287486011
 51
204.31573917116859
  0
ARC
  5
BBF
  8
0
 10
225.42058745025579
 20
307.38443071016212
 30
0.0
 40
1.0
 50
270.0
 51
24.315739171181711
  0
LINE
  5
BC0
  8
0
 10
237.66655414267089
 20
327.88443071016212
 30
0.0
 11
237.66655414267089
 21
318.63039740257722
 31
0.0
  0
ARC
  5
BC1
  8
0
 10
214.16655414267089
 20
329.88443071016212
 30
0.0
 40
17.999999999999972
 50
319.6507090048799
 51
353.95767158094588
  0
LINE
  5
BC2
  8
CENTER
  6
CENTER
 10
239.66655414267089
 20
310.88443071016212
 30
0.0
 11
226.66655414267089
 21
310.88443071016212
 31
0.0
  0
ARC
  5
BC3
  8
0
 10
233.16655414267089
 20
310.88443071016212
 30
0.0
 40
7.5
 50
65.684260828826382
 51
124.19307712513979
  0
ARC
  5
BC4
  8
0
 10
236.66655414267089
 20
318.63039740257722
 30
0.0
 40
1.0
 50
245.68426082881311
 51
0.0
  0
LINE
  5
BC5
  8
0
 10
240.66655414267109
 20
312.38443071016212
 30
0.0
 11
240.16655414267109
 21
312.38443071016212
 31
0.0
  0
ARC
  5
BC6
  8
0
 10
236.66655414267089
 20
335.87483192746549
 30
0.0
 40
1.0
 50
270.0
 51
0.0
  0
LINE
  5
BC7
  8
0
 10
232.19750235000959
 20
334.87483192746549
 30
0.0
 11
236.66655414267089
 21
334.87483192746549
 31
0.0
  0
ARC
  5
BC8
  8
0
 10
232.19750235000959
 20
335.87483192746549
 30
0.0
 40
1.0
 50
198.37797603959399
 51
270.0
  0
ARC
  5
BC9
  8
0
 10
226.5493662781677
 20
315.38029823110571
 30
0.0
 40
0.5
 50
325.80692287485948
 51
45.0
  0
ARC
  5
BCA
  8
0
 10
228.67068662172741
 20
317.50161857466537
 30
0.0
 40
0.5
 50
225.0
 51
304.19307712514228
  0
ARC
  5
BCB
  8
0
 10
228.26561912485599
 20
317.90668607153668
 30
0.0
 40
0.5
 50
139.65070900487791
 51
224.99999999999301
  0
LINE
  5
BCC
  8
0
 10
227.91206573426271
 20
317.55313268094352
 30
0.0
 11
228.31713323113411
 21
317.14806518407198
 31
0.0
  0
LINE
  5
BCD
  8
0
 10
226.4978521718896
 20
316.1389191185703
 30
0.0
 11
226.9029196687608
 21
315.73385162169888
 31
0.0
  0
ARC
  5
BCE
  8
0
 10
226.1442987812963
 20
315.78536572797702
 30
0.0
 40
0.5
 50
45.000000000002302
 51
130.349290995122
  0
ARC
  5
BCF
  8
0
 10
233.16655414267089
 20
348.88443071016189
 30
0.0
 40
7.5
 50
235.80692287485999
 51
294.31573917117203
  0
ARC
  5
BD0
  8
0
 10
214.16655414267089
 20
329.88443071016212
 30
0.0
 40
17.999999999999972
 50
6.0423284190539261
 51
40.349290995119809
  0
LINE
  5
BD1
  8
0
 10
237.66655414267089
 20
331.88443071016201
 30
0.0
 11
237.66655414267089
 21
341.13846401774691
 31
0.0
  0
ARC
  5
BD2
  8
0
 10
236.66655414267089
 20
327.88443071016212
 30
0.0
 40
1.0
 50
0.0
 51
90.0
  0
ARC
  5
BD3
  8
0
 10
236.66655414267089
 20
331.88443071016201
 30
0.0
 40
1.0
 50
270.0
 51
0.0
  0
LINE
  5
BD4
  8
0
 10
236.66655414267089
 20
328.88443071016212
 30
0.0
 11
233.06099777036201
 21
328.88443071016212
 31
0.0
  0
ARC
  5
BD5
  8
0
 10
233.06099777036201
 20
327.88443071016212
 30
0.0
 40
1.0
 50
90.0
 51
173.95767158094571
  0
LINE
  5
BD6
  8
0
 10
236.66655414267089
 20
330.88443071016201
 30
0.0
 11
233.06099777036201
 21
330.88443071016201
 31
0.0
  0
ARC
  5
BD7
  8
0
 10
233.06099777036201
 20
331.88443071016201
 30
0.0
 40
1.0
 50
186.0423284190542
 51
270.0
  0
ARC
  5
BD8
  8
0
 10
236.66655414267089
 20
341.13846401774691
 30
0.0
 40
1.0
 50
0.0
 51
114.3157391711853
  0
LINE
  5
BD9
  8
0
 10
227.91206573426271
 20
342.21572873938049
 30
0.0
 11
228.31713323113411
 21
342.62079623625198
 31
0.0
  0
ARC
  5
BDA
  8
0
 10
228.26561912485599
 20
341.86217534878728
 30
0.0
 40
0.5
 50
135.00000000000691
 51
220.349290995122
  0
ARC
  5
BDB
  8
0
 10
228.67068662172741
 20
342.2672428456587
 30
0.0
 40
0.5
 50
55.806922874857641
 51
135.0
  0
LINE
  5
BDC
  8
CENTER
  6
CENTER
 10
239.66655414267089
 20
348.88443071016212
 30
0.0
 11
226.66655414267089
 21
348.88443071016212
 31
0.0
  0
LINE
  5
BDD
  8
0
 10
240.66655414267109
 20
347.38443071016212
 30
0.0
 11
240.16655414267089
 21
347.38443071016212
 31
0.0
  0
ARC
  5
BDE
  8
0
 10
233.16655414267089
 20
348.88443071016212
 30
0.0
 40
7.5
 50
155.68426082882979
 51
214.19307712513981
  0
ARC
  5
BDF
  8
0
 10
226.5493662781677
 20
344.38856318921842
 30
0.0
 40
0.5
 50
315.0
 51
34.193077125140519
  0
LINE
  5
BE0
  8
0
 10
226.4978521718896
 20
343.62994230175377
 30
0.0
 11
226.9029196687608
 21
344.0350097986252
 31
0.0
  0
ARC
  5
BE1
  8
0
 10
226.1442987812963
 20
343.98349569234711
 30
0.0
 40
0.5
 50
229.65070900487791
 51
314.99999999999773
  0
ARC
  5
BE2
  8
0
 10
225.42058745025579
 20
352.38443071016212
 30
0.0
 40
1.0
 50
335.68426082881462
 51
90.0
  0
CIRCLE
  5
BE3
  8
0
 10
233.16655414267089
 20
348.88443071016212
 30
0.0
 40
5.0
  0
CIRCLE
  5
BE4
  8
0
 10
233.16655414267089
 20
348.88443071016212
 30
0.0
 40
5.5
  0
POLYLINE
  5
BE5
  8
0
 66
     1
 10
0.0
 20
0.0
 30
0.0
 70
     1
  0
VERTEX
  5
1419
  8
0
 10
236.16655414267089
 20
350.61648151773102
 30
0.0
  0
VERTEX
  5
141A
  8
0
 10
236.16655414267089
 20
347.15237990259322
 30
0.0
  0
VERTEX
  5
141B
  8
0
 10
233.16655414267089
 20
345.42032909502439
 30
0.0
  0
VERTEX
  5
141C
  8
0
 10
230.16655414267089
 20
347.15237990259322
 30
0.0
  0
VERTEX
  5
141D
  8
0
 10
230.16655414267089
 20
350.61648151773102
 30
0.0
  0
VERTEX
  5
141E
  8
0
 10
233.16655414267089
 20
352.34853232529991
 30
0.0
  0
SEQEND
  5
141F
  8
0
  0
CIRCLE
  5
BED
  8
0
 10
233.16655414267089
 20
310.88443071016212
 30
0.0
 40
5.5
  0
CIRCLE
  5
BEE
  8
0
 10
233.16655414267089
 20
310.88443071016212
 30
0.0
 40
5.0
  0
POLYLINE
  5
BEF
  8
0
 66
     1
 10
0.0
 20
0.0
 30
0.0
 70
     1
  0
VERTEX
  5
1420
  8
0
 10
236.16655414267089
 20
312.61648151773102
 30
0.0
  0
VERTEX
  5
1421
  8
0
 10
236.16655414267089
 20
309.15237990259322
 30
0.0
  0
VERTEX
  5
1422
  8
0
 10
233.16655414267089
 20
307.42032909502439
 30
0.0
  0
VERTEX
  5
1423
  8
0
 10
230.16655414267089
 20
309.15237990259322
 30
0.0
  0
VERTEX
  5
1424
  8
0
 10
230.16655414267089
 20
312.61648151773102
 30
0.0
  0
VERTEX
  5
1425
  8
0
 10
233.16655414267089
 20
314.34853232529991
 30
0.0
  0
SEQEND
  5
1426
  8
0
  0
LINE
  5
BF7
  8
CENTER
  6
CENTER
 10
245.17300938421849
 20
325.88443071016212
 30
0.0
 11
225.77300938421871
 21
325.88443071016212
 31
0.0
  0
LINE
  5
BF8
  8
CENTER
  6
CENTER
 10
245.27090967319589
 20
337.38443071016212
 30
0.0
 11
231.54296920466359
 21
337.38443071016212
 31
0.0
  0
LINE
  5
BF9
  8
0
  6
CONTINUOUS
 10
242.88655414267021
 20
311.38443071016212
 30
0.0
 11
246.44655414267149
 21
311.38443071016212
 31
0.0
  0
LINE
  5
BFA
  8
0
  6
CONTINUOUS
 10
242.16655414267089
 20
311.38443071016212
 30
0.0
 11
246.44655414267149
 21
311.38443071016212
 31
0.0
  0
ARC
  5
BFB
  8
0
  6
CONTINUOUS
 10
238.74957454705981
 20
314.88443071016212
 30
0.0
 40
8.4553825989878657
 50
335.5475759094079
 51
24.452424090592022
  0
LINE
  5
BFC
  8
0
  6
CONTINUOUS
 10
247.16655414267089
 20
318.38443071016212
 30
0.0
 11
242.16655414267089
 21
318.38443071016212
 31
0.0
  0
ARC
  5
BFD
  8
0
  6
CONTINUOUS
 10
250.58353373828251
 20
314.88443071016212
 30
0.0
 40
8.4553825989882458
 50
155.54757590941711
 51
204.45242409058281
  0
LINE
  5
BFE
  8
0
  6
CONTINUOUS
 10
242.16655414267089
 20
318.38443071016212
 30
0.0
 11
242.16655414267089
 21
311.38443071016212
 31
0.0
  0
LINE
  5
BFF
  8
0
  6
CONTINUOUS
 10
247.16655414267089
 20
318.38443071016212
 30
0.0
 11
247.16655414267089
 21
304.38443071016212
 31
0.0
  0
ARC
  5
C00
  8
0
  6
CONTINUOUS
 10
238.74957454705981
 20
307.88443071016212
 30
0.0
 40
8.4553825989878657
 50
335.5475759094079
 51
24.452424090592022
  0
LINE
  5
C01
  8
0
  6
CONTINUOUS
 10
247.16655414267089
 20
304.38443071016212
 30
0.0
 11
242.16655414267089
 21
304.38443071016212
 31
0.0
  0
ARC
  5
C02
  8
0
  6
CONTINUOUS
 10
250.58353373828251
 20
307.88443071016212
 30
0.0
 40
8.4553825989882458
 50
155.54757590941711
 51
204.4524240905823
  0
LINE
  5
C03
  8
0
  6
CONTINUOUS
 10
242.16655414267089
 20
304.38443071016212
 30
0.0
 11
242.16655414267089
 21
311.38443071016212
 31
0.0
  0
LINE
  5
C04
  8
0
 10
216.16655414267089
 20
306.38443071016212
 30
0.0
 11
225.42058745025579
 21
306.38443071016212
 31
0.0
  0
CIRCLE
  5
C05
  8
0
 10
214.16655414267089
 20
329.88443071016212
 30
0.0
 40
17.499999999999972
  0
ARC
  5
C06
  8
0
 10
214.16655414267089
 20
329.88443071016212
 30
0.0
 40
17.999999999999972
 50
276.04232841905389
 51
310.34929099511982
  0
LINE
  5
C07
  8
0
 10
216.16655414267089
 20
353.38443071016212
 30
0.0
 11
225.42058745025579
 21
353.38443071016212
 31
0.0
  0
ARC
  5
C08
  8
0
 10
214.16655414267089
 20
329.88443071016212
 30
0.0
 40
17.999999999999972
 50
49.650709004880191
 51
83.957671580946055
  0
LINE
  5
C09
  8
CENTER
  6
CENTER
 10
214.16655414267089
 20
357.88443071016212
 30
0.0
 11
214.16655414267089
 21
301.88443071016201
 31
0.0
  0
POLYLINE
  5
C0A
  8
0
 66
     1
 10
0.0
 20
0.0
 30
0.0
 70
     1
  0
VERTEX
  5
1427
  8
0
 10
187.66655414267089
 20
348.88443071016212
 30
0.0
 42
-0.4142135623730951
  0
VERTEX
  5
1428
  8
0
 10
195.16655414267109
 20
356.38443071016212
 30
0.0
  0
VERTEX
  5
1429
  8
0
 10
233.16655414267089
 20
356.38443071016212
 30
0.0
 42
-0.4142135623730951
  0
VERTEX
  5
142A
  8
0
 10
240.66655414267089
 20
348.88443071016212
 30
0.0
  0
VERTEX
  5
142B
  8
0
 10
240.66655414267089
 20
310.88443071016212
 30
0.0
 42
-0.4142135623730951
  0
VERTEX
  5
142C
  8
0
 10
233.16655414267089
 20
303.38443071016212
 30
0.0
  0
VERTEX
  5
142D
  8
0
 10
195.16655414267109
 20
303.38443071016212
 30
0.0
 42
-0.4142135623730951
  0
VERTEX
  5
142E
  8
0
 10
187.66655414267089
 20
310.88443071016212
 30
0.0
  0
SEQEND
  5
142F
  8
0
  0
POLYLINE
  5
C14
  8
0
 66
     1
 10
0.0
 20
0.0
 30
0.0
 70
     1
  0
VERTEX
  5
1430
  8
0
 10
188.16655414267089
 20
348.88443071016212
 30
0.0
 42
-0.4142135623730951
  0
VERTEX
  5
1431
  8
0
 10
195.16655414267109
 20
355.88443071016212
 30
0.0
  0
VERTEX
  5
1432
  8
0
 10
233.16655414267089
 20
355.88443071016212
 30
0.0
 42
-0.4142135623730951
  0
VERTEX
  5
1433
  8
0
 10
240.16655414267089
 20
348.88443071016212
 30
0.0
  0
VERTEX
  5
1434
  8
0
 10
240.16655414267089
 20
310.88443071016212
 30
0.0
 42
-0.4142135623730951
  0
VERTEX
  5
1435
  8
0
 10
233.16655414267089
 20
303.88443071016212
 30
0.0
  0
VERTEX
  5
1436
  8
0
 10
195.16655414267109
 20
303.88443071016212
 30
0.0
 42
-0.4142135623730957
  0
VERTEX
  5
1437
  8
0
 10
188.16655414267089
 20
310.88443071016212
 30
0.0
  0
SEQEND
  5
1438
  8
0
  0
LINE
  5
C1E
  8
CENTER
  6
CENTER
 10
233.16655414267089
 20
355.38443071016212
 30
0.0
 11
233.16655414267089
 21
342.38443071016212
 31
0.0
  0
LINE
  5
C1F
  8
CENTER
  6
CENTER
 10
195.16655414267089
 20
355.38443071016212
 30
0.0
 11
195.16655414267089
 21
342.38443071016212
 31
0.0
  0
LINE
  5
C20
  8
0
 10
242.16655414267089
 20
362.38443071016212
 30
0.0
 11
242.16655414267089
 21
297.38443071016201
 31
0.0
  0
LINE
  5
C21
  8
CENTER
  6
CENTER
 10
216.66655414267089
 20
347.54752031667152
 30
0.0
 11
216.66655414267089
 21
367.21803010922707
 31
0.0
  0
LINE
  5
C22
  8
0
 10
360.02663243378868
 20
237.50458911885269
 30
0.0
 11
330.02663243378868
 21
237.00458911885269
 31
0.0
  0
LINE
  5
C23
  8
0
 10
360.02663243378879
 20
184.50458911885269
 30
0.0
 11
330.02663243378868
 21
185.00458911885269
 31
0.0
  0
LINE
  5
C24
  8
0
 10
330.02663243378868
 20
185.00458911885269
 30
0.0
 11
330.02663243378868
 21
237.00458911885269
 31
0.0
  0
LINE
  5
C25
  8
0
 10
330.02663243378868
 20
193.50458911885269
 30
0.0
 11
327.02663243378868
 21
193.50458911885269
 31
0.0
  0
ARC
  5
C26
  8
0
 10
327.02663243378868
 20
194.50458911885269
 30
0.0
 40
1.0
 50
180.0
 51
270.0
  0
ARC
  5
C27
  8
0
 10
327.02663243378868
 20
227.50458911885269
 30
0.0
 40
1.0
 50
90.0
 51
180.0
  0
LINE
  5
C28
  8
0
 10
330.02663243378868
 20
228.50458911885269
 30
0.0
 11
327.02663243378868
 21
228.50458911885269
 31
0.0
  0
LINE
  5
C29
  8
0
 10
326.02663243378868
 20
194.50458911885269
 30
0.0
 11
326.02663243378868
 21
227.50458911885269
 31
0.0
  0
LINE
  5
C2A
  8
0
 10
360.02663243378879
 20
184.50458911885269
 30
0.0
 11
360.02663243378868
 21
237.50458911885269
 31
0.0
  0
TEXT
  5
C2B
  8
DIM
  6
CONTINUOUS
 10
318.25452336413912
 20
266.88443071016201
 30
0.0
 40
3.0
  1
4
  7
ROMANSS
 72
     1
 11
319.32595193556762
 21
268.38443071016201
 31
0.0
 73
     2
  0
SOLID
  5
C2D
  8
DIM
  6
CONTINUOUS
 10
323.02663243378868
 20
265.88443071016201
 30
0.0
 11
323.02663243378868
 21
264.88443071016201
 31
0.0
 12
326.02663243378868
 22
265.38443071016201
 32
0.0
 13
326.02663243378868
 23
265.38443071016201
 33
0.0
  0
LINE
  5
C2E
  8
DIM
  6
CONTINUOUS
 10
326.02663243378868
 20
311.37968599698729
 30
0.0
 11
326.02663243378868
 21
264.38443071016201
 31
0.0
  0
SOLID
  5
C2F
  8
DIM
  6
CONTINUOUS
 10
333.02663243378868
 20
265.88443071016201
 30
0.0
 11
333.02663243378868
 21
264.88443071016201
 31
0.0
 12
330.02663243378868
 22
265.38443071016201
 32
0.0
 13
330.02663243378868
 23
265.38443071016201
 33
0.0
  0
LINE
  5
C30
  8
DIM
  6
CONTINUOUS
 10
330.02663243378868
 20
302.88443071016212
 30
0.0
 11
330.02663243378868
 21
264.38443071016201
 31
0.0
  0
LINE
  5
C31
  8
0
  6
CONTINUOUS
 10
350.27663243378868
 20
336.08539260448538
 30
0.0
 11
348.96821044888509
 21
335.32997481928771
 31
0.0
  0
LINE
  5
C32
  8
0
  6
CONTINUOUS
 10
350.77663243378862
 20
335.21936720070102
 30
0.0
 11
349.46821044888497
 21
334.46394941550329
 31
0.0
  0
ARC
  5
C33
  8
0
  6
CONTINUOUS
 10
353.52663243378862
 20
337.38443071016212
 30
0.0
 40
3.5
 50
278.21321070173809
 51
321.78678929826299
  0
LINE
  5
C34
  8
0
  6
CONTINUOUS
 10
356.77663243378862
 20
336.08539260448538
 30
0.0
 11
358.0850544186921
 21
335.32997481928771
 31
0.0
  0
LINE
  5
C35
  8
0
  6
CONTINUOUS
 10
356.27663243378862
 20
335.21936720070102
 30
0.0
 11
357.58505441869221
 21
334.46394941550329
 31
0.0
  0
LINE
  5
C36
  8
0
  6
CONTINUOUS
 10
353.02663243378862
 20
332.40949352462889
 30
0.0
 11
353.02663243378862
 21
333.92032909502427
 31
0.0
  0
LINE
  5
C37
  8
0
  6
CONTINUOUS
 10
354.02663243378862
 20
332.40949352462889
 30
0.0
 11
354.02663243378862
 21
333.92032909502427
 31
0.0
  0
ARC
  5
C38
  8
0
  6
CONTINUOUS
 10
353.52663243378862
 20
337.38443071016212
 30
0.0
 40
3.5
 50
218.21321070173829
 51
261.78678929826179
  0
CIRCLE
  5
C39
  8
0
 10
345.02663243378868
 20
325.88443071016212
 30
0.0
 40
3.9999999999999711
  0
LINE
  5
C3A
  8
CENTER
  6
CENTER
 10
356.72663243378872
 20
325.88443071016212
 30
0.0
 11
333.32663243378869
 21
325.88443071016212
 31
0.0
  0
LINE
  5
C3B
  8
0
  6
CONTINUOUS
 10
348.96821044888509
 20
339.43888660103642
 30
0.0
 11
350.27663243378868
 21
338.68346881583869
 31
0.0
  0
LINE
  5
C3C
  8
0
  6
CONTINUOUS
 10
349.46821044888497
 20
340.30491200482078
 30
0.0
 11
350.77663243378862
 21
339.54949421962311
 31
0.0
  0
ARC
  5
C3D
  8
0
  6
CONTINUOUS
 10
353.52663243378862
 20
337.38443071016212
 30
0.0
 40
3.5
 50
38.213210701738312
 51
81.786789298261766
  0
LINE
  5
C3E
  8
0
  6
CONTINUOUS
 10
358.0850544186921
 20
339.43888660103642
 30
0.0
 11
356.77663243378862
 21
338.68346881583869
 31
0.0
  0
LINE
  5
C3F
  8
0
  6
CONTINUOUS
 10
357.58505441869221
 20
340.30491200482078
 30
0.0
 11
356.27663243378862
 21
339.54949421962311
 31
0.0
  0
LINE
  5
C40
  8
0
  6
CONTINUOUS
 10
353.02663243378862
 20
340.84853232529969
 30
0.0
 11
353.02663243378862
 21
342.35936789569507
 31
0.0
  0
LINE
  5
C41
  8
0
  6
CONTINUOUS
 10
354.02663243378862
 20
340.84853232529969
 30
0.0
 11
354.02663243378862
 21
342.35936789569507
 31
0.0
  0
ARC
  5
C42
  8
0
  6
CONTINUOUS
 10
353.52663243378862
 20
337.38443071016212
 30
0.0
 40
3.5
 50
98.213210701738234
 51
141.7867892982616
  0
LINE
  5
C43
  8
CENTER
  6
CENTER
 10
353.52663243378862
 20
344.24840094442828
 30
0.0
 11
353.52663243378862
 21
330.5204604758959
 31
0.0
  0
CIRCLE
  5
C44
  8
0
  6
CONTINUOUS
 10
353.52663243378862
 20
337.38443071016212
 30
0.0
 40
2.5
  0
ARC
  5
C45
  8
0
  6
CONTINUOUS
 10
353.52663243378862
 20
337.38443071016212
 30
0.0
 40
3.5
 50
338.21321070173769
 51
21.786789298262239
  0
POLYLINE
  5
C46
  8
0
  6
CONTINUOUS
 66
     1
 10
0.0
 20
0.0
 30
0.0
 70
     1
  0
VERTEX
  5
1439
  8
0
  6
CONTINUOUS
 10
354.3926578375731
 20
335.88443071016212
 30
0.0
  0
VERTEX
  5
143A
  8
0
  6
CONTINUOUS
 10
355.25868324135752
 20
337.38443071016212
 30
0.0
  0
VERTEX
  5
143B
  8
0
  6
CONTINUOUS
 10
354.3926578375731
 20
338.88443071016212
 30
0.0
  0
VERTEX
  5
143C
  8
0
  6
CONTINUOUS
 10
352.6606070300042
 20
338.88443071016212
 30
0.0
  0
VERTEX
  5
143D
  8
0
  6
CONTINUOUS
 10
351.79458162621978
 20
337.38443071016212
 30
0.0
  0
VERTEX
  5
143E
  8
0
  6
CONTINUOUS
 10
352.6606070300042
 20
335.88443071016212
 30
0.0
  0
SEQEND
  5
143F
  8
0
  6
CONTINUOUS
  0
ARC
  5
C4E
  8
0
  6
CONTINUOUS
 10
353.52663243378862
 20
337.38443071016212
 30
0.0
 40
3.5
 50
158.2132107017386
 51
201.78678929826131
  0
CIRCLE
  5
C4F
  8
0
 10
345.02663243378868
 20
325.88443071016212
 30
0.0
 40
8.6999999999999993
  0
CIRCLE
  5
C50
  8
0
 10
345.02663243378868
 20
325.88443071016212
 30
0.0
 40
6.7000000000000028
  0
ARC
  5
C51
  8
0
 62
     2
 10
345.02663243378868
 20
325.88443071016212
 30
0.0
 40
6.5999999999999996
 50
333.86110377669672
 51
284.99745208060762
  0
CIRCLE
  5
C52
  8
0
 10
345.02663243378868
 20
325.88443071016212
 30
0.0
 40
5.7000000000000011
  0
LINE
  5
C53
  8
CENTER
  6
CENTER
 10
345.02663243378868
 20
337.58443071016211
 30
0.0
 11
345.02663243378868
 21
314.18443071016208
 31
0.0
  0
LINE
  5
C54
  8
CENTER
  6
CENTER
 10
360.39060266805478
 20
337.38443071016212
 30
0.0
 11
346.66266219952252
 21
337.38443071016212
 31
0.0
  0
CIRCLE
  5
C55
  8
0
 10
353.52663243378862
 20
337.38443071016212
 30
0.0
 40
5.0
  0
CIRCLE
  5
C56
  8
0
 10
353.52663243378862
 20
337.38443071016212
 30
0.0
 40
5.2999999999999989
  0
LINE
  5
C57
  8
0
 10
360.02663243378868
 20
303.38443071016212
 30
0.0
 11
330.02663243378868
 21
303.88443071016212
 31
0.0
  0
ARC
  5
C58
  8
0
 10
327.02663243378868
 20
313.38443071016212
 30
0.0
 40
1.0
 50
180.0
 51
270.0
  0
LINE
  5
C59
  8
0
 10
330.02663243378868
 20
312.38443071016212
 30
0.0
 11
327.02663243378868
 21
312.38443071016212
 31
0.0
  0
ARC
  5
C5A
  8
0
 10
327.02663243378868
 20
346.38443071016212
 30
0.0
 40
1.0
 50
90.0
 51
180.0
  0
LINE
  5
C5B
  8
0
 10
330.02663243378868
 20
347.38443071016212
 30
0.0
 11
327.02663243378868
 21
347.38443071016212
 31
0.0
  0
LINE
  5
C5C
  8
0
 10
326.02663243378868
 20
313.38443071016212
 30
0.0
 11
326.02663243378868
 21
346.38443071016212
 31
0.0
  0
LINE
  5
C5D
  8
0
 10
360.02663243378862
 20
356.38443071016212
 30
0.0
 11
330.02663243378862
 21
355.88443071016212
 31
0.0
  0
LINE
  5
C5E
  8
0
 10
330.02663243378868
 20
303.88443071016212
 30
0.0
 11
330.02663243378868
 21
355.88443071016212
 31
0.0
  0
LINE
  5
C5F
  8
0
 10
360.02663243378868
 20
303.38443071016212
 30
0.0
 11
360.02663243378862
 21
356.38443071016212
 31
0.0
  0
ARC
  5
C60
  8
0
  6
CONTINUOUS
 10
186.66655414267089
 20
396.38443071016212
 30
0.0
 40
2.5
 50
0.0
 51
180.0
  0
LINE
  5
C61
  8
0
 10
184.16655414267089
 20
396.38443071016212
 30
0.0
 11
184.16655414267089
 21
376.38443071016212
 31
0.0
  0
LINE
  5
C62
  8
0
 10
189.16655414267089
 20
396.38443071016212
 30
0.0
 11
189.16655414267089
 21
376.38443071016212
 31
0.0
  0
LINE
  5
C63
  8
0
  6
CONTINUOUS
 10
193.66655414267089
 20
401.38443071016212
 30
0.0
 11
179.66655414267089
 21
401.38443071016212
 31
0.0
  0
LINE
  5
C64
  8
0
  6
CONTINUOUS
 10
194.66655414267089
 20
400.38443071016212
 30
0.0
 11
178.66655414267089
 21
400.38443071016212
 31
0.0
  0
LINE
  5
C65
  8
0
  6
CONTINUOUS
 10
193.66655414267089
 20
401.38443071016212
 30
0.0
 11
194.66655414267089
 21
400.38443071016212
 31
0.0
  0
LINE
  5
C66
  8
0
  6
CONTINUOUS
 10
179.66655414267089
 20
401.38443071016212
 30
0.0
 11
178.66655414267089
 21
400.38443071016212
 31
0.0
  0
LINE
  5
C67
  8
0
 10
330.02663243378868
 20
485.24204973755087
 30
0.0
 11
327.02663243378868
 21
485.24204973755087
 31
0.0
  0
ARC
  5
C68
  8
0
 10
327.02663243378868
 20
484.24204973755081
 30
0.0
 40
1.0
 50
90.0
 51
180.0
  0
ARC
  5
C69
  8
0
 10
327.02663243378868
 20
451.24204973755081
 30
0.0
 40
1.0
 50
180.0
 51
270.0
  0
LINE
  5
C6A
  8
0
 10
330.02663243378868
 20
450.24204973755081
 30
0.0
 11
327.02663243378868
 21
450.24204973755081
 31
0.0
  0
LINE
  5
C6B
  8
0
 10
330.02663243378868
 20
493.74204973755087
 30
0.0
 11
330.02663243378868
 21
441.74204973755081
 31
0.0
  0
LINE
  5
C6C
  8
0
 10
326.02663243378868
 20
484.24204973755081
 30
0.0
 11
326.02663243378868
 21
451.24204973755081
 31
0.0
  0
LINE
  5
C6D
  8
0
 10
360.02663243378879
 20
494.24204973755087
 30
0.0
 11
360.02663243378868
 21
441.24204973755081
 31
0.0
  0
LINE
  5
C6E
  8
0
 10
360.02663243378868
 20
441.24204973755081
 30
0.0
 11
330.02663243378868
 21
441.74204973755081
 31
0.0
  0
LINE
  5
C6F
  8
0
 10
360.02663243378879
 20
494.24204973755087
 30
0.0
 11
330.02663243378868
 21
493.74204973755087
 31
0.0
  0
SOLID
  5
C70
  8
DIM
  6
CONTINUOUS
 10
409.02663243378868
 20
374.38443071016212
 30
0.0
 11
410.02663243378868
 21
374.38443071016212
 31
0.0
 12
409.52663243378868
 22
371.38443071016212
 32
0.0
 13
409.52663243378868
 23
371.38443071016212
 33
0.0
  0
LINE
  5
C71
  8
DIM
  6
CONTINUOUS
 10
409.52663243378868
 20
398.38443071016212
 30
0.0
 11
409.52663243378868
 21
363.40058802267441
 31
0.0
  0
SOLID
  5
C72
  8
DIM
  6
CONTINUOUS
 10
417.02663243378868
 20
376.88443071016212
 30
0.0
 11
418.02663243378868
 21
376.88443071016212
 31
0.0
 12
417.52663243378868
 22
373.88443071016212
 32
0.0
 13
417.52663243378868
 23
373.88443071016212
 33
0.0
  0
LINE
  5
C73
  8
DIM
  6
CONTINUOUS
 10
687.47895911564933
 20
354.35815372982597
 30
0.0
 11
675.34712108402664
 21
376.76046083882852
 31
0.0
  0
TEXT
  5
C74
  8
DIM
  6
CONTINUOUS
 10
591.40997523010719
 20
373.77580122412468
 30
0.0
 40
3.0
  1
2-G1/4
  7
ROMANSS
 11
591.40997523010719
 21
375.27580122412479
 31
0.0
 73
     2
  0
LINE
  5
C75
  8
DIM
  6
CONTINUOUS
 10
789.88671072490627
 20
292.38443071016201
 30
0.0
 11
789.88671072490627
 21
398.38443071016212
 31
0.0
  0
LINE
  5
C76
  8
DIM
  6
CONTINUOUS
 10
781.88671072490661
 20
281.78562509303498
 30
0.0
 11
781.88671072490661
 21
379.60428804818662
 31
0.0
  0
LINE
  5
C77
  8
0
 10
728.38671072490661
 20
400.38443071016212
 30
0.0
 11
728.38671072490661
 21
371.38443071016212
 31
0.0
  0
LINE
  5
C78
  8
0
 10
744.38671072490661
 20
400.38443071016212
 30
0.0
 11
744.38671072490661
 21
371.38443071016212
 31
0.0
  0
LINE
  5
C79
  8
CENTER
  6
CENTER
 10
736.38671072490661
 20
404.38443071016212
 30
0.0
 11
736.38671072490661
 21
286.38443071016201
 31
0.0
  0
LINE
  5
C7A
  8
0
 10
451.52663243378868
 20
398.88443071016189
 30
0.0
 11
451.52663243378868
 21
373.88443071016212
 31
0.0
  0
LINE
  5
C7B
  8
0
 10
453.52663243378868
 20
400.38443071016212
 30
0.0
 11
453.52663243378868
 21
371.38443071016212
 31
0.0
  0
LINE
  5
C7C
  8
0
 10
469.52663243378879
 20
400.38443071016212
 30
0.0
 11
469.52663243378868
 21
371.38443071016212
 31
0.0
  0
LINE
  5
C7D
  8
CENTER
  6
CENTER
 10
461.52663243378868
 20
404.38443071016212
 30
0.0
 11
461.52663243378868
 21
286.38443071016201
 31
0.0
  0
LINE
  5
C7E
  8
0
 10
499.02663243378868
 20
235.20458911885271
 30
0.0
 11
563.02663243378868
 21
235.2045891188526
 31
0.0
  0
LINE
  5
C7F
  8
0
 10
499.02663243378868
 20
222.8068134215045
 30
0.0
 11
563.02663243378868
 21
222.8068134215045
 31
0.0
  0
LINE
  5
C80
  8
0
 10
499.02663243378868
 20
186.80458911885259
 30
0.0
 11
563.02663243378868
 21
186.80458911885259
 31
0.0
  0
LINE
  5
C81
  8
0
 10
499.02663243378868
 20
199.2023648162008
 30
0.0
 11
563.02663243378868
 21
199.2023648162008
 31
0.0
  0
LINE
  5
C82
  8
0
 10
499.02663243378868
 20
341.68665501281401
 30
0.0
 11
563.02663243378868
 21
341.68665501281401
 31
0.0
  0
LINE
  5
C83
  8
0
 10
499.02663243378868
 20
354.08443071016211
 30
0.0
 11
563.02663243378868
 21
354.084430710162
 31
0.0
  0
LINE
  5
C84
  8
0
 10
499.02663243378868
 20
318.08220640751023
 30
0.0
 11
563.02663243378868
 21
318.08220640751023
 31
0.0
  0
LINE
  5
C85
  8
0
 10
499.02663243378879
 20
305.68443071016208
 30
0.0
 11
563.02663243378868
 21
305.68443071016208
 31
0.0
  0
CIRCLE
  5
C86
  8
0
  6
CONTINUOUS
 10
461.52663243378868
 20
183.50458911885269
 30
0.0
 40
35.0
  0
LINE
  5
C87
  8
0
 10
499.02663243378868
 20
146.00458911885269
 30
0.0
 11
499.02663243378868
 21
239.00458911885269
 31
0.0
  0
LINE
  5
C88
  8
0
 10
424.02663243378879
 20
146.00458911885269
 30
0.0
 11
424.02663243378868
 21
239.00458911885269
 31
0.0
  0
LINE
  5
C89
  8
CENTER
  6
CENTER
 10
461.52663243378868
 20
143.00458911885269
 30
0.0
 11
461.52663243378868
 21
242.00458911885269
 31
0.0
  0
CIRCLE
  5
C8A
  8
0
  6
CONTINUOUS
 10
461.52663243378868
 20
183.50458911885269
 30
0.0
 40
36.0
  0
CIRCLE
  5
C8B
  8
CENTER
  6
CENTER
 10
461.52663243378868
 20
183.50458911885269
 30
0.0
 40
30.0
  0
LINE
  5
C8C
  8
0
 10
424.02663243378879
 20
146.00458911885269
 30
0.0
 11
499.02663243378868
 21
146.00458911885269
 31
0.0
  0
CIRCLE
  5
C8D
  8
0
  6
CONTINUOUS
 10
440.31342899819231
 20
162.29138568325629
 30
0.0
 40
2.0499999999999989
  0
LINE
  5
C8E
  8
CENTER
  6
CENTER
 10
436.07078831107287
 20
158.048744996137
 30
0.0
 11
444.90962307590479
 21
166.88757976096869
 31
0.0
  0
ARC
  5
C8F
  8
0
  6
CONTINUOUS
 62
     2
 10
440.31342899819208
 20
162.29138568325641
 30
0.0
 40
2.5
 50
201.03635853977079
 51
155.01845143419251
  0
CIRCLE
  5
C90
  8
0
  6
CONTINUOUS
 10
431.52663243378868
 20
153.50458911885269
 30
0.0
 40
2.5
  0
ARC
  5
C91
  8
0
  6
CONTINUOUS
 62
     2
 10
431.52663243378868
 20
153.50458911885269
 30
0.0
 40
3.0
 50
338.35967540570613
 51
287.47149231941358
  0
LINE
  5
C92
  8
CENTER
  6
CENTER
 10
431.52663243378868
 20
147.50458911885269
 30
0.0
 11
431.52663243378868
 21
159.50458911885269
 31
0.0
  0
LINE
  5
C93
  8
CENTER
  6
CENTER
 10
425.52663243378862
 20
153.50458911885269
 30
0.0
 11
437.52663243378868
 21
153.50458911885269
 31
0.0
  0
LINE
  5
C94
  8
CENTER
  6
CENTER
 10
485.52663243378868
 20
153.50458911885269
 30
0.0
 11
497.52663243378868
 21
153.50458911885269
 31
0.0
  0
CIRCLE
  5
C95
  8
0
  6
CONTINUOUS
 10
491.52663243378868
 20
153.50458911885269
 30
0.0
 40
2.5
  0
ARC
  5
C96
  8
0
  6
CONTINUOUS
 62
     2
 10
491.52663243378868
 20
153.50458911885269
 30
0.0
 40
3.0
 50
248.3596754057061
 51
197.47149231941381
  0
LINE
  5
C97
  8
CENTER
  6
CENTER
 10
491.52663243378868
 20
147.50458911885269
 30
0.0
 11
491.52663243378868
 21
159.50458911885269
 31
0.0
  0
POLYLINE
  5
C98
  8
0
  6
CONTINUOUS
 66
     1
 10
0.0
 20
0.0
 30
0.0
  0
VERTEX
  5
1440
  8
0
  6
CONTINUOUS
 10
504.02663243378868
 20
165.00458911885269
 30
0.0
 42
-0.0851703918331037
  0
VERTEX
  5
1441
  8
0
  6
CONTINUOUS
 10
503.33863243378858
 20
161.00458911885269
 30
0.0
 42
-0.3457679526359281
  0
VERTEX
  5
1442
  8
0
  6
CONTINUOUS
 10
503.68021211046351
 20
158.10458911885311
 30
0.0
  0
SEQEND
  5
1443
  8
0
  6
CONTINUOUS
  0
LINE
  5
C9D
  8
0
  6
CONTINUOUS
 10
505.82663243378789
 20
161.00458911885269
 30
0.0
 11
507.02663243378868
 21
162.20458911885351
 31
0.0
  0
LINE
  5
C9E
  8
0
  6
CONTINUOUS
 10
505.82663243378789
 20
169.00458911885269
 30
0.0
 11
505.82663243378789
 21
161.00458911885269
 31
0.0
  0
LINE
  5
C9F
  8
0
  6
CONTINUOUS
 10
504.02663243378868
 20
171.30458911885199
 30
0.0
 11
504.02663243378868
 21
158.70458911885339
 31
0.0
  0
POLYLINE
  5
CA0
  8
0
  6
CONTINUOUS
 66
     1
 10
0.0
 20
0.0
 30
0.0
  0
VERTEX
  5
1444
  8
0
  6
CONTINUOUS
 10
499.02663243378868
 20
165.00458911885269
 30
0.0
 42
0.0851703918331037
  0
VERTEX
  5
1445
  8
0
  6
CONTINUOUS
 10
499.71463243378878
 20
161.00458911885269
 30
0.0
 42
0.3457679526359281
  0
VERTEX
  5
1446
  8
0
  6
CONTINUOUS
 10
499.3730527571139
 20
158.104589118853
 30
0.0
  0
SEQEND
  5
1447
  8
0
  6
CONTINUOUS
  0
POLYLINE
  5
CA5
  8
0
  6
CONTINUOUS
 66
     1
 10
0.0
 20
0.0
 30
0.0
 70
     1
  0
VERTEX
  5
1448
  8
0
  6
CONTINUOUS
 10
750.84525884057905
 20
318.38443071016212
 30
0.0
  0
VERTEX
  5
1449
  8
0
  6
CONTINUOUS
 10
746.80380695625183
 20
311.38443071016212
 30
0.0
  0
VERTEX
  5
144A
  8
0
  6
CONTINUOUS
 10
750.84525884057905
 20
304.38443071016212
 30
0.0
  0
VERTEX
  5
144B
  8
0
  6
CONTINUOUS
 10
758.92816260923405
 20
304.38443071016212
 30
0.0
  0
VERTEX
  5
144C
  8
0
  6
CONTINUOUS
 10
762.96961449356127
 20
311.38443071016212
 30
0.0
  0
VERTEX
  5
144D
  8
0
  6
CONTINUOUS
 10
758.92816260923405
 20
318.38443071016212
 30
0.0
  0
SEQEND
  5
144E
  8
0
  6
CONTINUOUS
  0
CIRCLE
  5
CAD
  8
0
  6
CONTINUOUS
 10
754.88671072490661
 20
311.38443071016212
 30
0.0
 40
7.0
  0
CIRCLE
  5
CAE
  8
0
  6
CONTINUOUS
 10
754.88671072490661
 20
311.38443071016212
 30
0.0
 40
4.0
  0
LINE
  5
CAF
  8
CENTER
  6
CENTER
 10
744.88671072490661
 20
311.38443071016212
 30
0.0
 11
764.88671072490661
 21
311.38443071016212
 31
0.0
  0
CIRCLE
  5
CB0
  8
0
  6
CONTINUOUS
 10
482.73983586938522
 20
204.7177925544492
 30
0.0
 40
2.0499999999999989
  0
LINE
  5
CB1
  8
CENTER
  6
CENTER
 10
478.46183984320658
 20
200.43979652827051
 30
0.0
 11
487.01783189556369
 21
208.9957885806277
 31
0.0
  0
ARC
  5
CB2
  8
0
  6
CONTINUOUS
 62
     2
 10
482.7398358693851
 20
204.7177925544492
 30
0.0
 40
2.5
 50
201.03635853977079
 51
155.01845143419189
  0
LINE
  5
CB3
  8
CENTER
  6
CENTER
 10
424.02663243378868
 20
183.50458911885269
 30
0.0
 11
499.02663243378868
 21
183.50458911885269
 31
0.0
  0
LINE
  5
CB4
  8
0
 10
424.02663243378868
 20
239.00458911885269
 30
0.0
 11
499.02663243378868
 21
239.00458911885269
 31
0.0
  0
LINE
  5
CB5
  8
DIM
  6
CONTINUOUS
 10
427.02663243378868
 20
273.38443071016201
 30
0.0
 11
496.02663243378868
 21
273.38443071016201
 31
0.0
  0
LINE
  5
CB6
  8
DIM
  6
CONTINUOUS
 10
428.52663243378868
 20
281.38443071016201
 30
0.0
 11
494.52663243378868
 21
281.38443071016201
 31
0.0
  0
LINE
  5
CB7
  8
0
  6
CONTINUOUS
 10
426.52663243378868
 20
370.38443071016212
 30
0.0
 11
496.52663243378868
 21
370.38443071016212
 31
0.0
  0
LINE
  5
CB8
  8
0
  6
CONTINUOUS
 10
425.52663243378862
 20
369.38443071016212
 30
0.0
 11
497.52663243378868
 21
369.38443071016212
 31
0.0
  0
LINE
  5
CB9
  8
0
  6
CONTINUOUS
 10
425.52663243378862
 20
290.38443071016201
 30
0.0
 11
497.52663243378868
 21
290.38443071016201
 31
0.0
  0
LINE
  5
CBA
  8
0
  6
CONTINUOUS
 10
426.52663243378868
 20
289.38443071016201
 30
0.0
 11
496.52663243378868
 21
289.38443071016201
 31
0.0
  0
LINE
  5
CBB
  8
0
  6
CONTINUOUS
 10
424.02663243378868
 20
297.38443071016201
 30
0.0
 11
499.02663243378868
 21
297.38443071016201
 31
0.0
  0
LINE
  5
CBC
  8
0
  6
CONTINUOUS
 10
424.02663243378868
 20
362.38443071016212
 30
0.0
 11
499.02663243378868
 21
362.38443071016201
 31
0.0
  0
LINE
  5
CBD
  8
DIM
  6
CONTINUOUS
 10
425.5850645963493
 20
370.38443071016212
 30
0.0
 11
408.52663243378868
 21
370.38443071016212
 31
0.0
  0
POLYLINE
  5
CBE
  8
0
  6
CONTINUOUS
 66
     1
 10
0.0
 20
0.0
 30
0.0
 70
     1
 40
1.0
 41
1.0
  0
VERTEX
  5
144F
  8
0
  6
CONTINUOUS
 10
462.02663243378868
 20
329.88443071016212
 30
0.0
 42
1.0
  0
VERTEX
  5
1450
  8
0
  6
CONTINUOUS
 10
461.02663243378868
 20
329.88443071016212
 30
0.0
 42
1.0
  0
SEQEND
  5
1451
  8
0
  6
CONTINUOUS
  0
CIRCLE
  5
CC2
  8
0
  6
CONTINUOUS
 10
461.52663243378868
 20
329.88443071016212
 30
0.0
 40
4.0
  0
LINE
  5
CC3
  8
CENTER
  6
CENTER
 10
482.77018010084072
 20
165.00458911885269
 30
0.0
 11
510.02663243378868
 21
165.00458911885269
 31
0.0
  0
LINE
  5
CC4
  8
0
  6
CONTINUOUS
 62
     2
 10
504.02663243378868
 20
161.80458911885199
 30
0.0
 11
506.62663243378722
 21
161.80458911885199
 31
0.0
  0
LINE
  5
CC5
  8
0
  6
CONTINUOUS
 10
503.33379178713818
 20
172.50458911885269
 30
0.0
 11
504.02663243378868
 21
171.30458911885199
 31
0.0
  0
POLYLINE
  5
CC6
  8
0
  6
CONTINUOUS
 66
     1
 10
0.0
 20
0.0
 30
0.0
  0
VERTEX
  5
1452
  8
0
  6
CONTINUOUS
 10
504.02663243378868
 20
165.00458911885269
 30
0.0
 42
0.0851703918331037
  0
VERTEX
  5
1453
  8
0
  6
CONTINUOUS
 10
503.33863243378858
 20
169.00458911885269
 30
0.0
 42
0.3457679526359281
  0
VERTEX
  5
1454
  8
0
  6
CONTINUOUS
 10
503.68021211046351
 20
171.90458911885241
 30
0.0
  0
SEQEND
  5
1455
  8
0
  6
CONTINUOUS
  0
LINE
  5
CCB
  8
0
  6
CONTINUOUS
 10
505.82663243378789
 20
169.00458911885269
 30
0.0
 11
507.02663243378868
 21
167.80458911885199
 31
0.0
  0
LINE
  5
CCC
  8
0
  6
CONTINUOUS
 10
507.02663243378868
 20
167.80458911885199
 30
0.0
 11
507.02663243378879
 21
162.20458911885351
 31
0.0
  0
LINE
  5
CCD
  8
0
  6
CONTINUOUS
 10
504.02663243378868
 20
169.00458911885269
 30
0.0
 11
505.82663243378789
 21
169.00458911885269
 31
0.0
  0
LINE
  5
CCE
  8
0
  6
CONTINUOUS
 62
     2
 10
504.02663243378868
 20
168.20458911885339
 30
0.0
 11
506.62663243378722
 21
168.20458911885339
 31
0.0
  0
LINE
  5
CCF
  8
0
  6
CONTINUOUS
 10
499.71947308043912
 20
172.50458911885269
 30
0.0
 11
499.02663243378868
 21
171.30458911885199
 31
0.0
  0
POLYLINE
  5
CD0
  8
0
  6
CONTINUOUS
 66
     1
 10
0.0
 20
0.0
 30
0.0
  0
VERTEX
  5
1456
  8
0
  6
CONTINUOUS
 10
499.02663243378868
 20
165.00458911885269
 30
0.0
 42
-0.0851703918331037
  0
VERTEX
  5
1457
  8
0
  6
CONTINUOUS
 10
499.71463243378878
 20
169.00458911885269
 30
0.0
 42
-0.3457679526359281
  0
VERTEX
  5
1458
  8
0
  6
CONTINUOUS
 10
499.3730527571139
 20
171.9045891188523
 30
0.0
  0
SEQEND
  5
1459
  8
0
  6
CONTINUOUS
  0
LINE
  5
CD5
  8
0
  6
CONTINUOUS
 10
499.71463243378872
 20
169.00458911885269
 30
0.0
 11
503.33863243378858
 21
169.00458911885269
 31
0.0
  0
LINE
  5
CD6
  8
0
  6
CONTINUOUS
 10
499.71947308043912
 20
172.50458911885269
 30
0.0
 11
503.33379178713818
 21
172.50458911885269
 31
0.0
  0
ARC
  5
CD7
  8
0
  6
CONTINUOUS
 62
     2
 10
754.88671072490661
 20
311.38443071016212
 30
0.0
 40
3.399999999999999
 50
74.242562599195679
 51
23.28322721928971
  0
POLYLINE
  5
CD8
  8
0
  6
CONTINUOUS
 66
     1
 10
0.0
 20
0.0
 30
0.0
 70
     1
  0
VERTEX
  5
145A
  8
0
  6
CONTINUOUS
 10
753.73201018652662
 20
313.38443071016212
 30
0.0
  0
VERTEX
  5
145B
  8
0
  6
CONTINUOUS
 10
752.57730964814846
 20
311.38443071016212
 30
0.0
  0
VERTEX
  5
145C
  8
0
  6
CONTINUOUS
 10
753.73201018652662
 20
309.38443071016212
 30
0.0
  0
VERTEX
  5
145D
  8
0
  6
CONTINUOUS
 10
756.04141126328659
 20
309.38443071016212
 30
0.0
  0
VERTEX
  5
145E
  8
0
  6
CONTINUOUS
 10
757.19611180166476
 20
311.38443071016212
 30
0.0
  0
VERTEX
  5
145F
  8
0
  6
CONTINUOUS
 10
756.04141126328659
 20
313.38443071016212
 30
0.0
  0
SEQEND
  5
1460
  8
0
  6
CONTINUOUS
  0
LINE
  5
CE0
  8
CENTER
  6
CENTER
 10
754.88671072490661
 20
321.38443071016212
 30
0.0
 11
754.88671072490661
 21
301.38443071016201
 31
0.0
  0
POLYLINE
  5
CE1
  8
0
  6
CONTINUOUS
 66
     1
 10
0.0
 20
0.0
 30
0.0
  0
VERTEX
  5
1461
  8
0
  6
CONTINUOUS
 10
443.02663243378868
 20
244.00458911885269
 30
0.0
 42
0.0851703918331037
  0
VERTEX
  5
1462
  8
0
  6
CONTINUOUS
 10
439.02663243378868
 20
243.31658911885259
 30
0.0
 42
0.3457679526359281
  0
VERTEX
  5
1463
  8
0
  6
CONTINUOUS
 10
436.1266324337891
 20
243.65816879552739
 30
0.0
  0
SEQEND
  5
1464
  8
0
  6
CONTINUOUS
  0
LINE
  5
CE6
  8
0
  6
CONTINUOUS
 10
439.02663243378868
 20
245.80458911885199
 30
0.0
 11
440.2266324337894
 21
247.00458911885269
 31
0.0
  0
LINE
  5
CE7
  8
0
  6
CONTINUOUS
 10
447.02663243378868
 20
245.80458911885199
 30
0.0
 11
439.02663243378868
 21
245.80458911885199
 31
0.0
  0
LINE
  5
CE8
  8
0
  6
CONTINUOUS
 10
449.32663243378801
 20
244.00458911885269
 30
0.0
 11
436.7266324337894
 21
244.00458911885269
 31
0.0
  0
POLYLINE
  5
CE9
  8
0
  6
CONTINUOUS
 66
     1
 10
0.0
 20
0.0
 30
0.0
  0
VERTEX
  5
1465
  8
0
  6
CONTINUOUS
 10
443.02663243378862
 20
239.00458911885269
 30
0.0
 42
-0.0851703918331037
  0
VERTEX
  5
1466
  8
0
  6
CONTINUOUS
 10
439.02663243378862
 20
239.69258911885279
 30
0.0
 42
-0.3457679526359281
  0
VERTEX
  5
1467
  8
0
  6
CONTINUOUS
 10
436.12663243378898
 20
239.35100944217791
 30
0.0
  0
SEQEND
  5
1468
  8
0
  6
CONTINUOUS
  0
LINE
  5
CEE
  8
CENTER
  6
CENTER
 10
431.52663243378868
 20
207.50458911885269
 30
0.0
 11
431.52663243378868
 21
219.50458911885269
 31
0.0
  0
CIRCLE
  5
CEF
  8
0
  6
CONTINUOUS
 10
431.52663243378868
 20
213.50458911885269
 30
0.0
 40
2.5
  0
ARC
  5
CF0
  8
0
  6
CONTINUOUS
 62
     2
 10
431.52663243378868
 20
213.50458911885269
 30
0.0
 40
3.0
 50
338.35967540570613
 51
287.47149231941358
  0
LINE
  5
CF1
  8
CENTER
  6
CENTER
 10
425.52663243378862
 20
213.50458911885261
 30
0.0
 11
437.52663243378868
 21
213.50458911885269
 31
0.0
  0
LINE
  5
CF2
  8
0
  6
CONTINUOUS
 10
435.52663243378868
 20
243.3117484722022
 30
0.0
 11
436.72663243378952
 21
244.00458911885269
 31
0.0
  0
LINE
  5
CF3
  8
0
  6
CONTINUOUS
 62
     2
 10
439.82663243378801
 20
244.00458911885269
 30
0.0
 11
439.82663243378801
 21
246.60458911885121
 31
0.0
  0
LINE
  5
CF4
  8
0
  6
CONTINUOUS
 10
439.02663243378862
 20
244.00458911885269
 30
0.0
 11
439.02663243378868
 21
245.80458911885199
 31
0.0
  0
LINE
  5
CF5
  8
0
  6
CONTINUOUS
 10
435.52663243378862
 20
239.6974297655031
 30
0.0
 11
436.7266324337894
 21
239.00458911885269
 31
0.0
  0
LINE
  5
CF6
  8
0
  6
CONTINUOUS
 10
435.52663243378868
 20
239.6974297655031
 30
0.0
 11
435.52663243378868
 21
243.3117484722022
 31
0.0
  0
LINE
  5
CF7
  8
0
  6
CONTINUOUS
 10
439.02663243378868
 20
239.69258911885279
 30
0.0
 11
439.02663243378868
 21
243.31658911885259
 31
0.0
  0
LINE
  5
CF8
  8
0
  6
CONTINUOUS
 10
450.52663243378868
 20
243.3117484722022
 30
0.0
 11
449.32663243378801
 21
244.00458911885269
 31
0.0
  0
POLYLINE
  5
CF9
  8
0
  6
CONTINUOUS
 66
     1
 10
0.0
 20
0.0
 30
0.0
  0
VERTEX
  5
1469
  8
0
  6
CONTINUOUS
 10
443.02663243378868
 20
244.00458911885269
 30
0.0
 42
-0.0851703918331037
  0
VERTEX
  5
146A
  8
0
  6
CONTINUOUS
 10
447.02663243378868
 20
243.31658911885259
 30
0.0
 42
-0.3457679526359281
  0
VERTEX
  5
146B
  8
0
  6
CONTINUOUS
 10
449.92663243378843
 20
243.65816879552739
 30
0.0
  0
SEQEND
  5
146C
  8
0
  6
CONTINUOUS
  0
LINE
  5
CFE
  8
CENTER
  6
CENTER
 10
443.02663243378868
 20
222.74813678590471
 30
0.0
 11
443.02663243378868
 21
250.00458911885269
 31
0.0
  0
LINE
  5
CFF
  8
0
  6
CONTINUOUS
 10
447.02663243378868
 20
245.80458911885199
 30
0.0
 11
445.82663243378801
 21
247.00458911885269
 31
0.0
  0
LINE
  5
D00
  8
0
  6
CONTINUOUS
 10
445.82663243378801
 20
247.00458911885269
 30
0.0
 11
440.22663243378952
 21
247.00458911885269
 31
0.0
  0
LINE
  5
D01
  8
0
  6
CONTINUOUS
 10
447.02663243378868
 20
244.00458911885269
 30
0.0
 11
447.02663243378868
 21
245.80458911885199
 31
0.0
  0
LINE
  5
D02
  8
0
  6
CONTINUOUS
 62
     2
 10
446.2266324337894
 20
244.00458911885269
 30
0.0
 11
446.2266324337894
 21
246.60458911885121
 31
0.0
  0
LINE
  5
D03
  8
0
  6
CONTINUOUS
 10
450.52663243378862
 20
239.6974297655031
 30
0.0
 11
449.32663243378789
 21
239.00458911885269
 31
0.0
  0
POLYLINE
  5
D04
  8
0
  6
CONTINUOUS
 66
     1
 10
0.0
 20
0.0
 30
0.0
  0
VERTEX
  5
146D
  8
0
  6
CONTINUOUS
 10
443.02663243378862
 20
239.00458911885269
 30
0.0
 42
0.0851703918331037
  0
VERTEX
  5
146E
  8
0
  6
CONTINUOUS
 10
447.02663243378862
 20
239.69258911885279
 30
0.0
 42
0.3457679526359281
  0
VERTEX
  5
146F
  8
0
  6
CONTINUOUS
 10
449.92663243378831
 20
239.35100944217791
 30
0.0
  0
SEQEND
  5
1470
  8
0
  6
CONTINUOUS
  0
LINE
  5
D09
  8
0
  6
CONTINUOUS
 10
447.02663243378868
 20
239.69258911885271
 30
0.0
 11
447.02663243378868
 21
243.31658911885259
 31
0.0
  0
LINE
  5
D0A
  8
0
  6
CONTINUOUS
 10
450.52663243378868
 20
239.6974297655031
 30
0.0
 11
450.52663243378868
 21
243.3117484722022
 31
0.0
  0
POLYLINE
  5
D0B
  8
0
  6
CONTINUOUS
 66
     1
 10
0.0
 20
0.0
 30
0.0
 70
     1
  0
VERTEX
  5
1471
  8
0
  6
CONTINUOUS
 10
438.98518054946129
 20
318.38443071016212
 30
0.0
  0
VERTEX
  5
1472
  8
0
  6
CONTINUOUS
 10
434.9437286651339
 20
311.38443071016212
 30
0.0
  0
VERTEX
  5
1473
  8
0
  6
CONTINUOUS
 10
438.98518054946129
 20
304.38443071016212
 30
0.0
  0
VERTEX
  5
1474
  8
0
  6
CONTINUOUS
 10
447.06808431811612
 20
304.38443071016212
 30
0.0
  0
VERTEX
  5
1475
  8
0
  6
CONTINUOUS
 10
451.10953620244351
 20
311.38443071016212
 30
0.0
  0
VERTEX
  5
1476
  8
0
  6
CONTINUOUS
 10
447.06808431811612
 20
318.38443071016212
 30
0.0
  0
SEQEND
  5
1477
  8
0
  6
CONTINUOUS
  0
CIRCLE
  5
D13
  8
0
  6
CONTINUOUS
 10
443.02663243378868
 20
311.38443071016212
 30
0.0
 40
7.0
  0
POLYLINE
  5
D14
  8
0
  6
CONTINUOUS
 66
     1
 10
0.0
 20
0.0
 30
0.0
 70
     1
  0
VERTEX
  5
1478
  8
0
  6
CONTINUOUS
 10
441.87193189540869
 20
313.38443071016212
 30
0.0
  0
VERTEX
  5
1479
  8
0
  6
CONTINUOUS
 10
440.71723135703053
 20
311.38443071016212
 30
0.0
  0
VERTEX
  5
147A
  8
0
  6
CONTINUOUS
 10
441.87193189540869
 20
309.38443071016212
 30
0.0
  0
VERTEX
  5
147B
  8
0
  6
CONTINUOUS
 10
444.18133297216872
 20
309.38443071016212
 30
0.0
  0
VERTEX
  5
147C
  8
0
  6
CONTINUOUS
 10
445.33603351054683
 20
311.38443071016212
 30
0.0
  0
VERTEX
  5
147D
  8
0
  6
CONTINUOUS
 10
444.18133297216872
 20
313.38443071016212
 30
0.0
  0
SEQEND
  5
147E
  8
0
  6
CONTINUOUS
  0
ARC
  5
D1C
  8
0
  6
CONTINUOUS
 62
     2
 10
443.02663243378868
 20
311.38443071016212
 30
0.0
 40
3.399999999999999
 50
74.242562599195679
 51
23.283227219290101
  0
CIRCLE
  5
D1D
  8
0
  6
CONTINUOUS
 10
443.02663243378868
 20
311.38443071016212
 30
0.0
 40
4.0
  0
LINE
  5
D1E
  8
CENTER
  6
CENTER
 10
443.02663243378868
 20
321.38443071016212
 30
0.0
 11
443.02663243378868
 21
301.38443071016201
 31
0.0
  0
TEXT
  5
D1F
  8
DIM
  6
CONTINUOUS
 10
408.02663243378868
 20
365.08626857073853
 30
0.0
 40
3.0
  1
1
 50
90.0
  7
ROMANSS
 72
     1
 11
406.52663243378868
 21
365.4434114278813
 31
0.0
 73
     2
  0
SOLID
  5
D20
  8
DIM
  6
CONTINUOUS
 10
409.02663243378868
 20
367.38443071016212
 30
0.0
 11
410.02663243378868
 21
367.38443071016212
 31
0.0
 12
409.52663243378868
 22
370.38443071016212
 32
0.0
 13
409.52663243378868
 23
370.38443071016212
 33
0.0
  0
LINE
  5
D21
  8
DIM
  6
CONTINUOUS
 10
448.02663243378868
 20
371.38443071016212
 30
0.0
 11
408.52663243378868
 21
371.38443071016212
 31
0.0
  0
LINE
  5
D22
  8
DIM
  6
CONTINUOUS
 10
450.52663243378868
 20
373.88443071016212
 30
0.0
 11
416.52663243378868
 21
373.88443071016212
 31
0.0
  0
TEXT
  5
D23
  8
DIM
  6
CONTINUOUS
 10
457.6694895766459
 20
266.88443071016201
 30
0.0
 40
3.0
  1
263
  7
ROMANSS
 72
     1
 11
461.52663243378868
 21
268.38443071016201
 31
0.0
 73
     2
  0
TEXT
  5
D24
  8
DIM
  6
CONTINUOUS
 10
459.09806100521729
 20
274.88443071016201
 30
0.0
 40
3.0
  1
75
  7
ROMANSS
 72
     1
 11
461.52663243378868
 21
276.38443071016201
 31
0.0
 73
     2
  0
SOLID
  5
D25
  8
DIM
  6
CONTINUOUS
 10
427.02663243378868
 20
273.88443071016201
 30
0.0
 11
427.02663243378868
 21
272.88443071016201
 31
0.0
 12
424.02663243378868
 22
273.38443071016201
 32
0.0
 13
424.02663243378868
 23
273.38443071016201
 33
0.0
  0
LINE
  5
D26
  8
DIM
  6
CONTINUOUS
 10
424.02663243378868
 20
296.38443071016201
 30
0.0
 11
424.02663243378868
 21
272.38443071016201
 31
0.0
  0
TEXT
  5
D27
  8
DIM
  6
CONTINUOUS
 10
457.7409181480744
 20
282.88443071016201
 30
0.0
 40
3.0
  1
%%c72
  7
ROMANSS
 72
     1
 11
461.52663243378868
 21
284.38443071016201
 31
0.0
 73
     2
  0
SOLID
  5
D28
  8
DIM
  6
CONTINUOUS
 10
428.52663243378868
 20
281.88443071016201
 30
0.0
 11
428.52663243378868
 21
280.88443071016201
 31
0.0
 12
425.52663243378862
 22
281.38443071016201
 32
0.0
 13
425.52663243378862
 23
281.38443071016201
 33
0.0
  0
LINE
  5
D29
  8
DIM
  6
CONTINUOUS
 10
425.52663243378862
 20
289.38443071016201
 30
0.0
 11
425.52663243378862
 21
280.38443071016201
 31
0.0
  0
LINE
  5
D2A
  8
CENTER
  6
CENTER
 10
431.52663243378879
 20
311.16338345435889
 30
0.0
 11
431.52663243378879
 21
294.43187650831561
 31
0.0
  0
LINE
  5
D2B
  8
CENTER
  6
CENTER
 10
431.52663243378879
 20
349.13465130795731
 30
0.0
 11
431.52663243378879
 21
365.33698491200852
 31
0.0
  0
LINE
  5
D2C
  8
0
 10
474.02663243378868
 20
371.38443071016212
 30
0.0
 11
474.02663243378868
 21
370.38443071016212
 31
0.0
  0
LINE
  5
D2D
  8
0
 10
449.02663243378868
 20
371.38443071016212
 30
0.0
 11
449.02663243378868
 21
370.38443071016212
 31
0.0
  0
LINE
  5
D2E
  8
0
  6
CONTINUOUS
 10
451.52663243378868
 20
373.88443071016212
 30
0.0
 11
453.52663243378868
 21
373.88443071016212
 31
0.0
  0
LINE
  5
D2F
  8
0
  6
CONTINUOUS
 10
449.02663243378868
 20
371.38443071016212
 30
0.0
 11
474.02663243378868
 21
371.38443071016212
 31
0.0
  0
LINE
  5
D30
  8
0
  6
CONTINUOUS
 10
425.52663243378862
 20
369.38443071016212
 30
0.0
 11
426.52663243378868
 21
370.38443071016212
 31
0.0
  0
LINE
  5
D31
  8
0
 10
425.52663243378862
 20
362.38443071016212
 30
0.0
 11
425.52663243378862
 21
369.38443071016212
 31
0.0
  0
LINE
  5
D32
  8
0
  6
CONTINUOUS
 10
425.52663243378862
 20
290.38443071016201
 30
0.0
 11
426.52663243378868
 21
289.38443071016201
 31
0.0
  0
LINE
  5
D33
  8
0
 10
425.52663243378862
 20
297.38443071016201
 30
0.0
 11
425.52663243378862
 21
290.38443071016201
 31
0.0
  0
LINE
  5
D34
  8
0
 10
424.02663243378868
 20
362.38443071016212
 30
0.0
 11
424.02663243378868
 21
297.38443071016201
 31
0.0
  0
LINE
  5
D35
  8
CENTER
  6
CENTER
 10
433.02663243378868
 20
311.38443071016212
 30
0.0
 11
453.02663243378868
 21
311.38443071016212
 31
0.0
  0
LINE
  5
D36
  8
0
  6
CONTINUOUS
 10
503.33379178713818
 20
157.50458911885269
 30
0.0
 11
504.02663243378868
 21
158.70458911885351
 31
0.0
  0
LINE
  5
D37
  8
0
  6
CONTINUOUS
 10
504.02663243378868
 20
161.00458911885269
 30
0.0
 11
505.82663243378789
 21
161.00458911885269
 31
0.0
  0
LINE
  5
D38
  8
0
  6
CONTINUOUS
 10
499.71947308043912
 20
157.50458911885269
 30
0.0
 11
499.02663243378868
 21
158.70458911885339
 31
0.0
  0
LINE
  5
D39
  8
0
  6
CONTINUOUS
 10
499.71947308043912
 20
157.50458911885269
 30
0.0
 11
503.33379178713818
 21
157.50458911885269
 31
0.0
  0
LINE
  5
D3A
  8
0
  6
CONTINUOUS
 10
499.71463243378878
 20
161.00458911885269
 30
0.0
 11
503.33863243378858
 21
161.00458911885269
 31
0.0
  0
LINE
  5
D3B
  8
CENTER
  6
CENTER
 10
485.52663243378868
 20
213.50458911885269
 30
0.0
 11
497.52663243378868
 21
213.50458911885269
 31
0.0
  0
LINE
  5
D3C
  8
CENTER
  6
CENTER
 10
491.52663243378868
 20
207.50458911885269
 30
0.0
 11
491.52663243378868
 21
219.50458911885269
 31
0.0
  0
CIRCLE
  5
D3D
  8
0
  6
CONTINUOUS
 10
491.52663243378868
 20
213.50458911885269
 30
0.0
 40
2.5
  0
ARC
  5
D3E
  8
0
  6
CONTINUOUS
 62
     2
 10
491.52663243378868
 20
213.50458911885269
 30
0.0
 40
3.0
 50
338.35967540570613
 51
287.47149231941358
  0
SOLID
  5
D3F
  8
DIM
  6
CONTINUOUS
 10
496.02663243378868
 20
273.88443071016201
 30
0.0
 11
496.02663243378868
 21
272.88443071016201
 31
0.0
 12
499.02663243378868
 22
273.38443071016201
 32
0.0
 13
499.02663243378868
 23
273.38443071016201
 33
0.0
  0
LINE
  5
D40
  8
DIM
  6
CONTINUOUS
 10
499.02663243378868
 20
296.38443071016201
 30
0.0
 11
499.02663243378868
 21
272.38443071016201
 31
0.0
  0
SOLID
  5
D41
  8
DIM
  6
CONTINUOUS
 10
494.52663243378868
 20
281.88443071016201
 30
0.0
 11
494.52663243378868
 21
280.88443071016201
 31
0.0
 12
497.52663243378868
 22
281.38443071016201
 32
0.0
 13
497.52663243378868
 23
281.38443071016201
 33
0.0
  0
LINE
  5
D42
  8
DIM
  6
CONTINUOUS
 10
497.52663243378868
 20
289.38443071016201
 30
0.0
 11
497.52663243378868
 21
280.38443071016201
 31
0.0
  0
LINE
  5
D43
  8
CENTER
  6
CENTER
 10
491.52663243378868
 20
348.81185789694678
 30
0.0
 11
491.52663243378868
 21
365.33698491200852
 31
0.0
  0
LINE
  5
D44
  8
CENTER
  6
CENTER
 10
491.52663243378868
 20
311.18980578084012
 30
0.0
 11
491.52663243378868
 21
294.43187650831561
 31
0.0
  0
LINE
  5
D45
  8
0
  6
CONTINUOUS
 10
497.52663243378868
 20
369.38443071016212
 30
0.0
 11
496.52663243378868
 21
370.38443071016212
 31
0.0
  0
LINE
  5
D46
  8
0
 10
497.52663243378868
 20
362.38443071016212
 30
0.0
 11
497.52663243378868
 21
369.38443071016212
 31
0.0
  0
LINE
  5
D47
  8
0
  6
CONTINUOUS
 10
497.52663243378868
 20
290.38443071016201
 30
0.0
 11
496.52663243378868
 21
289.38443071016201
 31
0.0
  0
LINE
  5
D48
  8
0
 10
497.52663243378868
 20
297.38443071016201
 30
0.0
 11
497.52663243378868
 21
290.38443071016201
 31
0.0
  0
LINE
  5
D49
  8
0
 10
499.02663243378868
 20
362.38443071016201
 30
0.0
 11
499.02663243378868
 21
297.38443071016201
 31
0.0
  0
LINE
  5
D4A
  8
DIM
  6
CONTINUOUS
 10
683.88671072490661
 20
273.38443071016201
 30
0.0
 11
770.88671072490661
 21
273.38443071016201
 31
0.0
  0
LINE
  5
D4B
  8
CENTER
  6
CENTER
 10
677.78235519438147
 20
322.38443071016212
 30
0.0
 11
691.5102956629139
 21
322.38443071016212
 31
0.0
  0
LINE
  5
D4C
  8
CENTER
  6
CENTER
 10
677.88025548335895
 20
333.88443071016201
 30
0.0
 11
697.28025548335881
 21
333.88443071016201
 31
0.0
  0
LINE
  5
D4D
  8
0
  6
CONTINUOUS
 10
680.88671072490649
 20
297.38443071016201
 30
0.0
 11
773.88671072490661
 21
297.38443071016201
 31
0.0
  0
LINE
  5
D4E
  8
0
  6
CONTINUOUS
 10
680.88671072490649
 20
362.38443071016212
 30
0.0
 11
773.88671072490661
 21
362.38443071016201
 31
0.0
  0
POLYLINE
  5
D4F
  8
0
 66
     1
 10
0.0
 20
0.0
 30
0.0
 70
     1
  0
VERTEX
  5
147F
  8
0
 10
686.88671072490661
 20
312.61648151773102
 30
0.0
  0
VERTEX
  5
1480
  8
0
 10
686.88671072490661
 20
309.15237990259322
 30
0.0
  0
VERTEX
  5
1481
  8
0
 10
689.88671072490661
 20
307.42032909502439
 30
0.0
  0
VERTEX
  5
1482
  8
0
 10
692.88671072490649
 20
309.15237990259322
 30
0.0
  0
VERTEX
  5
1483
  8
0
 10
692.88671072490649
 20
312.61648151773102
 30
0.0
  0
VERTEX
  5
1484
  8
0
 10
689.88671072490661
 20
314.34853232529991
 30
0.0
  0
SEQEND
  5
1485
  8
0
  0
CIRCLE
  5
D57
  8
0
 10
689.88671072490661
 20
310.88443071016212
 30
0.0
 40
5.0
  0
CIRCLE
  5
D58
  8
0
 10
689.88671072490661
 20
310.88443071016212
 30
0.0
 40
5.5
  0
POLYLINE
  5
D59
  8
0
 66
     1
 10
0.0
 20
0.0
 30
0.0
 70
     1
  0
VERTEX
  5
1486
  8
0
 10
686.88671072490661
 20
350.61648151773102
 30
0.0
  0
VERTEX
  5
1487
  8
0
 10
686.88671072490661
 20
347.15237990259322
 30
0.0
  0
VERTEX
  5
1488
  8
0
 10
689.88671072490661
 20
345.42032909502439
 30
0.0
  0
VERTEX
  5
1489
  8
0
 10
692.88671072490649
 20
347.15237990259322
 30
0.0
  0
VERTEX
  5
148A
  8
0
 10
692.88671072490649
 20
350.61648151773102
 30
0.0
  0
VERTEX
  5
148B
  8
0
 10
689.88671072490661
 20
352.34853232529991
 30
0.0
  0
SEQEND
  5
148C
  8
0
  0
CIRCLE
  5
D61
  8
0
 10
689.88671072490661
 20
348.88443071016212
 30
0.0
 40
5.5
  0
CIRCLE
  5
D62
  8
0
 10
689.88671072490661
 20
348.88443071016212
 30
0.0
 40
5.0
  0
LINE
  5
D63
  8
CENTER
  6
CENTER
 10
683.38671072490661
 20
348.88443071016212
 30
0.0
 11
696.38671072490661
 21
348.88443071016212
 31
0.0
  0
LINE
  5
D64
  8
0
 10
686.38671072490661
 20
330.88443071016201
 30
0.0
 11
689.99226709721552
 21
330.88443071016201
 31
0.0
  0
LINE
  5
D65
  8
0
 10
686.38671072490661
 20
328.88443071016212
 30
0.0
 11
689.99226709721552
 21
328.88443071016212
 31
0.0
  0
ARC
  5
D66
  8
0
 10
689.88671072490661
 20
348.88443071016189
 30
0.0
 40
7.5
 50
245.68426082882789
 51
304.1930771251387
  0
LINE
  5
D67
  8
0
 10
690.85576251756788
 20
324.89402949285869
 30
0.0
 11
686.38671072490661
 21
324.89402949285869
 31
0.0
  0
ARC
  5
D68
  8
0
 10
689.88671072490661
 20
310.88443071016212
 30
0.0
 40
7.5
 50
55.806922874861257
 51
114.3157391711738
  0
LINE
  5
D69
  8
CENTER
  6
CENTER
 10
683.38671072490661
 20
310.88443071016212
 30
0.0
 11
696.38671072490661
 21
310.88443071016212
 31
0.0
  0
LINE
  5
D6A
  8
CENTER
  6
CENTER
 10
677.88671072490661
 20
329.88443071016212
 30
0.0
 11
776.88671072490649
 21
329.88443071016212
 31
0.0
  0
POLYLINE
  5
D6B
  8
0
 66
     1
 10
0.0
 20
0.0
 30
0.0
 70
     1
  0
VERTEX
  5
148D
  8
0
 10
734.88671072490649
 20
348.88443071016212
 30
0.0
 42
0.4142135623730951
  0
VERTEX
  5
148E
  8
0
 10
727.88671072490627
 20
355.88443071016212
 30
0.0
  0
VERTEX
  5
148F
  8
0
 10
689.88671072490661
 20
355.88443071016212
 30
0.0
 42
0.4142135623730951
  0
VERTEX
  5
1490
  8
0
 10
682.88671072490661
 20
348.88443071016212
 30
0.0
  0
VERTEX
  5
1491
  8
0
 10
682.88671072490661
 20
310.88443071016212
 30
0.0
 42
0.4142135623730951
  0
VERTEX
  5
1492
  8
0
 10
689.88671072490661
 20
303.88443071016212
 30
0.0
  0
VERTEX
  5
1493
  8
0
 10
727.88671072490627
 20
303.88443071016212
 30
0.0
 42
0.4142135623730957
  0
VERTEX
  5
1494
  8
0
 10
734.88671072490649
 20
310.88443071016212
 30
0.0
  0
SEQEND
  5
1495
  8
0
  0
POLYLINE
  5
D75
  8
0
 66
     1
 10
0.0
 20
0.0
 30
0.0
 70
     1
  0
VERTEX
  5
1496
  8
0
 10
735.38671072490649
 20
348.88443071016212
 30
0.0
 42
0.4142135623730951
  0
VERTEX
  5
1497
  8
0
 10
727.88671072490627
 20
356.38443071016212
 30
0.0
  0
VERTEX
  5
1498
  8
0
 10
689.88671072490661
 20
356.38443071016212
 30
0.0
 42
0.4142135623730951
  0
VERTEX
  5
1499
  8
0
 10
682.38671072490661
 20
348.88443071016212
 30
0.0
  0
VERTEX
  5
149A
  8
0
 10
682.38671072490661
 20
310.88443071016212
 30
0.0
 42
0.4142135623730951
  0
VERTEX
  5
149B
  8
0
 10
689.88671072490661
 20
303.38443071016212
 30
0.0
  0
VERTEX
  5
149C
  8
0
 10
727.88671072490627
 20
303.38443071016212
 30
0.0
 42
0.4142135623730951
  0
VERTEX
  5
149D
  8
0
 10
735.38671072490649
 20
310.88443071016212
 30
0.0
  0
SEQEND
  5
149E
  8
0
  0
LINE
  5
D7F
  8
0
 10
593.02663243378868
 20
185.00458911885269
 30
0.0
 11
593.02663243378868
 21
237.00458911885269
 31
0.0
  0
LINE
  5
D80
  8
0
 10
593.02663243378868
 20
193.50458911885269
 30
0.0
 11
596.02663243378868
 21
193.50458911885269
 31
0.0
  0
ARC
  5
D81
  8
0
 10
596.02663243378868
 20
194.50458911885269
 30
0.0
 40
1.0
 50
270.0
 51
0.0
  0
ARC
  5
D82
  8
0
 10
596.02663243378868
 20
227.50458911885269
 30
0.0
 40
1.0
 50
0.0
 51
90.0
  0
LINE
  5
D83
  8
0
 10
597.02663243378868
 20
194.50458911885269
 30
0.0
 11
597.02663243378868
 21
227.50458911885269
 31
0.0
  0
LINE
  5
D84
  8
0
 10
563.02663243378868
 20
184.50458911885269
 30
0.0
 11
563.02663243378868
 21
237.50458911885269
 31
0.0
  0
LINE
  5
D85
  8
0
 10
563.02663243378868
 20
237.50458911885269
 30
0.0
 11
593.02663243378868
 21
237.00458911885269
 31
0.0
  0
LINE
  5
D86
  8
0
 10
563.02663243378868
 20
184.50458911885269
 30
0.0
 11
593.02663243378868
 21
185.00458911885269
 31
0.0
  0
ARC
  5
D87
  8
0
  6
CONTINUOUS
 10
672.46973112929504
 20
307.88443071016212
 30
0.0
 40
8.4553825989882458
 50
335.54757590941512
 51
24.452424090584881
  0
ARC
  5
D88
  8
0
  6
CONTINUOUS
 10
672.46973112929504
 20
314.88443071016212
 30
0.0
 40
8.4553825989882458
 50
335.54757590941512
 51
24.452424090584881
  0
LINE
  5
D89
  8
0
  6
CONTINUOUS
 10
672.88671072490649
 20
308.58443071016279
 30
0.0
 11
672.88671072490649
 21
314.18443071016122
 31
0.0
  0
LINE
  5
D8A
  8
0
  6
CONTINUOUS
 10
674.08671072490733
 20
307.38443071016212
 30
0.0
 11
672.88671072490649
 21
308.58443071016279
 31
0.0
  0
LINE
  5
D8B
  8
0
  6
CONTINUOUS
 10
675.78671072490795
 20
307.38443071016212
 30
0.0
 11
674.08671072490733
 21
307.38443071016212
 31
0.0
  0
LINE
  5
D8C
  8
0
  6
CONTINUOUS
 10
674.08671072490733
 20
315.38443071016212
 30
0.0
 11
672.88671072490649
 21
314.18443071016139
 31
0.0
  0
LINE
  5
D8D
  8
0
  6
CONTINUOUS
 10
675.78671072490795
 20
315.38443071016212
 30
0.0
 11
674.08671072490733
 21
315.38443071016212
 31
0.0
  0
LINE
  5
D8E
  8
0
  6
CONTINUOUS
 10
680.88671072490649
 20
318.38443071016212
 30
0.0
 11
680.88671072490649
 21
311.38443071016212
 31
0.0
  0
LINE
  5
D8F
  8
0
  6
CONTINUOUS
 10
675.88671072490661
 20
318.38443071016212
 30
0.0
 11
680.88671072490649
 21
318.38443071016212
 31
0.0
  0
ARC
  5
D90
  8
0
  6
CONTINUOUS
 10
684.3036903205176
 20
314.88443071016212
 30
0.0
 40
8.4553825989878657
 50
155.54757590940659
 51
204.4524240905933
  0
LINE
  5
D91
  8
0
  6
CONTINUOUS
 10
680.16671072490715
 20
311.38443071016212
 30
0.0
 11
676.60671072490595
 21
311.38443071016212
 31
0.0
  0
LINE
  5
D92
  8
0
  6
CONTINUOUS
 10
680.88671072490649
 20
304.38443071016212
 30
0.0
 11
680.88671072490649
 21
311.38443071016212
 31
0.0
  0
LINE
  5
D93
  8
0
  6
CONTINUOUS
 10
675.88671072490661
 20
304.38443071016212
 30
0.0
 11
680.88671072490649
 21
304.38443071016212
 31
0.0
  0
ARC
  5
D94
  8
0
  6
CONTINUOUS
 10
684.3036903205176
 20
307.88443071016212
 30
0.0
 40
8.4553825989878657
 50
155.54757590940659
 51
204.45242409059369
  0
LINE
  5
D95
  8
0
  6
CONTINUOUS
 10
680.88671072490649
 20
311.38443071016212
 30
0.0
 11
676.60671072490595
 21
311.38443071016212
 31
0.0
  0
LINE
  5
D96
  8
0
  6
CONTINUOUS
 62
     2
 10
675.78671072490795
 20
314.58443071016279
 30
0.0
 11
673.28671072490795
 21
314.58443071016279
 31
0.0
  0
LINE
  5
D97
  8
0
  6
CONTINUOUS
 10
675.88671072490661
 20
318.38443071016212
 30
0.0
 11
675.88671072490661
 21
304.38443071016212
 31
0.0
  0
LINE
  5
D98
  8
0
  6
CONTINUOUS
 62
     2
 10
675.78671072490795
 20
308.18443071016139
 30
0.0
 11
673.28671072490795
 21
308.18443071016139
 31
0.0
  0
LINE
  5
D99
  8
0
  6
CONTINUOUS
 10
674.08671072490733
 20
307.38443071016212
 30
0.0
 11
674.08671072490733
 21
315.38443071016212
 31
0.0
  0
LINE
  5
D9A
  8
CENTER
  6
CENTER
 10
670.08398791618617
 20
311.38443071016212
 30
0.0
 11
689.15438098007246
 21
311.38443071016212
 31
0.0
  0
SOLID
  5
D9B
  8
DIM
  6
CONTINUOUS
 10
687.91862765860537
 20
354.596253650731
 30
0.0
 11
687.03929057269329
 21
354.12005380892123
 31
0.0
 12
688.90755864107905
 22
351.72014247209
 32
0.0
 13
688.90755864107905
 23
351.72014247209
 33
0.0
  0
LINE
  5
D9C
  8
DIM
  6
CONTINUOUS
 10
590.40997523010708
 20
372.27580122412468
 30
0.0
 11
610.60036242283604
 21
372.27580122412468
 31
0.0
  0
LINE
  5
D9D
  8
DIM
  6
CONTINUOUS
 10
584.2484961318205
 20
341.32587116062223
 30
0.0
 11
610.60036242283604
 21
372.27580122412468
 31
0.0
  0
SOLID
  5
D9E
  8
DIM
  6
CONTINUOUS
 10
584.62919599807515
 20
341.00172981516653
 30
0.0
 11
583.86779626556597
 21
341.65001250607799
 31
0.0
 12
582.3036480590863
 22
339.04167196309561
 32
0.0
 13
582.3036480590863
 23
339.04167196309561
 33
0.0
  0
POLYLINE
  5
D9F
  8
DIM
  6
CONTINUOUS
 66
     1
 10
0.0
 20
0.0
 30
0.0
 70
     1
  0
VERTEX
  5
149F
  8
DIM
  6
CONTINUOUS
 10
660.96383034943051
 20
328.35977448208979
 30
0.0
  0
VERTEX
  5
14A0
  8
DIM
  6
CONTINUOUS
 10
660.96383034943051
 20
326.47427562206087
 30
0.0
  0
VERTEX
  5
14A1
  8
DIM
  6
CONTINUOUS
 10
662.90458488684612
 20
326.47427562206087
 30
0.0
  0
VERTEX
  5
14A2
  8
DIM
  6
CONTINUOUS
 10
662.90458488684612
 20
328.35977448208979
 30
0.0
  0
SEQEND
  5
14A3
  8
DIM
  6
CONTINUOUS
  0
POLYLINE
  5
DA5
  8
DIM
  6
CONTINUOUS
 66
     1
 10
0.0
 20
0.0
 30
0.0
 70
     1
  0
VERTEX
  5
14A4
  8
DIM
  6
CONTINUOUS
 10
652.96383034943051
 20
328.35977448208979
 30
0.0
  0
VERTEX
  5
14A5
  8
DIM
  6
CONTINUOUS
 10
652.96383034943051
 20
326.47427562206087
 30
0.0
  0
VERTEX
  5
14A6
  8
DIM
  6
CONTINUOUS
 10
654.90458488684612
 20
326.47427562206087
 30
0.0
  0
VERTEX
  5
14A7
  8
DIM
  6
CONTINUOUS
 10
654.90458488684612
 20
328.35977448208979
 30
0.0
  0
SEQEND
  5
14A8
  8
DIM
  6
CONTINUOUS
  0
TEXT
  5
DAB
  8
DIM
  6
CONTINUOUS
 10
603.52663243378879
 20
326.09871642444779
 30
0.0
 40
3.0
  1
%%c35
 50
90.0
  7
ROMANSS
 72
     1
 11
602.02663243378879
 21
329.88443071016212
 31
0.0
 73
     2
  0
SOLID
  5
DAC
  8
DIM
  6
CONTINUOUS
 10
604.52663243378868
 20
344.38443071016212
 30
0.0
 11
605.52663243378868
 21
344.38443071016212
 31
0.0
 12
605.02663243378868
 22
347.38443071016212
 32
0.0
 13
605.02663243378868
 23
347.38443071016212
 33
0.0
  0
SOLID
  5
DAD
  8
DIM
  6
CONTINUOUS
 10
604.52663243378868
 20
315.38443071016212
 30
0.0
 11
605.52663243378868
 21
315.38443071016212
 31
0.0
 12
605.02663243378868
 22
312.38443071016212
 32
0.0
 13
605.02663243378868
 23
312.38443071016212
 33
0.0
  0
LINE
  5
DAE
  8
DIM
  6
CONTINUOUS
 10
605.02663243378868
 20
315.38443071016212
 30
0.0
 11
605.02663243378868
 21
344.38443071016212
 31
0.0
  0
LINE
  5
DAF
  8
DIM
  6
CONTINUOUS
 10
597.02663243378868
 20
347.38443071016212
 30
0.0
 11
606.02663243378879
 21
347.38443071016212
 31
0.0
  0
LINE
  5
DB0
  8
DIM
  6
CONTINUOUS
 10
597.02663243378868
 20
312.38443071016212
 30
0.0
 11
606.02663243378879
 21
312.38443071016212
 31
0.0
  0
TEXT
  5
DB1
  8
DIM
  6
CONTINUOUS
 10
655.38671072490638
 20
328.80264516225009
 30
0.0
 40
3.0
  1
53
 50
90.0
  7
ROMANSS
 72
     1
 11
653.88671072490627
 21
331.23121659082148
 31
0.0
 73
     2
  0
SOLID
  5
DB2
  8
DIM
  6
CONTINUOUS
 10
656.38671072490627
 20
353.38443071016212
 30
0.0
 11
657.38671072490627
 21
353.38443071016212
 31
0.0
 12
656.88671072490627
 22
356.38443071016212
 32
0.0
 13
656.88671072490627
 23
356.38443071016212
 33
0.0
  0
SOLID
  5
DB3
  8
DIM
  6
CONTINUOUS
 10
656.38671072490627
 20
306.38443071016212
 30
0.0
 11
657.38671072490627
 21
306.38443071016212
 31
0.0
 12
656.88671072490627
 22
303.38443071016212
 32
0.0
 13
656.88671072490627
 23
303.38443071016212
 33
0.0
  0
LINE
  5
DB4
  8
DIM
  6
CONTINUOUS
 10
656.88671072490627
 20
306.38443071016212
 30
0.0
 11
656.88671072490627
 21
353.38443071016212
 31
0.0
  0
LINE
  5
DB5
  8
DIM
  6
CONTINUOUS
 10
688.88671072490649
 20
356.38443071016212
 30
0.0
 11
655.88671072490638
 21
356.38443071016212
 31
0.0
  0
LINE
  5
DB6
  8
DIM
  6
CONTINUOUS
 10
688.88671072490649
 20
303.38443071016212
 30
0.0
 11
655.88671072490638
 21
303.38443071016212
 31
0.0
  0
TEXT
  5
DB7
  8
DIM
  6
CONTINUOUS
 10
663.38671072490638
 20
328.80264516225009
 30
0.0
 40
3.0
  1
38
 50
90.0
  7
ROMANSS
 72
     1
 11
661.88671072490627
 21
331.23121659082148
 31
0.0
 73
     2
  0
SOLID
  5
DB8
  8
DIM
  6
CONTINUOUS
 10
664.38671072490638
 20
345.88443071016212
 30
0.0
 11
665.38671072490627
 21
345.88443071016212
 31
0.0
 12
664.88671072490627
 22
348.88443071016212
 32
0.0
 13
664.88671072490627
 23
348.88443071016212
 33
0.0
  0
SOLID
  5
DB9
  8
DIM
  6
CONTINUOUS
 10
664.38671072490638
 20
313.88443071016212
 30
0.0
 11
665.38671072490627
 21
313.88443071016212
 31
0.0
 12
664.88671072490627
 22
310.88443071016212
 32
0.0
 13
664.88671072490627
 23
310.88443071016212
 33
0.0
  0
LINE
  5
DBA
  8
DIM
  6
CONTINUOUS
 10
664.88671072490627
 20
313.88443071016212
 30
0.0
 11
664.88671072490627
 21
345.88443071016212
 31
0.0
  0
LINE
  5
DBB
  8
DIM
  6
CONTINUOUS
 10
682.38671072490661
 20
348.88443071016212
 30
0.0
 11
663.88671072490638
 21
348.88443071016212
 31
0.0
  0
LINE
  5
DBC
  8
DIM
  6
CONTINUOUS
 10
682.38671072490661
 20
310.88443071016212
 30
0.0
 11
663.88671072490638
 21
310.88443071016212
 31
0.0
  0
SOLID
  5
DBD
  8
DIM
  6
CONTINUOUS
 10
683.88671072490661
 20
273.88443071016201
 30
0.0
 11
683.88671072490661
 21
272.88443071016201
 31
0.0
 12
680.88671072490649
 22
273.38443071016201
 32
0.0
 13
680.88671072490649
 23
273.38443071016201
 33
0.0
  0
LINE
  5
DBE
  8
DIM
  6
CONTINUOUS
 10
680.88671072490649
 20
296.38443071016201
 30
0.0
 11
680.88671072490649
 21
272.38443071016201
 31
0.0
  0
TEXT
  5
DBF
  8
DIM
  6
CONTINUOUS
 10
603.37452472502571
 20
266.88443071016201
 30
0.0
 40
3.0
  1
4
  7
ROMANSS
 72
     1
 11
604.44595329645415
 21
268.38443071016201
 31
0.0
 73
     2
  0
SOLID
  5
DC0
  8
DIM
  6
CONTINUOUS
 10
600.02663243378868
 20
265.88443071016201
 30
0.0
 11
600.02663243378868
 21
264.88443071016201
 31
0.0
 12
597.02663243378868
 22
265.38443071016201
 32
0.0
 13
597.02663243378868
 23
265.38443071016201
 33
0.0
  0
LINE
  5
DC1
  8
DIM
  6
CONTINUOUS
 10
597.02663243378868
 20
311.37968599698729
 30
0.0
 11
597.02663243378868
 21
264.38443071016201
 31
0.0
  0
SOLID
  5
DC2
  8
DIM
  6
CONTINUOUS
 10
590.02663243378879
 20
265.88443071016201
 30
0.0
 11
590.02663243378879
 21
264.88443071016201
 31
0.0
 12
593.02663243378868
 22
265.38443071016201
 32
0.0
 13
593.02663243378868
 23
265.38443071016201
 33
0.0
  0
LINE
  5
DC3
  8
DIM
  6
CONTINUOUS
 10
593.02663243378868
 20
302.88443071016212
 30
0.0
 11
593.02663243378868
 21
264.38443071016201
 31
0.0
  0
ARC
  5
DC4
  8
0
  6
CONTINUOUS
 10
569.52663243378879
 20
322.38443071016212
 30
0.0
 40
3.5
 50
38.213210701738312
 51
81.786789298261766
  0
ARC
  5
DC5
  8
0
  6
CONTINUOUS
 10
569.52663243378879
 20
322.38443071016212
 30
0.0
 40
3.5
 50
338.21321070173849
 51
21.786789298261379
  0
LINE
  5
DC6
  8
0
  6
CONTINUOUS
 10
569.02663243378879
 20
327.35936789569519
 30
0.0
 11
569.02663243378879
 21
325.84853232529991
 31
0.0
  0
LINE
  5
DC7
  8
0
  6
CONTINUOUS
 10
570.02663243378879
 20
327.35936789569519
 30
0.0
 11
570.02663243378879
 21
325.84853232529991
 31
0.0
  0
LINE
  5
DC8
  8
0
  6
CONTINUOUS
 10
572.27663243378879
 20
324.54949421962323
 30
0.0
 11
573.58505441869238
 21
325.30491200482089
 31
0.0
  0
LINE
  5
DC9
  8
0
  6
CONTINUOUS
 10
572.77663243378879
 20
323.68346881583881
 30
0.0
 11
574.08505441869227
 21
324.43888660103642
 31
0.0
  0
ARC
  5
DCA
  8
0
  6
CONTINUOUS
 10
569.52663243378879
 20
322.38443071016212
 30
0.0
 40
3.5
 50
278.21321070173809
 51
321.78678929826162
  0
LINE
  5
DCB
  8
0
  6
CONTINUOUS
 10
569.02663243378879
 20
318.92032909502427
 30
0.0
 11
569.02663243378879
 21
317.40949352462889
 31
0.0
  0
LINE
  5
DCC
  8
0
  6
CONTINUOUS
 10
570.02663243378879
 20
318.92032909502427
 30
0.0
 11
570.02663243378879
 21
317.40949352462889
 31
0.0
  0
LINE
  5
DCD
  8
0
  6
CONTINUOUS
 10
573.58505441869238
 20
319.46394941550329
 30
0.0
 11
572.27663243378879
 21
320.21936720070102
 31
0.0
  0
LINE
  5
DCE
  8
0
  6
CONTINUOUS
 10
574.08505441869227
 20
320.32997481928771
 30
0.0
 11
572.77663243378879
 21
321.08539260448538
 31
0.0
  0
POLYLINE
  5
DCF
  8
0
  6
CONTINUOUS
 66
     1
 10
0.0
 20
0.0
 30
0.0
 70
     1
  0
VERTEX
  5
14A9
  8
0
  6
CONTINUOUS
 10
568.66060703000448
 20
323.88443071016212
 30
0.0
  0
VERTEX
  5
14AA
  8
0
  6
CONTINUOUS
 10
567.79458162621995
 20
322.38443071016212
 30
0.0
  0
VERTEX
  5
14AB
  8
0
  6
CONTINUOUS
 10
568.66060703000448
 20
320.88443071016212
 30
0.0
  0
VERTEX
  5
14AC
  8
0
  6
CONTINUOUS
 10
570.39265783757332
 20
320.88443071016212
 30
0.0
  0
VERTEX
  5
14AD
  8
0
  6
CONTINUOUS
 10
571.25868324135763
 20
322.38443071016212
 30
0.0
  0
VERTEX
  5
14AE
  8
0
  6
CONTINUOUS
 10
570.39265783757332
 20
323.88443071016212
 30
0.0
  0
SEQEND
  5
14AF
  8
0
  6
CONTINUOUS
  0
LINE
  5
DD7
  8
0
  6
CONTINUOUS
 10
566.77663243378879
 20
324.54949421962323
 30
0.0
 11
565.4682104488852
 21
325.30491200482089
 31
0.0
  0
ARC
  5
DD8
  8
0
  6
CONTINUOUS
 10
569.52663243378879
 20
322.38443071016212
 30
0.0
 40
3.5
 50
158.21321070173769
 51
201.78678929826219
  0
LINE
  5
DD9
  8
0
  6
CONTINUOUS
 10
566.27663243378868
 20
323.68346881583881
 30
0.0
 11
564.96821044888543
 21
324.43888660103642
 31
0.0
  0
LINE
  5
DDA
  8
0
  6
CONTINUOUS
 10
565.4682104488852
 20
319.46394941550329
 30
0.0
 11
566.77663243378879
 21
320.21936720070102
 31
0.0
  0
LINE
  5
DDB
  8
0
  6
CONTINUOUS
 10
564.96821044888543
 20
320.32997481928771
 30
0.0
 11
566.27663243378868
 21
321.08539260448538
 31
0.0
  0
CIRCLE
  5
DDC
  8
0
 10
569.52663243378879
 20
322.38443071016212
 30
0.0
 40
5.2999999999999989
  0
CIRCLE
  5
DDD
  8
0
 10
569.52663243378879
 20
322.38443071016212
 30
0.0
 40
5.0
  0
ARC
  5
DDE
  8
0
  6
CONTINUOUS
 10
569.52663243378879
 20
322.38443071016212
 30
0.0
 40
3.5
 50
98.213210701738234
 51
141.7867892982643
  0
ARC
  5
DDF
  8
0
  6
CONTINUOUS
 10
569.52663243378879
 20
322.38443071016212
 30
0.0
 40
3.5
 50
218.21321070173829
 51
261.78678929826179
  0
CIRCLE
  5
DE0
  8
0
  6
CONTINUOUS
 10
569.52663243378879
 20
322.38443071016212
 30
0.0
 40
2.5
  0
LINE
  5
DE1
  8
CENTER
  6
CENTER
 10
569.52663243378879
 20
315.5204604758959
 30
0.0
 11
569.52663243378879
 21
329.24840094442828
 31
0.0
  0
LINE
  5
DE2
  8
CENTER
  6
CENTER
 10
562.66266219952263
 20
322.38443071016212
 30
0.0
 11
576.39060266805495
 21
322.38443071016212
 31
0.0
  0
LINE
  5
DE3
  8
0
 10
680.88671072490649
 20
362.38443071016212
 30
0.0
 11
680.88671072490649
 21
297.38443071016201
 31
0.0
  0
LINE
  5
DE4
  8
0
 10
682.38671072490627
 20
347.38443071016212
 30
0.0
 11
682.88671072490661
 21
347.38443071016212
 31
0.0
  0
ARC
  5
DE5
  8
0
 10
686.38671072490661
 20
341.13846401774691
 30
0.0
 40
1.0
 50
65.68426082881895
 51
180.0
  0
ARC
  5
DE6
  8
0
 10
686.38671072490661
 20
331.88443071016201
 30
0.0
 40
1.0
 50
180.0
 51
270.0
  0
ARC
  5
DE7
  8
0
 10
686.38671072490661
 20
327.88443071016212
 30
0.0
 40
1.0
 50
90.0
 51
180.0
  0
LINE
  5
DE8
  8
0
 10
685.38671072490649
 20
331.88443071016201
 30
0.0
 11
685.38671072490649
 21
341.13846401774691
 31
0.0
  0
ARC
  5
DE9
  8
0
 10
686.38671072490661
 20
323.89402949285858
 30
0.0
 40
1.0
 50
90.0
 51
180.0
  0
LINE
  5
DEA
  8
0
 10
682.38671072490627
 20
312.38443071016212
 30
0.0
 11
682.88671072490627
 21
312.38443071016212
 31
0.0
  0
ARC
  5
DEB
  8
0
 10
686.38671072490661
 20
318.63039740257722
 30
0.0
 40
1.0
 50
180.0
 51
294.31573917118101
  0
LINE
  5
DEC
  8
0
 10
685.38671072490649
 20
327.88443071016212
 30
0.0
 11
685.38671072490649
 21
318.63039740257722
 31
0.0
  0
ARC
  5
DED
  8
0
 10
596.02663243378868
 20
346.38443071016212
 30
0.0
 40
1.0
 50
0.0
 51
90.0
  0
LINE
  5
DEE
  8
0
 10
593.02663243378868
 20
347.38443071016212
 30
0.0
 11
596.02663243378868
 21
347.38443071016212
 31
0.0
  0
ARC
  5
DEF
  8
0
 10
596.02663243378868
 20
313.38443071016212
 30
0.0
 40
1.0
 50
270.0
 51
0.0
  0
LINE
  5
DF0
  8
0
 10
593.02663243378868
 20
312.38443071016212
 30
0.0
 11
596.02663243378868
 21
312.38443071016212
 31
0.0
  0
LINE
  5
DF1
  8
0
 10
597.02663243378868
 20
346.38443071016212
 30
0.0
 11
597.02663243378868
 21
313.38443071016212
 31
0.0
  0
LINE
  5
DF2
  8
0
 10
593.02663243378868
 20
355.88443071016212
 30
0.0
 11
593.02663243378868
 21
303.88443071016212
 31
0.0
  0
CIRCLE
  5
DF3
  8
0
 10
578.02663243378879
 20
333.88443071016201
 30
0.0
 40
3.9999999999999711
  0
CIRCLE
  5
DF4
  8
0
 10
578.02663243378879
 20
333.88443071016201
 30
0.0
 40
5.7000000000000011
  0
LINE
  5
DF5
  8
0
 10
563.02663243378868
 20
356.38443071016212
 30
0.0
 11
563.02663243378868
 21
303.38443071016212
 31
0.0
  0
LINE
  5
DF6
  8
CENTER
  6
CENTER
 10
578.02663243378879
 20
322.18443071016202
 30
0.0
 11
578.02663243378879
 21
345.584430710162
 31
0.0
  0
LINE
  5
DF7
  8
0
 10
563.02663243378868
 20
356.38443071016212
 30
0.0
 11
593.02663243378868
 21
355.88443071016212
 31
0.0
  0
LINE
  5
DF8
  8
0
 10
563.02663243378868
 20
303.38443071016212
 30
0.0
 11
593.02663243378868
 21
303.88443071016212
 31
0.0
  0
CIRCLE
  5
DF9
  8
0
 10
578.02663243378879
 20
333.88443071016201
 30
0.0
 40
8.6999999999999993
  0
CIRCLE
  5
DFA
  8
0
 10
578.02663243378879
 20
333.88443071016201
 30
0.0
 40
6.7000000000000028
  0
ARC
  5
DFB
  8
0
 62
     2
 10
578.02663243378879
 20
333.88443071016201
 30
0.0
 40
6.5999999999999996
 50
153.86110377669701
 51
104.9974520806085
  0
LINE
  5
DFC
  8
CENTER
  6
CENTER
 10
566.32663243378875
 20
333.88443071016201
 30
0.0
 11
589.72663243378884
 21
333.88443071016201
 31
0.0
  0
TEXT
  5
DFD
  8
DIM
  6
CONTINUOUS
 10
788.38671072490638
 20
342.09871642444779
 30
0.0
 40
3.0
  1
112
 50
90.0
  7
ROMANSS
 72
     1
 11
786.88671072490627
 21
345.38443071016212
 31
0.0
 73
     2
  0
SOLID
  5
DFE
  8
DIM
  6
CONTINUOUS
 10
789.38671072490638
 20
292.38443071016201
 30
0.0
 11
790.38671072490627
 21
292.38443071016201
 31
0.0
 12
789.88671072490627
 22
289.38443071016201
 32
0.0
 13
789.88671072490627
 23
289.38443071016201
 33
0.0
  0
LINE
  5
DFF
  8
DIM
  6
CONTINUOUS
 10
772.38671072490649
 20
289.38443071016201
 30
0.0
 11
790.88671072490627
 21
289.38443071016201
 31
0.0
  0
TEXT
  5
E00
  8
DIM
  6
CONTINUOUS
 10
780.38671072490649
 20
327.00657567616531
 30
0.0
 40
3.0
  1
65
 50
90.0
  7
ROMANSS
 72
     1
 11
778.88671072490661
 21
329.43514710473681
 31
0.0
 73
     2
  0
SOLID
  5
E01
  8
DIM
  6
CONTINUOUS
 10
781.38671072490661
 20
359.38443071016189
 30
0.0
 11
782.38671072490661
 21
359.38443071016189
 31
0.0
 12
781.88671072490661
 22
362.38443071016201
 32
0.0
 13
781.88671072490661
 23
362.38443071016201
 33
0.0
  0
SOLID
  5
E02
  8
DIM
  6
CONTINUOUS
 10
781.38671072490661
 20
373.38443071016201
 30
0.0
 11
782.38671072490661
 21
373.38443071016201
 31
0.0
 12
781.88671072490661
 22
370.38443071016201
 32
0.0
 13
781.88671072490661
 23
370.38443071016201
 33
0.0
  0
LINE
  5
E03
  8
DIM
  6
CONTINUOUS
 10
772.38671072490649
 20
370.38443071016201
 30
0.0
 11
782.88671072490661
 21
370.38443071016201
 31
0.0
  0
LINE
  5
E04
  8
DIM
  6
CONTINUOUS
 10
774.88671072490661
 20
362.38443071016201
 30
0.0
 11
782.88671072490661
 21
362.38443071016201
 31
0.0
  0
TEXT
  5
E05
  8
DIM
  6
CONTINUOUS
 10
780.38671072490649
 20
282.68725460342961
 30
0.0
 40
3.0
  1
8
 50
90.0
  7
ROMANSS
 72
     1
 11
778.88671072490661
 21
283.68725460342961
 31
0.0
 73
     2
  0
SOLID
  5
E06
  8
DIM
  6
CONTINUOUS
 10
781.38671072490661
 20
300.38443071016201
 30
0.0
 11
782.38671072490661
 21
300.38443071016201
 31
0.0
 12
781.88671072490661
 22
297.38443071016201
 32
0.0
 13
781.88671072490661
 23
297.38443071016201
 33
0.0
  0
SOLID
  5
E07
  8
DIM
  6
CONTINUOUS
 10
781.38671072490661
 20
286.38443071016201
 30
0.0
 11
782.38671072490661
 21
286.38443071016201
 31
0.0
 12
781.88671072490661
 22
289.38443071016201
 32
0.0
 13
781.88671072490661
 23
289.38443071016201
 33
0.0
  0
LINE
  5
E08
  8
DIM
  6
CONTINUOUS
 10
774.88671072490661
 20
297.38443071016201
 30
0.0
 11
782.88671072490661
 21
297.38443071016201
 31
0.0
  0
LINE
  5
E09
  8
DIM
  6
CONTINUOUS
 10
772.38671072490649
 20
289.38443071016201
 30
0.0
 11
782.88671072490661
 21
289.38443071016201
 31
0.0
  0
TEXT
  5
E0A
  8
DIM
  6
CONTINUOUS
 10
724.95813929633505
 20
274.88443071016201
 30
0.0
 40
3.0
  1
93
  7
ROMANSS
 72
     1
 11
727.38671072490661
 21
276.38443071016201
 31
0.0
 73
     2
  0
SOLID
  5
E0B
  8
DIM
  6
CONTINUOUS
 10
770.88671072490661
 20
273.88443071016201
 30
0.0
 11
770.88671072490661
 21
272.88443071016201
 31
0.0
 12
773.88671072490661
 22
273.38443071016201
 32
0.0
 13
773.88671072490661
 23
273.38443071016201
 33
0.0
  0
LINE
  5
E0C
  8
DIM
  6
CONTINUOUS
 10
773.88671072490661
 20
296.38443071016201
 30
0.0
 11
773.88671072490661
 21
272.38443071016201
 31
0.0
  0
TEXT
  5
E0D
  8
DIM
  6
CONTINUOUS
 10
750.56528215347805
 20
282.88443071016201
 30
0.0
 40
3.0
  1
37.5
  7
ROMANSS
 72
     1
 11
755.13671072490661
 21
284.38443071016201
 31
0.0
 73
     2
  0
SOLID
  5
E0E
  8
DIM
  6
CONTINUOUS
 10
770.88671072490661
 20
281.88443071016201
 30
0.0
 11
770.88671072490661
 21
280.88443071016201
 31
0.0
 12
773.88671072490661
 22
281.38443071016201
 32
0.0
 13
773.88671072490661
 23
281.38443071016201
 33
0.0
  0
SOLID
  5
E0F
  8
DIM
  6
CONTINUOUS
 10
739.38671072490649
 20
281.88443071016201
 30
0.0
 11
739.38671072490649
 21
280.88443071016201
 31
0.0
 12
736.38671072490661
 22
281.38443071016201
 32
0.0
 13
736.38671072490661
 23
281.38443071016201
 33
0.0
  0
LINE
  5
E10
  8
DIM
  6
CONTINUOUS
 10
739.38671072490649
 20
281.38443071016201
 30
0.0
 11
770.88671072490661
 21
281.38443071016201
 31
0.0
  0
LINE
  5
E11
  8
DIM
  6
CONTINUOUS
 10
736.38671072490661
 20
285.38443071016201
 30
0.0
 11
736.38671072490661
 21
280.38443071016201
 31
0.0
  0
TEXT
  5
E12
  8
DIM
  6
CONTINUOUS
 10
718.06528215347805
 20
282.88443071016201
 30
0.0
 40
3.0
  1
27.5
  7
ROMANSS
 72
     1
 11
722.63671072490661
 21
284.38443071016201
 31
0.0
 73
     2
  0
SOLID
  5
E13
  8
DIM
  6
CONTINUOUS
 10
733.38671072490661
 20
281.88443071016201
 30
0.0
 11
733.38671072490661
 21
280.88443071016201
 31
0.0
 12
736.38671072490661
 22
281.38443071016201
 32
0.0
 13
736.38671072490661
 23
281.38443071016201
 33
0.0
  0
SOLID
  5
E14
  8
DIM
  6
CONTINUOUS
 10
711.88671072490661
 20
281.88443071016201
 30
0.0
 11
711.88671072490661
 21
280.88443071016201
 31
0.0
 12
708.88671072490661
 22
281.38443071016201
 32
0.0
 13
708.88671072490661
 23
281.38443071016201
 33
0.0
  0
LINE
  5
E15
  8
DIM
  6
CONTINUOUS
 10
711.88671072490661
 20
281.38443071016201
 30
0.0
 11
733.38671072490661
 21
281.38443071016201
 31
0.0
  0
LINE
  5
E16
  8
DIM
  6
CONTINUOUS
 10
736.38671072490661
 20
285.38443071016201
 30
0.0
 11
736.38671072490661
 21
280.38443071016201
 31
0.0
  0
LINE
  5
E17
  8
DIM
  6
CONTINUOUS
 10
708.88671072490661
 20
300.88443071016201
 30
0.0
 11
708.88671072490661
 21
280.38443071016201
 31
0.0
  0
LINE
  5
E18
  8
CENTER
  6
CENTER
 10
766.38671072490661
 20
353.33698491200857
 30
0.0
 11
766.38671072490661
 21
365.33698491200852
 31
0.0
  0
LINE
  5
E19
  8
CENTER
  6
CENTER
 10
706.38671072490661
 20
353.33698491200857
 30
0.0
 11
706.38671072490661
 21
365.33698491200852
 31
0.0
  0
LINE
  5
E1A
  8
CENTER
  6
CENTER
 10
766.38671072490661
 20
306.43187650831561
 30
0.0
 11
766.38671072490661
 21
294.43187650831561
 31
0.0
  0
LINE
  5
E1B
  8
CENTER
  6
CENTER
 10
706.38671072490661
 20
306.43187650831561
 30
0.0
 11
706.38671072490661
 21
294.43187650831561
 31
0.0
  0
LINE
  5
E1C
  8
0
  6
CONTINUOUS
 10
772.38671072490649
 20
290.38443071016201
 30
0.0
 11
771.38671072490661
 21
289.38443071016201
 31
0.0
  0
LINE
  5
E1D
  8
0
 10
772.38671072490649
 20
297.38443071016201
 30
0.0
 11
772.38671072490649
 21
290.38443071016201
 31
0.0
  0
LINE
  5
E1E
  8
0
  6
CONTINUOUS
 10
700.38671072490661
 20
290.38443071016201
 30
0.0
 11
701.38671072490649
 21
289.38443071016201
 31
0.0
  0
LINE
  5
E1F
  8
0
 10
700.38671072490661
 20
297.38443071016201
 30
0.0
 11
700.38671072490661
 21
290.38443071016201
 31
0.0
  0
LINE
  5
E20
  8
0
  6
CONTINUOUS
 10
701.38671072490649
 20
289.38443071016201
 30
0.0
 11
771.38671072490661
 21
289.38443071016201
 31
0.0
  0
LINE
  5
E21
  8
0
  6
CONTINUOUS
 10
700.38671072490661
 20
290.38443071016201
 30
0.0
 11
772.38671072490649
 21
290.38443071016201
 31
0.0
  0
LINE
  5
E22
  8
0
 10
700.38671072490661
 20
362.38443071016212
 30
0.0
 11
700.38671072490661
 21
369.38443071016212
 31
0.0
  0
LINE
  5
E23
  8
0
 10
772.38671072490649
 20
362.38443071016212
 30
0.0
 11
772.38671072490649
 21
369.38443071016212
 31
0.0
  0
LINE
  5
E24
  8
0
  6
CONTINUOUS
 10
772.38671072490649
 20
369.38443071016212
 30
0.0
 11
771.38671072490661
 21
370.38443071016212
 31
0.0
  0
LINE
  5
E25
  8
0
  6
CONTINUOUS
 10
700.38671072490661
 20
369.38443071016212
 30
0.0
 11
701.38671072490649
 21
370.38443071016212
 31
0.0
  0
LINE
  5
E26
  8
0
  6
CONTINUOUS
 10
700.38671072490661
 20
369.38443071016212
 30
0.0
 11
772.38671072490649
 21
369.38443071016212
 31
0.0
  0
LINE
  5
E27
  8
0
  6
CONTINUOUS
 10
701.38671072490649
 20
370.38443071016212
 30
0.0
 11
771.38671072490661
 21
370.38443071016212
 31
0.0
  0
LINE
  5
E28
  8
0
  6
CONTINUOUS
 10
726.38671072490649
 20
371.38443071016212
 30
0.0
 11
746.38671072490661
 21
371.38443071016212
 31
0.0
  0
LINE
  5
E29
  8
0
 10
746.38671072490661
 20
371.38443071016212
 30
0.0
 11
746.38671072490661
 21
370.38443071016212
 31
0.0
  0
LINE
  5
E2A
  8
0
 10
726.38671072490649
 20
371.38443071016212
 30
0.0
 11
726.38671072490649
 21
370.38443071016212
 31
0.0
  0
LINE
  5
E2B
  8
0
 10
773.88671072490661
 20
362.38443071016201
 30
0.0
 11
773.88671072490661
 21
297.38443071016201
 31
0.0
  0
ARC
  5
E2C
  8
0
 10
723.39084320396285
 20
317.50161857466549
 30
0.0
 40
0.5
 50
224.99999999999079
 51
304.1930771251279
  0
POLYLINE
  5
E2D
  8
0
 66
     1
 10
0.0
 20
0.0
 30
0.0
 70
     1
  0
VERTEX
  5
14B0
  8
0
 10
724.88671072490661
 20
312.61648151773102
 30
0.0
  0
VERTEX
  5
14B1
  8
0
 10
724.88671072490661
 20
309.15237990259322
 30
0.0
  0
VERTEX
  5
14B2
  8
0
 10
727.88671072490661
 20
307.42032909502439
 30
0.0
  0
VERTEX
  5
14B3
  8
0
 10
730.88671072490649
 20
309.15237990259322
 30
0.0
  0
VERTEX
  5
14B4
  8
0
 10
730.88671072490649
 20
312.61648151773102
 30
0.0
  0
VERTEX
  5
14B5
  8
0
 10
727.88671072490661
 20
314.34853232529991
 30
0.0
  0
SEQEND
  5
14B6
  8
0
  0
CIRCLE
  5
E35
  8
0
 10
727.88671072490661
 20
310.88443071016212
 30
0.0
 40
5.0
  0
CIRCLE
  5
E36
  8
0
 10
727.88671072490661
 20
310.88443071016212
 30
0.0
 40
5.5
  0
CIRCLE
  5
E37
  8
0
 10
727.88671072490661
 20
348.88443071016212
 30
0.0
 40
5.0
  0
CIRCLE
  5
E38
  8
0
 10
727.88671072490661
 20
348.88443071016212
 30
0.0
 40
5.5
  0
POLYLINE
  5
E39
  8
0
 66
     1
 10
0.0
 20
0.0
 30
0.0
 70
     1
  0
VERTEX
  5
14B7
  8
0
 10
724.88671072490661
 20
350.61648151773102
 30
0.0
  0
VERTEX
  5
14B8
  8
0
 10
724.88671072490661
 20
347.15237990259322
 30
0.0
  0
VERTEX
  5
14B9
  8
0
 10
727.88671072490661
 20
345.42032909502439
 30
0.0
  0
VERTEX
  5
14BA
  8
0
 10
730.88671072490649
 20
347.15237990259322
 30
0.0
  0
VERTEX
  5
14BB
  8
0
 10
730.88671072490649
 20
350.61648151773102
 30
0.0
  0
VERTEX
  5
14BC
  8
0
 10
727.88671072490661
 20
352.34853232529991
 30
0.0
  0
SEQEND
  5
14BD
  8
0
  0
ARC
  5
E41
  8
0
 10
717.88671072490649
 20
352.38443071016212
 30
0.0
 40
1.0
 50
90.0
 51
180.0
  0
ARC
  5
E42
  8
0
 10
720.14074403249128
 20
352.38443071016212
 30
0.0
 40
1.0
 50
335.6842608288103
 51
90.0
  0
ARC
  5
E43
  8
0
 10
721.26952286040307
 20
344.38856318921842
 30
0.0
 40
0.5
 50
314.99999999999068
 51
34.193077125151397
  0
LINE
  5
E44
  8
0
 10
721.21800875412498
 20
343.62994230175377
 30
0.0
 11
721.62307625099652
 21
344.0350097986252
 31
0.0
  0
ARC
  5
E45
  8
0
 10
717.88671072490649
 20
346.61763124084348
 30
0.0
 40
1.0
 50
180.0
 51
241.72628636862589
  0
ARC
  5
E46
  8
0
 10
720.86445536353199
 20
343.98349569234711
 30
0.0
 40
0.5
 50
229.65070900488701
 51
314.99999999999068
  0
LINE
  5
E47
  8
0
 10
716.88671072490661
 20
352.38443071016212
 30
0.0
 11
716.88671072490661
 21
346.61763124084348
 31
0.0
  0
ARC
  5
E48
  8
0
 10
727.88671072490661
 20
348.88443071016212
 30
0.0
 40
7.5
 50
155.6842608288261
 51
214.1930771251393
  0
ARC
  5
E49
  8
0
 10
710.88671072490661
 20
352.38443071016212
 30
0.0
 40
1.0
 50
90.0
 51
180.0
  0
ARC
  5
E4A
  8
0
 10
706.88671072490661
 20
352.38443071016212
 30
0.0
 40
1.0
 50
0.0
 51
90.0
  0
ARC
  5
E4B
  8
0
 10
710.88671072490661
 20
348.77887433785321
 30
0.0
 40
1.0
 50
180.0
 51
263.95767158094242
  0
ARC
  5
E4C
  8
0
 10
706.88671072490661
 20
348.77887433785321
 30
0.0
 40
1.0
 50
276.04232841905753
 51
0.0
  0
LINE
  5
E4D
  8
0
 10
709.88671072490649
 20
352.38443071016212
 30
0.0
 11
709.88671072490649
 21
348.77887433785321
 31
0.0
  0
LINE
  5
E4E
  8
0
 10
707.88671072490661
 20
352.38443071016212
 30
0.0
 11
707.88671072490661
 21
348.77887433785321
 31
0.0
  0
ARC
  5
E4F
  8
0
 10
708.88671072490661
 20
329.88443071016212
 30
0.0
 40
17.999999999999972
 50
49.650709004879928
 51
83.957671580946055
  0
LINE
  5
E50
  8
0
 10
710.88671072490661
 20
353.38443071016212
 30
0.0
 11
720.14074403249128
 21
353.38443071016212
 31
0.0
  0
LINE
  5
E51
  8
CENTER
  6
CENTER
 10
721.38671072490661
 20
348.88443071016212
 30
0.0
 11
734.38671072490649
 21
348.88443071016212
 31
0.0
  0
ARC
  5
E52
  8
0
 10
731.38671072490661
 20
338.88443071016212
 30
0.0
 40
1.0
 50
270.0
 51
0.0
  0
ARC
  5
E53
  8
0
 10
731.38671072490661
 20
341.13846401774691
 30
0.0
 40
1.0
 50
0.0
 51
114.3157391711956
  0
LINE
  5
E54
  8
0
 10
731.38671072490661
 20
330.88443071016212
 30
0.0
 11
727.78115435259758
 21
330.88443071016212
 31
0.0
  0
LINE
  5
E55
  8
0
 10
731.38671072490661
 20
328.88443071016212
 30
0.0
 11
727.78115435259758
 21
328.88443071016212
 31
0.0
  0
ARC
  5
E56
  8
0
 10
731.38671072490661
 20
331.88443071016212
 30
0.0
 40
1.0
 50
270.0
 51
0.0
  0
ARC
  5
E57
  8
0
 10
731.38671072490661
 20
327.88443071016212
 30
0.0
 40
1.0
 50
0.0
 51
90.0
  0
LINE
  5
E58
  8
0
 10
732.38671072490661
 20
331.88443071016212
 30
0.0
 11
732.38671072490661
 21
341.13846401774691
 31
0.0
  0
ARC
  5
E59
  8
0
 10
731.38671072490661
 20
320.88443071016212
 30
0.0
 40
1.0
 50
0.0
 51
90.0
  0
ARC
  5
E5A
  8
0
 10
731.38671072490661
 20
318.63039740257727
 30
0.0
 40
1.0
 50
245.6842608288043
 51
0.0
  0
LINE
  5
E5B
  8
0
 10
732.38671072490661
 20
327.88443071016212
 30
0.0
 11
732.38671072490661
 21
318.63039740257727
 31
0.0
  0
ARC
  5
E5C
  8
0
 10
723.39084320396285
 20
342.26724284565881
 30
0.0
 40
0.5
 50
55.806922874872079
 51
135.00000000000921
  0
ARC
  5
E5D
  8
0
 10
722.98577570709153
 20
341.8621753487875
 30
0.0
 40
0.5
 50
135.00000000000921
 51
220.34929099511791
  0
ARC
  5
E5E
  8
0
 10
725.61991125558802
 20
338.88443071016212
 30
0.0
 40
1.0
 50
208.2737136313682
 51
270.0
  0
LINE
  5
E5F
  8
0
 10
722.6322223164982
 20
342.21572873938072
 30
0.0
 11
723.03728981336963
 21
342.62079623625198
 31
0.0
  0
ARC
  5
E60
  8
0
 10
725.61991125558802
 20
320.88443071016212
 30
0.0
 40
1.0
 50
90.0
 51
151.72628636863169
  0
ARC
  5
E61
  8
0
 10
721.26952286040307
 20
315.38029823110571
 30
0.0
 40
0.5
 50
325.80692287484851
 51
45.000000000009209
  0
LINE
  5
E62
  8
0
 10
721.21800875412498
 20
316.1389191185703
 30
0.0
 11
721.62307625099652
 21
315.73385162169888
 31
0.0
  0
LINE
  5
E63
  8
0
 10
722.6322223164982
 20
317.55313268094352
 30
0.0
 11
723.03728981336963
 21
317.14806518407221
 31
0.0
  0
ARC
  5
E64
  8
0
 10
723.39084320396285
 20
317.50161857466537
 30
0.0
 40
0.5
 50
224.99999999999079
 51
304.1930771251279
  0
ARC
  5
E65
  8
0
 10
722.98577570709153
 20
317.90668607153668
 30
0.0
 40
0.5
 50
139.65070900488209
 51
224.99999999999079
  0
ARC
  5
E66
  8
0
 10
717.88671072490649
 20
313.15123017948071
 30
0.0
 40
1.0
 50
118.2737136313755
 51
180.0
  0
ARC
  5
E67
  8
0
 10
720.86445536353199
 20
315.78536572797702
 30
0.0
 40
0.5
 50
45.000000000009209
 51
130.34929099511291
  0
ARC
  5
E68
  8
0
 10
710.88671072490661
 20
310.98998708247098
 30
0.0
 40
1.0
 50
96.042328419057512
 51
180.0
  0
ARC
  5
E69
  8
0
 10
706.88671072490661
 20
310.98998708247098
 30
0.0
 40
1.0
 50
0.0
 51
83.957671580942474
  0
ARC
  5
E6A
  8
0
 10
708.88671072490661
 20
329.88443071016212
 30
0.0
 40
17.999999999999972
 50
276.04232841905389
 51
310.34929099511999
  0
ARC
  5
E6B
  8
0
 10
708.88671072490661
 20
329.88443071016212
 30
0.0
 40
17.999999999999972
 50
319.65070900488001
 51
353.957671580946
  0
LINE
  5
E6C
  8
0
 10
731.38671072490661
 20
321.88443071016212
 30
0.0
 11
725.61991125558802
 21
321.88443071016212
 31
0.0
  0
LINE
  5
E6D
  8
CENTER
  6
CENTER
 10
721.38671072490661
 20
310.88443071016212
 30
0.0
 11
734.38671072490649
 21
310.88443071016212
 31
0.0
  0
ARC
  5
E6E
  8
0
 10
727.88671072490661
 20
310.88443071016212
 30
0.0
 40
7.5
 50
65.684260828827945
 51
124.1930771251406
  0
ARC
  5
E6F
  8
0
 10
727.78115435259758
 20
331.88443071016212
 30
0.0
 40
1.0
 50
186.04232841905389
 51
270.0
  0
ARC
  5
E70
  8
0
 10
708.88671072490661
 20
329.88443071016212
 30
0.0
 40
17.999999999999972
 50
6.0423284190541056
 51
40.349290995120072
  0
ARC
  5
E71
  8
0
 10
727.78115435259758
 20
327.88443071016212
 30
0.0
 40
1.0
 50
90.0
 51
173.957671580946
  0
LINE
  5
E72
  8
0
 10
731.38671072490661
 20
337.88443071016212
 30
0.0
 11
725.61991125558802
 21
337.88443071016212
 31
0.0
  0
ARC
  5
E73
  8
0
 10
727.88671072490661
 20
348.88443071016212
 30
0.0
 40
7.5
 50
235.80692287485931
 51
294.31573917117379
  0
LINE
  5
E74
  8
CENTER
  6
CENTER
 10
727.88671072490661
 20
355.38443071016212
 30
0.0
 11
727.88671072490661
 21
342.38443071016212
 31
0.0
  0
ARC
  5
E75
  8
0
 10
699.88671072490661
 20
352.38443071016212
 30
0.0
 40
1.0
 50
0.0
 51
90.0
  0
ARC
  5
E76
  8
0
 10
697.6326774173217
 20
352.38443071016212
 30
0.0
 40
1.0
 50
90.0
 51
204.31573917118391
  0
ARC
  5
E77
  8
0
 10
699.88671072490661
 20
346.61763124084348
 30
0.0
 40
1.0
 50
298.27371363136092
 51
0.0
  0
ARC
  5
E78
  8
0
 10
696.90896608628123
 20
343.98349569234711
 30
0.0
 40
0.5
 50
224.99999999999079
 51
310.34929099511288
  0
LINE
  5
E79
  8
0
 10
696.55541269568778
 20
343.62994230175377
 30
0.0
 11
696.15034519881669
 21
344.0350097986252
 31
0.0
  0
ARC
  5
E7A
  8
0
 10
696.50389858940969
 20
344.38856318921842
 30
0.0
 40
0.5
 50
145.8069228748613
 51
224.99999999999079
  0
LINE
  5
E7B
  8
0
 10
700.88671072490661
 20
352.38443071016212
 30
0.0
 11
700.88671072490661
 21
346.61763124084348
 31
0.0
  0
ARC
  5
E7C
  8
0
 10
689.88671072490661
 20
348.88443071016212
 30
0.0
 40
7.5
 50
325.80692287485988
 51
24.315739171172272
  0
ARC
  5
E7D
  8
0
 10
694.38257824585003
 20
342.2672428456587
 30
0.0
 40
0.5
 50
45.000000000004597
 51
124.1930771251568
  0
ARC
  5
E7E
  8
0
 10
694.78764574272145
 20
341.86217534878728
 30
0.0
 40
0.5
 50
319.6507090048687
 51
44.999999999990777
  0
LINE
  5
E7F
  8
0
 10
695.14119913331479
 20
342.21572873938049
 30
0.0
 11
694.73613163644336
 21
342.62079623625198
 31
0.0
  0
ARC
  5
E80
  8
0
 10
689.99226709721552
 20
331.88443071016201
 30
0.0
 40
1.0
 50
270.0
 51
353.957671580946
  0
ARC
  5
E81
  8
0
 10
689.99226709721552
 20
327.88443071016212
 30
0.0
 40
1.0
 50
6.042328419053943
 51
90.0
  0
ARC
  5
E82
  8
0
 10
708.88671072490661
 20
329.88443071016212
 30
0.0
 40
17.999999999999972
 50
139.65070900488001
 51
173.957671580946
  0
ARC
  5
E83
  8
0
 10
699.88671072490661
 20
313.15123017948071
 30
0.0
 40
1.0
 50
0.0
 51
61.726286368639009
  0
ARC
  5
E84
  8
0
 10
696.90896608628123
 20
315.78536572797702
 30
0.0
 40
0.5
 50
49.650709004887069
 51
135.00000000000921
  0
LINE
  5
E85
  8
0
 10
696.55541269568778
 20
316.1389191185703
 30
0.0
 11
696.15034519881669
 21
315.73385162169888
 31
0.0
  0
LINE
  5
E86
  8
0
 10
695.14119913331479
 20
317.55313268094352
 30
0.0
 11
694.73613163644336
 21
317.14806518407198
 31
0.0
  0
ARC
  5
E87
  8
0
 10
694.78764574272145
 20
317.90668607153668
 30
0.0
 40
0.5
 50
315.00000000000921
 51
40.349290995131291
  0
ARC
  5
E88
  8
0
 10
694.38257824585003
 20
317.50161857466537
 30
0.0
 40
0.5
 50
235.8069228748432
 51
314.9999999999954
  0
ARC
  5
E89
  8
0
 10
696.50389858940969
 20
315.38029823110571
 30
0.0
 40
0.5
 50
135.00000000000921
 51
214.1930771251387
  0
ARC
  5
E8A
  8
0
 10
690.85576251756788
 20
323.89402949285858
 30
0.0
 40
1.0
 50
18.377976039593509
 51
90.0
  0
ARC
  5
E8B
  8
0
 10
708.88671072490661
 20
329.88443071016212
 30
0.0
 40
17.999999999999972
 50
186.04232841905409
 51
220.34929099511999
  0
LINE
  5
E8C
  8
CENTER
  6
CENTER
 10
689.88671072490661
 20
355.38443071016212
 30
0.0
 11
689.88671072490661
 21
342.38443071016212
 31
0.0
  0
ARC
  5
E8D
  8
0
 10
708.88671072490661
 20
329.88443071016212
 30
0.0
 40
17.999999999999972
 50
96.042328419053931
 51
130.3492909951199
  0
LINE
  5
E8E
  8
0
 10
706.88671072490661
 20
353.38443071016212
 30
0.0
 11
697.6326774173217
 21
353.38443071016212
 31
0.0
  0
ARC
  5
E8F
  8
0
 10
708.88671072490661
 20
329.88443071016212
 30
0.0
 40
17.999999999999972
 50
229.65070900488001
 51
263.957671580946
  0
CIRCLE
  5
E90
  8
0
 10
708.88671072490661
 20
329.88443071016212
 30
0.0
 40
17.499999999999972
  0
ARC
  5
E91
  8
0
 10
717.88671072490649
 20
307.38443071016212
 30
0.0
 40
1.0
 50
180.0
 51
270.0
  0
ARC
  5
E92
  8
0
 10
720.14074403249128
 20
307.38443071016212
 30
0.0
 40
1.0
 50
270.0
 51
24.315739171186699
  0
ARC
  5
E93
  8
0
 10
710.88671072490661
 20
307.38443071016212
 30
0.0
 40
1.0
 50
180.0
 51
270.0
  0
ARC
  5
E94
  8
0
 10
706.88671072490661
 20
307.38443071016212
 30
0.0
 40
1.0
 50
270.0
 51
0.0
  0
LINE
  5
E95
  8
0
 10
710.88671072490661
 20
306.38443071016212
 30
0.0
 11
720.14074403249128
 21
306.38443071016212
 31
0.0
  0
ARC
  5
E96
  8
0
 10
699.88671072490661
 20
307.38443071016212
 30
0.0
 40
1.0
 50
270.0
 51
0.0
  0
ARC
  5
E97
  8
0
 10
697.6326774173217
 20
307.38443071016212
 30
0.0
 40
1.0
 50
155.68426082881601
 51
270.0
  0
LINE
  5
E98
  8
0
 10
706.88671072490661
 20
306.38443071016212
 30
0.0
 11
697.6326774173217
 21
306.38443071016212
 31
0.0
  0
ARC
  5
E99
  8
0
 10
689.88671072490661
 20
310.88443071016212
 30
0.0
 40
7.5
 50
335.68426082882962
 51
34.19307712514005
  0
LINE
  5
E9A
  8
0
 10
700.88671072490661
 20
307.38443071016212
 30
0.0
 11
700.88671072490661
 21
313.15123017948071
 31
0.0
  0
LINE
  5
E9B
  8
CENTER
  6
CENTER
 10
689.88671072490661
 20
317.38443071016212
 30
0.0
 11
689.88671072490661
 21
304.38443071016212
 31
0.0
  0
LINE
  5
E9C
  8
CENTER
  6
CENTER
 10
708.88671072490661
 20
357.88443071016212
 30
0.0
 11
708.88671072490661
 21
301.88443071016201
 31
0.0
  0
ARC
  5
E9D
  8
0
 10
727.88671072490661
 20
310.88443071016212
 30
0.0
 40
7.5
 50
145.80692287486059
 51
204.3157391711718
  0
LINE
  5
E9E
  8
0
 10
716.88671072490661
 20
307.38443071016212
 30
0.0
 11
716.88671072490661
 21
313.15123017948071
 31
0.0
  0
LINE
  5
E9F
  8
0
 10
707.88671072490661
 20
307.38443071016212
 30
0.0
 11
707.88671072490661
 21
310.98998708247098
 31
0.0
  0
LINE
  5
EA0
  8
0
 10
709.88671072490649
 20
307.38443071016212
 30
0.0
 11
709.88671072490649
 21
310.98998708247098
 31
0.0
  0
LINE
  5
EA1
  8
CENTER
  6
CENTER
 10
727.88671072490661
 20
317.38443071016212
 30
0.0
 11
727.88671072490661
 21
304.38443071016212
 31
0.0
  0
LINE
  5
EA2
  8
DIM
  6
CONTINUOUS
 10
498.52663243378868
 20
525.24204973755081
 30
0.0
 11
550.26651297828585
 21
525.24204973755093
 31
0.0
  0
LINE
  5
EA3
  8
DIM
  6
CONTINUOUS
 10
498.52663243378868
 20
465.24204973755087
 30
0.0
 11
550.26651297828585
 21
465.24204973755087
 31
0.0
  0
LINE
  5
EA4
  8
0
 10
499.02663243378868
 20
443.54204973755088
 30
0.0
 11
563.02663243378868
 21
443.54204973755088
 31
0.0
  0
LINE
  5
EA5
  8
0
 10
499.02663243378868
 20
455.93982543489898
 30
0.0
 11
563.02663243378868
 21
455.93982543489898
 31
0.0
  0
LINE
  5
EA6
  8
0
 10
499.02663243378868
 20
491.94204973755092
 30
0.0
 11
563.02663243378868
 21
491.94204973755092
 31
0.0
  0
LINE
  5
EA7
  8
0
 10
499.02663243378868
 20
479.54427404020282
 30
0.0
 11
563.02663243378868
 21
479.54427404020282
 31
0.0
  0
CIRCLE
  5
EA8
  8
0
  6
CONTINUOUS
 10
461.52663243378868
 20
495.24204973755081
 30
0.0
 40
35.0
  0
POLYLINE
  5
EA9
  8
0
  6
CONTINUOUS
 66
     1
 10
0.0
 20
0.0
 30
0.0
  0
VERTEX
  5
14BE
  8
0
  6
CONTINUOUS
 10
504.02663243378868
 20
513.74204973755093
 30
0.0
 42
0.0851703918331037
  0
VERTEX
  5
14BF
  8
0
  6
CONTINUOUS
 10
503.33863243378852
 20
517.74204973755093
 30
0.0
 42
0.3457679526359281
  0
VERTEX
  5
14C0
  8
0
  6
CONTINUOUS
 10
503.6802121104634
 20
520.64204973755045
 30
0.0
  0
SEQEND
  5
14C1
  8
0
  6
CONTINUOUS
  0
LINE
  5
EAE
  8
0
  6
CONTINUOUS
 10
505.82663243378789
 20
517.74204973755093
 30
0.0
 11
507.02663243378862
 21
516.54204973755009
 31
0.0
  0
LINE
  5
EAF
  8
0
  6
CONTINUOUS
 10
505.82663243378789
 20
509.74204973755087
 30
0.0
 11
505.82663243378789
 21
517.74204973755093
 31
0.0
  0
LINE
  5
EB0
  8
0
  6
CONTINUOUS
 10
504.02663243378868
 20
507.4420497375516
 30
0.0
 11
504.02663243378868
 21
520.0420497375502
 31
0.0
  0
POLYLINE
  5
EB1
  8
0
  6
CONTINUOUS
 66
     1
 10
0.0
 20
0.0
 30
0.0
  0
VERTEX
  5
14C2
  8
0
  6
CONTINUOUS
 10
499.02663243378868
 20
513.74204973755104
 30
0.0
 42
-0.0851703918331037
  0
VERTEX
  5
14C3
  8
0
  6
CONTINUOUS
 10
499.71463243378872
 20
517.74204973755104
 30
0.0
 42
-0.3457679526359281
  0
VERTEX
  5
14C4
  8
0
  6
CONTINUOUS
 10
499.37305275711378
 20
520.64204973755056
 30
0.0
  0
SEQEND
  5
14C5
  8
0
  6
CONTINUOUS
  0
LINE
  5
EB6
  8
DIM
  6
CONTINUOUS
 10
466.70448250686388
 20
497.07604156269821
 30
0.0
 11
526.91565045493553
 21
515.34166174380846
 31
0.0
  0
LINE
  5
EB7
  8
CENTER
  6
CENTER
 10
478.46183984320658
 20
478.30684232813297
 30
0.0
 11
487.01783189556369
 21
469.7508502757758
 31
0.0
  0
CIRCLE
  5
EB8
  8
0
  6
CONTINUOUS
 10
482.73983586938522
 20
474.02884630195439
 30
0.0
 40
2.0499999999999989
  0
ARC
  5
EB9
  8
0
  6
CONTINUOUS
 62
     2
 10
482.7398358693851
 20
474.02884630195439
 30
0.0
 40
2.5
 50
204.98154856581149
 51
158.9636414602291
  0
CIRCLE
  5
EBA
  8
CENTER
  6
CENTER
 10
461.52663243378868
 20
495.24204973755081
 30
0.0
 40
30.0
  0
LINE
  5
EBB
  8
DIM
  6
CONTINUOUS
 10
434.52663243378868
 20
540.74204973755081
 30
0.0
 11
488.52663243378868
 21
540.74204973755081
 31
0.0
  0
LINE
  5
EBC
  8
0
 10
424.02663243378868
 20
439.74204973755087
 30
0.0
 11
499.02663243378868
 21
439.74204973755087
 31
0.0
  0
LINE
  5
EBD
  8
0
 10
424.02663243378879
 20
532.7420497375507
 30
0.0
 11
499.02663243378868
 21
532.7420497375507
 31
0.0
  0
LINE
  5
EBE
  8
CENTER
  6
CENTER
 10
424.02663243378868
 20
495.24204973755081
 30
0.0
 11
499.02663243378868
 21
495.24204973755081
 31
0.0
  0
CIRCLE
  5
EBF
  8
0
  6
CONTINUOUS
 10
461.52663243378868
 20
495.24204973755081
 30
0.0
 40
36.0
  0
LINE
  5
EC0
  8
0
  6
CONTINUOUS
 62
     2
 10
504.02663243378868
 20
516.94204973755166
 30
0.0
 11
506.62663243378722
 21
516.94204973755166
 31
0.0
  0
LINE
  5
EC1
  8
0
  6
CONTINUOUS
 10
503.33379178713818
 20
506.24204973755087
 30
0.0
 11
504.02663243378868
 21
507.4420497375516
 31
0.0
  0
POLYLINE
  5
EC2
  8
0
  6
CONTINUOUS
 66
     1
 10
0.0
 20
0.0
 30
0.0
  0
VERTEX
  5
14C6
  8
0
  6
CONTINUOUS
 10
504.02663243378868
 20
513.74204973755093
 30
0.0
 42
-0.0851703918331037
  0
VERTEX
  5
14C7
  8
0
  6
CONTINUOUS
 10
503.33863243378852
 20
509.74204973755087
 30
0.0
 42
-0.3457679526359281
  0
VERTEX
  5
14C8
  8
0
  6
CONTINUOUS
 10
503.6802121104634
 20
506.84204973755118
 30
0.0
  0
SEQEND
  5
14C9
  8
0
  6
CONTINUOUS
  0
LINE
  5
EC7
  8
CENTER
  6
CENTER
 10
482.77018010084061
 20
513.74204973755093
 30
0.0
 11
510.02663243378862
 21
513.74204973755093
 31
0.0
  0
LINE
  5
EC8
  8
0
  6
CONTINUOUS
 10
505.82663243378789
 20
509.74204973755087
 30
0.0
 11
507.02663243378862
 21
510.9420497375516
 31
0.0
  0
LINE
  5
EC9
  8
0
  6
CONTINUOUS
 10
507.02663243378862
 20
510.9420497375516
 30
0.0
 11
507.02663243378862
 21
516.54204973754997
 31
0.0
  0
LINE
  5
ECA
  8
0
  6
CONTINUOUS
 10
504.02663243378868
 20
509.74204973755087
 30
0.0
 11
505.82663243378789
 21
509.74204973755087
 31
0.0
  0
LINE
  5
ECB
  8
0
  6
CONTINUOUS
 62
     2
 10
504.02663243378868
 20
510.5420497375502
 30
0.0
 11
506.62663243378722
 21
510.5420497375502
 31
0.0
  0
LINE
  5
ECC
  8
0
  6
CONTINUOUS
 10
499.71947308043912
 20
506.24204973755099
 30
0.0
 11
499.02663243378868
 21
507.44204973755171
 31
0.0
  0
POLYLINE
  5
ECD
  8
0
  6
CONTINUOUS
 66
     1
 10
0.0
 20
0.0
 30
0.0
  0
VERTEX
  5
14CA
  8
0
  6
CONTINUOUS
 10
499.02663243378868
 20
513.74204973755104
 30
0.0
 42
0.0851703918331037
  0
VERTEX
  5
14CB
  8
0
  6
CONTINUOUS
 10
499.71463243378872
 20
509.74204973755099
 30
0.0
 42
0.3457679526359281
  0
VERTEX
  5
14CC
  8
0
  6
CONTINUOUS
 10
499.37305275711378
 20
506.84204973755129
 30
0.0
  0
SEQEND
  5
14CD
  8
0
  6
CONTINUOUS
  0
LINE
  5
ED2
  8
0
  6
CONTINUOUS
 10
499.71463243378872
 20
509.74204973755087
 30
0.0
 11
503.33863243378852
 21
509.74204973755087
 31
0.0
  0
LINE
  5
ED3
  8
0
  6
CONTINUOUS
 10
499.71947308043912
 20
506.24204973755087
 30
0.0
 11
503.33379178713818
 21
506.24204973755087
 31
0.0
  0
SOLID
  5
ED4
  8
DIM
  6
CONTINUOUS
 10
466.84963039096863
 20
496.5975730770694
 30
0.0
 11
466.55933462275942
 21
497.55451004832719
 31
0.0
 12
463.83367159309091
 22
496.20515425807088
 32
0.0
 13
463.83367159309091
 23
496.20515425807088
 33
0.0
  0
LINE
  5
ED5
  8
0
  6
CONTINUOUS
 10
435.52663243378862
 20
439.04920909090038
 30
0.0
 11
436.7266324337894
 21
439.74204973755087
 31
0.0
  0
LINE
  5
ED6
  8
0
  6
CONTINUOUS
 10
450.52663243378862
 20
439.04920909090038
 30
0.0
 11
449.32663243378789
 21
439.74204973755087
 31
0.0
  0
POLYLINE
  5
ED7
  8
0
  6
CONTINUOUS
 66
     1
 10
0.0
 20
0.0
 30
0.0
  0
VERTEX
  5
14CE
  8
0
  6
CONTINUOUS
 10
443.02663243378862
 20
439.74204973755087
 30
0.0
 42
-0.0851703918331037
  0
VERTEX
  5
14CF
  8
0
  6
CONTINUOUS
 10
447.02663243378862
 20
439.05404973755071
 30
0.0
 42
-0.3457679526359281
  0
VERTEX
  5
14D0
  8
0
  6
CONTINUOUS
 10
449.92663243378831
 20
439.3956294142256
 30
0.0
  0
SEQEND
  5
14D1
  8
0
  6
CONTINUOUS
  0
POLYLINE
  5
EDC
  8
0
  6
CONTINUOUS
 66
     1
 10
0.0
 20
0.0
 30
0.0
  0
VERTEX
  5
14D2
  8
0
  6
CONTINUOUS
 10
443.02663243378862
 20
439.74204973755087
 30
0.0
 42
0.0851703918331037
  0
VERTEX
  5
14D3
  8
0
  6
CONTINUOUS
 10
439.02663243378862
 20
439.05404973755071
 30
0.0
 42
0.3457679526359281
  0
VERTEX
  5
14D4
  8
0
  6
CONTINUOUS
 10
436.12663243378898
 20
439.3956294142256
 30
0.0
  0
SEQEND
  5
14D5
  8
0
  6
CONTINUOUS
  0
LINE
  5
EE1
  8
0
  6
CONTINUOUS
 10
439.02663243378868
 20
432.94204973755149
 30
0.0
 11
440.2266324337894
 21
431.74204973755087
 31
0.0
  0
LINE
  5
EE2
  8
0
  6
CONTINUOUS
 10
439.02663243378862
 20
434.74204973755081
 30
0.0
 11
439.02663243378868
 21
432.94204973755149
 31
0.0
  0
LINE
  5
EE3
  8
0
  6
CONTINUOUS
 10
445.82663243378801
 20
431.74204973755087
 30
0.0
 11
440.22663243378952
 21
431.74204973755087
 31
0.0
  0
LINE
  5
EE4
  8
0
  6
CONTINUOUS
 10
447.02663243378868
 20
432.94204973755149
 30
0.0
 11
445.82663243378801
 21
431.74204973755087
 31
0.0
  0
LINE
  5
EE5
  8
0
  6
CONTINUOUS
 10
447.02663243378868
 20
434.74204973755081
 30
0.0
 11
447.02663243378868
 21
432.94204973755149
 31
0.0
  0
LINE
  5
EE6
  8
0
  6
CONTINUOUS
 10
449.32663243378801
 20
434.74204973755081
 30
0.0
 11
436.7266324337894
 21
434.74204973755081
 31
0.0
  0
LINE
  5
EE7
  8
0
  6
CONTINUOUS
 10
450.52663243378868
 20
435.43489038420131
 30
0.0
 11
449.32663243378801
 21
434.74204973755081
 31
0.0
  0
LINE
  5
EE8
  8
0
  6
CONTINUOUS
 10
450.52663243378868
 20
439.04920909090038
 30
0.0
 11
450.52663243378868
 21
435.43489038420131
 31
0.0
  0
LINE
  5
EE9
  8
0
  6
CONTINUOUS
 10
435.52663243378868
 20
435.43489038420131
 30
0.0
 11
436.72663243378952
 21
434.74204973755081
 31
0.0
  0
LINE
  5
EEA
  8
0
  6
CONTINUOUS
 10
435.52663243378868
 20
439.04920909090038
 30
0.0
 11
435.52663243378868
 21
435.43489038420131
 31
0.0
  0
LINE
  5
EEB
  8
0
  6
CONTINUOUS
 62
     2
 10
439.82663243378801
 20
434.74204973755081
 30
0.0
 11
439.82663243378801
 21
432.14204973755233
 31
0.0
  0
POLYLINE
  5
EEC
  8
0
  6
CONTINUOUS
 66
     1
 10
0.0
 20
0.0
 30
0.0
  0
VERTEX
  5
14D6
  8
0
  6
CONTINUOUS
 10
443.02663243378868
 20
434.74204973755081
 30
0.0
 42
-0.0851703918331037
  0
VERTEX
  5
14D7
  8
0
  6
CONTINUOUS
 10
439.02663243378868
 20
435.43004973755092
 30
0.0
 42
-0.3457679526359281
  0
VERTEX
  5
14D8
  8
0
  6
CONTINUOUS
 10
436.1266324337891
 20
435.08847006087598
 30
0.0
  0
SEQEND
  5
14D9
  8
0
  6
CONTINUOUS
  0
LINE
  5
EF1
  8
0
  6
CONTINUOUS
 10
439.02663243378868
 20
439.05404973755071
 30
0.0
 11
439.02663243378868
 21
435.43004973755092
 31
0.0
  0
LINE
  5
EF2
  8
0
  6
CONTINUOUS
 62
     2
 10
446.2266324337894
 20
434.74204973755081
 30
0.0
 11
446.2266324337894
 21
432.14204973755233
 31
0.0
  0
LINE
  5
EF3
  8
0
  6
CONTINUOUS
 10
447.02663243378868
 20
432.94204973755149
 30
0.0
 11
439.02663243378868
 21
432.94204973755149
 31
0.0
  0
POLYLINE
  5
EF4
  8
0
  6
CONTINUOUS
 66
     1
 10
0.0
 20
0.0
 30
0.0
  0
VERTEX
  5
14DA
  8
0
  6
CONTINUOUS
 10
443.02663243378868
 20
434.74204973755081
 30
0.0
 42
0.0851703918331037
  0
VERTEX
  5
14DB
  8
0
  6
CONTINUOUS
 10
447.02663243378868
 20
435.43004973755092
 30
0.0
 42
0.3457679526359281
  0
VERTEX
  5
14DC
  8
0
  6
CONTINUOUS
 10
449.92663243378843
 20
435.08847006087598
 30
0.0
  0
SEQEND
  5
14DD
  8
0
  6
CONTINUOUS
  0
LINE
  5
EF9
  8
0
  6
CONTINUOUS
 10
447.02663243378868
 20
439.05404973755088
 30
0.0
 11
447.02663243378868
 21
435.43004973755092
 31
0.0
  0
CIRCLE
  5
EFA
  8
0
  6
CONTINUOUS
 10
440.31342899819231
 20
516.45525317314707
 30
0.0
 40
2.0499999999999989
  0
ARC
  5
EFB
  8
0
  6
CONTINUOUS
 62
     2
 10
440.31342899819208
 20
516.45525317314707
 30
0.0
 40
2.5
 50
204.98154856581149
 51
158.9636414602291
  0
LINE
  5
EFC
  8
CENTER
  6
CENTER
 10
436.07078831107287
 20
520.6978938602665
 30
0.0
 11
444.90962307590479
 21
511.8590590954347
 31
0.0
  0
LINE
  5
EFD
  8
CENTER
  6
CENTER
 10
443.02663243378868
 20
455.99850207049889
 30
0.0
 11
443.02663243378868
 21
428.74204973755081
 31
0.0
  0
TEXT
  5
EFE
  8
DIM
  6
CONTINUOUS
 10
458.38377529093162
 20
418.88443071016212
 30
0.0
 40
3.0
  1
18
  7
ROMANSS
 72
     1
 11
460.52663243378879
 21
420.38443071016212
 31
0.0
 73
     2
  0
SOLID
  5
EFF
  8
DIM
  6
CONTINUOUS
 10
454.52663243378868
 20
417.88443071016212
 30
0.0
 11
454.52663243378868
 21
416.88443071016212
 31
0.0
 12
451.52663243378868
 22
417.38443071016212
 32
0.0
 13
451.52663243378868
 23
417.38443071016212
 33
0.0
  0
SOLID
  5
F00
  8
DIM
  6
CONTINUOUS
 10
466.52663243378879
 20
417.88443071016212
 30
0.0
 11
466.52663243378879
 21
416.88443071016212
 31
0.0
 12
469.52663243378879
 22
417.38443071016212
 32
0.0
 13
469.52663243378879
 23
417.38443071016212
 33
0.0
  0
LINE
  5
F01
  8
DIM
  6
CONTINUOUS
 10
466.52663243378879
 20
417.38443071016212
 30
0.0
 11
454.52663243378868
 21
417.38443071016212
 31
0.0
  0
LINE
  5
F02
  8
DIM
  6
CONTINUOUS
 10
451.52663243378868
 20
399.88443071016201
 30
0.0
 11
451.52663243378868
 21
418.38443071016212
 31
0.0
  0
LINE
  5
F03
  8
DIM
  6
CONTINUOUS
 10
469.52663243378879
 20
401.38443071016212
 30
0.0
 11
469.52663243378879
 21
418.38443071016212
 31
0.0
  0
TEXT
  5
F04
  8
DIM
  6
CONTINUOUS
 10
455.10515791978219
 20
410.88443071016201
 30
0.0
 40
3.0
  1
%%c16h6
  7
ROMANSS
 72
     1
 11
461.31944363406802
 21
412.38443071016212
 31
0.0
 73
     2
  0
LINE
  5
F05
  8
DIM
  6
CONTINUOUS
 10
469.52663243378879
 20
409.38443071016212
 30
0.0
 11
453.52663243378868
 21
409.38443071016212
 31
0.0
  0
SOLID
  5
F06
  8
DIM
  6
CONTINUOUS
 10
456.52663243378862
 20
409.88443071016212
 30
0.0
 11
456.52663243378862
 21
408.88443071016212
 31
0.0
 12
453.52663243378868
 22
409.38443071016212
 32
0.0
 13
453.52663243378868
 23
409.38443071016212
 33
0.0
  0
SOLID
  5
F07
  8
DIM
  6
CONTINUOUS
 10
466.52663243378879
 20
409.88443071016212
 30
0.0
 11
466.52663243378879
 21
408.88443071016212
 31
0.0
 12
469.52663243378879
 22
409.38443071016212
 32
0.0
 13
469.52663243378879
 23
409.38443071016212
 33
0.0
  0
LINE
  5
F08
  8
DIM
  6
CONTINUOUS
 10
453.52663243378868
 20
401.38443071016212
 30
0.0
 11
453.52663243378868
 21
410.38443071016212
 31
0.0
  0
LINE
  5
F09
  8
DIM
  6
CONTINUOUS
 10
469.52663243378879
 20
401.38443071016212
 30
0.0
 11
469.52663243378879
 21
410.38443071016212
 31
0.0
  0
TEXT
  5
F0A
  8
DIM
  6
CONTINUOUS
 10
442.02663243378868
 20
504.61704973755081
 30
0.0
 40
3.0
  1
5
 50
90.0
  7
ROMANSS
 72
     1
 11
440.52663243378868
 21
505.61704973755081
 31
0.0
 73
     2
  0
LINE
  5
F0B
  8
DIM
  6
CONTINUOUS
 10
443.52663243378868
 20
492.74204973755099
 30
0.0
 11
443.52663243378868
 21
497.74204973755087
 31
0.0
  0
SOLID
  5
F0C
  8
DIM
  6
CONTINUOUS
 10
443.02663243378868
 20
500.74204973755081
 30
0.0
 11
444.02663243378868
 21
500.74204973755081
 31
0.0
 12
443.52663243378868
 22
497.74204973755087
 32
0.0
 13
443.52663243378868
 23
497.74204973755087
 33
0.0
  0
SOLID
  5
F0D
  8
DIM
  6
CONTINUOUS
 10
443.02663243378868
 20
489.74204973755087
 30
0.0
 11
444.02663243378868
 21
489.74204973755087
 31
0.0
 12
443.52663243378868
 22
492.74204973755099
 32
0.0
 13
443.52663243378868
 23
492.74204973755099
 33
0.0
  0
LINE
  5
F0E
  8
DIM
  6
CONTINUOUS
 10
443.52663243378868
 20
503.74204973755081
 30
0.0
 11
443.52663243378868
 21
506.49204973755081
 31
0.0
  0
LINE
  5
F0F
  8
DIM
  6
CONTINUOUS
 10
443.52663243378868
 20
500.74204973755081
 30
0.0
 11
443.52663243378868
 21
503.74204973755081
 31
0.0
  0
LINE
  5
F10
  8
DIM
  6
CONTINUOUS
 10
443.52663243378868
 20
489.74204973755087
 30
0.0
 11
443.52663243378868
 21
486.74204973755087
 31
0.0
  0
LINE
  5
F11
  8
DIM
  6
CONTINUOUS
 10
450.52663243378868
 20
497.74204973755087
 30
0.0
 11
442.52663243378868
 21
497.74204973755087
 31
0.0
  0
LINE
  5
F12
  8
DIM
  6
CONTINUOUS
 10
450.52663243378868
 20
492.74204973755099
 30
0.0
 11
442.52663243378868
 21
492.74204973755099
 31
0.0
  0
CIRCLE
  5
F13
  8
0
  6
CONTINUOUS
 10
461.52663243378868
 20
495.24204973755081
 30
0.0
 40
12.49999999999997
  0
TEXT
  5
F14
  8
DIM
  6
CONTINUOUS
 10
408.02663243378868
 20
383.95585928159062
 30
0.0
 40
3.0
  1
30
 50
90.0
  7
ROMANSS
 72
     1
 11
406.52663243378868
 21
386.38443071016212
 31
0.0
 73
     2
  0
SOLID
  5
F15
  8
DIM
  6
CONTINUOUS
 10
409.02663243378868
 20
398.38443071016212
 30
0.0
 11
410.02663243378868
 21
398.38443071016212
 31
0.0
 12
409.52663243378868
 22
401.38443071016212
 32
0.0
 13
409.52663243378868
 23
401.38443071016212
 33
0.0
  0
LINE
  5
F16
  8
DIM
  6
CONTINUOUS
 10
453.52663243378868
 20
401.38443071016212
 30
0.0
 11
408.52663243378868
 21
401.38443071016212
 31
0.0
  0
TEXT
  5
F17
  8
DIM
  6
CONTINUOUS
 10
416.02663243378868
 20
383.95585928159062
 30
0.0
 40
3.0
  1
25
 50
90.0
  7
ROMANSS
 72
     1
 11
414.52663243378868
 21
386.38443071016212
 31
0.0
 73
     2
  0
SOLID
  5
F18
  8
DIM
  6
CONTINUOUS
 10
417.02663243378868
 20
395.88443071016212
 30
0.0
 11
418.02663243378868
 21
395.88443071016212
 31
0.0
 12
417.52663243378868
 22
398.88443071016212
 32
0.0
 13
417.52663243378868
 23
398.88443071016212
 33
0.0
  0
LINE
  5
F19
  8
DIM
  6
CONTINUOUS
 10
417.52663243378868
 20
376.88443071016212
 30
0.0
 11
417.52663243378868
 21
395.88443071016212
 31
0.0
  0
LINE
  5
F1A
  8
DIM
  6
CONTINUOUS
 10
450.52663243378868
 20
398.88443071016212
 30
0.0
 11
416.52663243378868
 21
398.88443071016212
 31
0.0
  0
TEXT
  5
F1B
  8
DIM
  6
CONTINUOUS
 10
410.79442930360722
 20
536.45640690476046
 30
0.0
 40
3.0
  1
90%%p5%%d
 50
45.000000000000007
  7
ROMANSS
 72
     1
 11
414.27945558231221
 21
542.06275352702505
 31
0.0
 73
     2
  0
SOLID
  5
F1C
  8
DIM
  6
CONTINUOUS
 10
398.47327255002199
 20
498.22942786404548
 30
0.0
 11
397.47355050319811
 21
498.25300389200009
 31
0.0
 12
397.90268344274602
 22
495.24204973755081
 32
0.0
 13
397.90268344274602
 23
495.24204973755081
 33
0.0
  0
LINE
  5
F1D
  8
DIM
  6
CONTINUOUS
 10
423.02663243378868
 20
495.24204973755081
 30
0.0
 11
396.90268344274602
 21
495.24204973755081
 31
0.0
  0
LINE
  5
F1E
  8
DIM
  6
CONTINUOUS
 10
461.52663243378868
 20
546.33745039590042
 30
0.0
 11
461.52663243378868
 21
559.94612937824229
 31
0.0
  0
TEXT
  5
F1F
  8
DIM
  6
CONTINUOUS
 10
459.09806100521729
 20
542.24204973755081
 30
0.0
 40
3.0
  1
60
  7
ROMANSS
 72
     1
 11
461.52663243378868
 21
543.74204973755081
 31
0.0
 73
     2
  0
SOLID
  5
F20
  8
DIM
  6
CONTINUOUS
 10
434.52663243378868
 20
541.2420497375507
 30
0.0
 11
434.52663243378868
 21
540.24204973755081
 31
0.0
 12
431.52663243378868
 22
540.74204973755081
 32
0.0
 13
431.52663243378868
 23
540.74204973755081
 33
0.0
  0
LINE
  5
F21
  8
DIM
  6
CONTINUOUS
 10
431.52663243378868
 20
532.24204973755081
 30
0.0
 11
431.52663243378868
 21
541.74204973755081
 31
0.0
  0
LINE
  5
F22
  8
0
  6
CONTINUOUS
 10
451.52663243378868
 20
398.88443071016212
 30
0.0
 11
453.52663243378879
 21
398.88443071016212
 31
0.0
  0
LINE
  5
F23
  8
CENTER
  6
CENTER
 10
431.52663243378868
 20
471.24204973755081
 30
0.0
 11
431.52663243378868
 21
459.24204973755081
 31
0.0
  0
CIRCLE
  5
F24
  8
0
  6
CONTINUOUS
 10
431.52663243378868
 20
465.24204973755087
 30
0.0
 40
2.5
  0
ARC
  5
F25
  8
0
  6
CONTINUOUS
 62
     2
 10
431.52663243378868
 20
465.24204973755087
 30
0.0
 40
3.0
 50
72.528507680586145
 51
21.640324594293851
  0
CIRCLE
  5
F26
  8
0
  6
CONTINUOUS
 10
431.52663243378868
 20
525.24204973755081
 30
0.0
 40
2.5
  0
ARC
  5
F27
  8
0
  6
CONTINUOUS
 62
     2
 10
431.52663243378868
 20
525.24204973755081
 30
0.0
 40
3.0
 50
72.528507680586145
 51
21.640324594293851
  0
LINE
  5
F28
  8
CENTER
  6
CENTER
 10
431.52663243378868
 20
531.24204973755081
 30
0.0
 11
431.52663243378868
 21
519.24204973755081
 31
0.0
  0
LINE
  5
F29
  8
CENTER
  6
CENTER
 10
425.52663243378862
 20
465.24204973755087
 30
0.0
 11
437.52663243378868
 21
465.24204973755087
 31
0.0
  0
LINE
  5
F2A
  8
CENTER
  6
CENTER
 10
425.52663243378862
 20
525.24204973755081
 30
0.0
 11
437.52663243378868
 21
525.24204973755081
 31
0.0
  0
LINE
  5
F2B
  8
0
 10
424.02663243378879
 20
532.7420497375507
 30
0.0
 11
424.02663243378868
 21
439.74204973755087
 31
0.0
  0
CIRCLE
  5
F2C
  8
0
  6
CONTINUOUS
 10
461.52663243378868
 20
495.24204973755081
 30
0.0
 40
2.0499999999999989
  0
ARC
  5
F2D
  8
0
  6
CONTINUOUS
 62
     2
 10
461.52663243378868
 20
495.24204973755081
 30
0.0
 40
2.5
 50
159.98154856581121
 51
113.96364146022989
  0
LINE
  5
F2E
  8
0
 10
451.52663243378868
 20
492.74204973755099
 30
0.0
 11
453.92729035700341
 21
492.74204973755099
 31
0.0
  0
LINE
  5
F2F
  8
0
 10
451.52663243378868
 20
497.74204973755087
 30
0.0
 11
453.92729035700341
 21
497.74204973755087
 31
0.0
  0
LINE
  5
F30
  8
0
 10
451.52663243378868
 20
497.74204973755087
 30
0.0
 11
451.52663243378868
 21
492.74204973755081
 31
0.0
  0
CIRCLE
  5
F31
  8
0
  6
CONTINUOUS
 10
461.52663243378868
 20
495.24204973755081
 30
0.0
 40
6.9999999999999707
  0
CIRCLE
  5
F32
  8
0
  6
CONTINUOUS
 10
461.52663243378868
 20
495.24204973755081
 30
0.0
 40
7.9999999999999707
  0
LINE
  5
F33
  8
CENTER
  6
CENTER
 10
461.52663243378868
 20
535.74204973755081
 30
0.0
 11
461.52663243378868
 21
436.74204973755081
 31
0.0
  0
LINE
  5
F34
  8
0
  6
CONTINUOUS
 10
468.52663243378868
 20
401.38443071016212
 30
0.0
 11
469.52663243378879
 21
400.38443071016212
 31
0.0
  0
LINE
  5
F35
  8
0
  6
CONTINUOUS
 10
454.52663243378868
 20
401.38443071016212
 30
0.0
 11
453.52663243378868
 21
400.38443071016212
 31
0.0
  0
LINE
  5
F36
  8
0
  6
CONTINUOUS
 10
453.52663243378868
 20
400.38443071016212
 30
0.0
 11
469.52663243378868
 21
400.38443071016212
 31
0.0
  0
LINE
  5
F37
  8
0
  6
CONTINUOUS
 10
454.52663243378868
 20
401.38443071016212
 30
0.0
 11
468.52663243378868
 21
401.38443071016212
 31
0.0
  0
SOLID
  5
F38
  8
DIM
  6
CONTINUOUS
 10
458.53925430729402
 20
558.2954096213175
 30
0.0
 11
458.51567827933951
 21
559.29513166814138
 31
0.0
 12
461.52663243378868
 22
558.86599872859347
 32
0.0
 13
461.52663243378868
 23
558.86599872859347
 33
0.0
  0
LINE
  5
F39
  8
0
  6
CONTINUOUS
 10
503.33379178713818
 20
521.24204973755093
 30
0.0
 11
504.02663243378868
 21
520.04204973755009
 31
0.0
  0
LINE
  5
F3A
  8
0
  6
CONTINUOUS
 10
504.02663243378868
 20
517.74204973755104
 30
0.0
 11
505.82663243378789
 21
517.74204973755093
 31
0.0
  0
LINE
  5
F3B
  8
0
  6
CONTINUOUS
 10
499.71947308043912
 20
521.24204973755104
 30
0.0
 11
499.02663243378868
 21
520.0420497375502
 31
0.0
  0
LINE
  5
F3C
  8
0
  6
CONTINUOUS
 10
499.71947308043912
 20
521.24204973755093
 30
0.0
 11
503.33379178713818
 21
521.24204973755093
 31
0.0
  0
LINE
  5
F3D
  8
0
  6
CONTINUOUS
 10
499.71463243378872
 20
517.74204973755093
 30
0.0
 11
503.33863243378852
 21
517.74204973755093
 31
0.0
  0
TEXT
  5
F3E
  8
DIM
  6
CONTINUOUS
 10
528.21569845955867
 20
516.84166174380857
 30
0.0
 40
3.0
  1
M5x15L
  7
ROMANSS
 11
528.21569845955867
 21
518.34166174380846
 31
0.0
 73
     2
  0
LINE
  5
F3F
  8
DIM
  6
CONTINUOUS
 10
526.91565045493553
 20
515.34166174380846
 30
0.0
 11
542.34069845955878
 21
515.34166174380846
 31
0.0
  0
TEXT
  5
F40
  8
DIM
  6
CONTINUOUS
 10
508.7224180690589
 20
547.75508370960347
 30
0.0
 40
3.0
  1
2x4-M6x15L
  7
ROMANSS
 11
508.7224180690589
 21
549.25508370960335
 31
0.0
 73
     2
  0
LINE
  5
F41
  8
DIM
  6
CONTINUOUS
 10
508.5978650683353
 20
546.25508370960335
 30
0.0
 11
533.3474180690589
 21
546.25508370960335
 31
0.0
  0
LINE
  5
F42
  8
DIM
  6
CONTINUOUS
 10
495.23311984309271
 20
529.9586511692039
 30
0.0
 11
508.5978650683353
 21
546.25508370960335
 31
0.0
  0
SOLID
  5
F43
  8
DIM
  6
CONTINUOUS
 10
495.6197343056516
 20
529.64158767818003
 30
0.0
 11
494.84650538053381
 21
530.275714660228
 31
0.0
 12
493.33073889694941
 22
527.6389643938503
 32
0.0
 13
493.33073889694941
 23
527.6389643938503
 33
0.0
  0
SOLID
  5
F44
  8
DIM
  6
CONTINUOUS
 10
488.52663243378868
 20
541.2420497375507
 30
0.0
 11
488.52663243378868
 21
540.24204973755081
 31
0.0
 12
491.52663243378868
 22
540.74204973755081
 32
0.0
 13
491.52663243378868
 23
540.74204973755081
 33
0.0
  0
LINE
  5
F45
  8
DIM
  6
CONTINUOUS
 10
491.52663243378868
 20
532.24204973755081
 30
0.0
 11
491.52663243378868
 21
541.74204973755081
 31
0.0
  0
LINE
  5
F46
  8
CENTER
  6
CENTER
 10
485.52663243378868
 20
525.24204973755081
 30
0.0
 11
497.52663243378868
 21
525.24204973755081
 31
0.0
  0
LINE
  5
F47
  8
CENTER
  6
CENTER
 10
485.52663243378868
 20
465.24204973755087
 30
0.0
 11
497.52663243378868
 21
465.24204973755087
 31
0.0
  0
LINE
  5
F48
  8
CENTER
  6
CENTER
 10
491.52663243378868
 20
471.24204973755081
 30
0.0
 11
491.52663243378868
 21
459.24204973755081
 31
0.0
  0
CIRCLE
  5
F49
  8
0
  6
CONTINUOUS
 10
491.52663243378868
 20
525.24204973755081
 30
0.0
 40
2.5
  0
ARC
  5
F4A
  8
0
  6
CONTINUOUS
 62
     2
 10
491.52663243378868
 20
525.24204973755081
 30
0.0
 40
3.0
 50
162.5285076805861
 51
111.6403245942938
  0
CIRCLE
  5
F4B
  8
0
  6
CONTINUOUS
 10
491.52663243378868
 20
465.24204973755087
 30
0.0
 40
2.5
  0
ARC
  5
F4C
  8
0
  6
CONTINUOUS
 62
     2
 10
491.52663243378868
 20
465.24204973755087
 30
0.0
 40
3.0
 50
72.528507680586145
 51
21.640324594293851
  0
LINE
  5
F4D
  8
CENTER
  6
CENTER
 10
491.52663243378868
 20
531.24204973755081
 30
0.0
 11
491.52663243378868
 21
519.24204973755081
 31
0.0
  0
LINE
  5
F4E
  8
0
 10
499.02663243378868
 20
532.7420497375507
 30
0.0
 11
499.02663243378868
 21
439.74204973755087
 31
0.0
  0
TEXT
  5
F4F
  8
DIM
  6
CONTINUOUS
 10
647.15824321249363
 20
378.26046083882858
 30
0.0
 40
3.0
  1
2x4-M6x15L
  7
ROMANSS
 72
     2
 11
674.58681464106496
 21
379.76046083882852
 31
0.0
 73
     2
  0
LINE
  5
F50
  8
DIM
  6
CONTINUOUS
 10
675.34712108402664
 20
376.76046083882852
 30
0.0
 11
649.96181464106496
 21
376.76046083882852
 31
0.0
  0
TEXT
  5
F51
  8
DIM
  6
CONTINUOUS
 10
547.17991609656008
 20
492.81347830897943
 30
0.0
 40
3.0
  1
60
 50
90.0
  7
ROMANSS
 72
     1
 11
545.67991609656008
 21
495.24204973755081
 31
0.0
 73
     2
  0
SOLID
  5
F52
  8
DIM
  6
CONTINUOUS
 10
548.17991609656019
 20
522.24204973755081
 30
0.0
 11
549.17991609656019
 21
522.24204973755081
 31
0.0
 12
548.67991609656019
 22
525.24204973755081
 32
0.0
 13
548.67991609656019
 23
525.24204973755081
 33
0.0
  0
SOLID
  5
F53
  8
DIM
  6
CONTINUOUS
 10
548.17991609656019
 20
468.24204973755087
 30
0.0
 11
549.17991609656019
 21
468.24204973755087
 31
0.0
 12
548.67991609656019
 22
465.24204973755087
 32
0.0
 13
548.67991609656019
 23
465.24204973755087
 33
0.0
  0
LINE
  5
F54
  8
DIM
  6
CONTINUOUS
 10
548.67991609656019
 20
468.24204973755087
 30
0.0
 11
548.67991609656019
 21
522.24204973755081
 31
0.0
  0
LINE
  5
F55
  8
CENTER
  6
CENTER
 10
569.52663243378879
 20
436.69924033532538
 30
0.0
 11
569.52663243378879
 21
455.08728267755657
 31
0.0
  0
LINE
  5
F56
  8
HIDDEN
  6
HIDDEN
 10
587.02663243378879
 20
483.74204973755081
 30
0.0
 11
587.02663243378879
 21
489.74204973755087
 31
0.0
  0
LINE
  5
F57
  8
HIDDEN
  6
HIDDEN
 10
575.02663243378868
 20
489.14204973755079
 30
0.0
 11
573.64099178773358
 21
486.74204973755081
 31
0.0
  0
LINE
  5
F58
  8
HIDDEN
  6
HIDDEN
 10
575.02663243378868
 20
484.34204973755078
 30
0.0
 11
575.02663243378868
 21
489.14204973755079
 31
0.0
  0
LINE
  5
F59
  8
HIDDEN
  6
HIDDEN
 10
575.02663243378868
 20
484.34204973755078
 30
0.0
 11
573.64099178773358
 21
486.74204973755081
 31
0.0
  0
LINE
  5
F5A
  8
HIDDEN
  6
HIDDEN
 10
578.02663243378879
 20
483.74204973755081
 30
0.0
 11
578.02663243378879
 21
489.74204973755087
 31
0.0
  0
LINE
  5
F5B
  8
HIDDEN
  6
HIDDEN
 10
587.02663243378879
 20
484.34204973755078
 30
0.0
 11
575.02663243378868
 21
484.34204973755078
 31
0.0
  0
LINE
  5
F5C
  8
HIDDEN
  6
HIDDEN
 10
587.02663243378879
 20
489.14204973755079
 30
0.0
 11
575.02663243378868
 21
489.14204973755079
 31
0.0
  0
LINE
  5
F5D
  8
HIDDEN
  6
HIDDEN
 10
593.02663243378868
 20
483.74204973755081
 30
0.0
 11
578.02663243378879
 21
483.74204973755081
 31
0.0
  0
LINE
  5
F5E
  8
HIDDEN
  6
HIDDEN
 10
593.02663243378868
 20
489.74204973755087
 30
0.0
 11
578.02663243378879
 21
489.74204973755087
 31
0.0
  0
LINE
  5
F5F
  8
HIDDEN
  6
HIDDEN
 10
587.02663243378879
 20
445.74204973755081
 30
0.0
 11
587.02663243378879
 21
451.74204973755087
 31
0.0
  0
LINE
  5
F60
  8
HIDDEN
  6
HIDDEN
 10
578.02663243378879
 20
445.74204973755081
 30
0.0
 11
578.02663243378879
 21
451.74204973755087
 31
0.0
  0
LINE
  5
F61
  8
HIDDEN
  6
HIDDEN
 10
575.02663243378868
 20
451.14204973755079
 30
0.0
 11
573.64099178773358
 21
448.74204973755081
 31
0.0
  0
LINE
  5
F62
  8
HIDDEN
  6
HIDDEN
 10
575.02663243378868
 20
446.34204973755078
 30
0.0
 11
573.64099178773358
 21
448.74204973755081
 31
0.0
  0
LINE
  5
F63
  8
HIDDEN
  6
HIDDEN
 10
575.02663243378868
 20
446.34204973755078
 30
0.0
 11
575.02663243378868
 21
451.14204973755079
 31
0.0
  0
LINE
  5
F64
  8
HIDDEN
  6
HIDDEN
 10
587.02663243378879
 20
451.14204973755079
 30
0.0
 11
575.02663243378868
 21
451.14204973755079
 31
0.0
  0
LINE
  5
F65
  8
HIDDEN
  6
HIDDEN
 10
587.02663243378879
 20
446.34204973755078
 30
0.0
 11
575.02663243378868
 21
446.34204973755078
 31
0.0
  0
LINE
  5
F66
  8
HIDDEN
  6
HIDDEN
 10
593.02663243378868
 20
451.74204973755087
 30
0.0
 11
578.02663243378879
 21
451.74204973755087
 31
0.0
  0
LINE
  5
F67
  8
HIDDEN
  6
HIDDEN
 10
593.02663243378868
 20
445.74204973755081
 30
0.0
 11
578.02663243378879
 21
445.74204973755081
 31
0.0
  0
LINE
  5
F68
  8
0
 10
593.02663243378868
 20
485.24204973755087
 30
0.0
 11
596.02663243378868
 21
485.24204973755087
 31
0.0
  0
ARC
  5
F69
  8
0
 10
596.02663243378868
 20
484.24204973755081
 30
0.0
 40
1.0
 50
0.0
 51
90.0
  0
LINE
  5
F6A
  8
CENTER
  6
CENTER
 10
578.02663243378879
 20
437.14017810920092
 30
0.0
 11
578.02663243378879
 21
455.11271826489161
 31
0.0
  0
LINE
  5
F6B
  8
0
 10
563.02663243378868
 20
494.24204973755087
 30
0.0
 11
593.02663243378868
 21
493.74204973755087
 31
0.0
  0
LINE
  5
F6C
  8
CENTER
  6
CENTER
 10
596.11418254184014
 20
486.74204973755081
 30
0.0
 11
562.02663243378879
 21
486.74204973755081
 31
0.0
  0
LINE
  5
F6D
  8
0
 10
593.02663243378868
 20
450.24204973755081
 30
0.0
 11
596.02663243378868
 21
450.24204973755081
 31
0.0
  0
ARC
  5
F6E
  8
0
 10
596.02663243378868
 20
451.24204973755081
 30
0.0
 40
1.0
 50
270.0
 51
0.0
  0
LINE
  5
F6F
  8
0
 10
563.02663243378868
 20
441.24204973755081
 30
0.0
 11
593.02663243378868
 21
441.74204973755081
 31
0.0
  0
LINE
  5
F70
  8
CENTER
  6
CENTER
 10
595.44976257209714
 20
448.74204973755081
 30
0.0
 11
562.02663243378879
 21
448.74204973755081
 31
0.0
  0
LINE
  5
F71
  8
0
 10
597.02663243378868
 20
484.24204973755081
 30
0.0
 11
597.02663243378868
 21
451.24204973755081
 31
0.0
  0
LINE
  5
F72
  8
0
 10
593.02663243378868
 20
493.74204973755087
 30
0.0
 11
593.02663243378868
 21
441.74204973755081
 31
0.0
  0
LINE
  5
F73
  8
0
 10
563.02663243378868
 20
494.24204973755087
 30
0.0
 11
563.02663243378868
 21
441.24204973755081
 31
0.0
  0
SOLID
  5
F74
  8
DIM
  6
CONTINUOUS
 10
789.38671072490638
 20
398.38443071016212
 30
0.0
 11
790.38671072490627
 21
398.38443071016212
 31
0.0
 12
789.88671072490627
 22
401.38443071016212
 32
0.0
 13
789.88671072490627
 23
401.38443071016212
 33
0.0
  0
LINE
  5
F75
  8
DIM
  6
CONTINUOUS
 10
744.38671072490661
 20
401.38443071016212
 30
0.0
 11
790.88671072490627
 21
401.38443071016212
 31
0.0
  0
TEXT
  5
F76
  8
DIM
  6
CONTINUOUS
 10
780.38671072490649
 20
376.41464318549981
 30
0.0
 40
3.0
  1
8
 50
90.0
  7
ROMANSS
 72
     1
 11
778.88671072490661
 21
377.41464318549981
 31
0.0
 73
     2
  0
LINE
  5
F77
  8
0
  6
CONTINUOUS
 10
743.38671072490649
 20
401.38443071016212
 30
0.0
 11
744.38671072490661
 21
400.38443071016212
 31
0.0
  0
LINE
  5
F78
  8
0
  6
CONTINUOUS
 10
729.38671072490661
 20
401.38443071016212
 30
0.0
 11
728.38671072490661
 21
400.38443071016212
 31
0.0
  0
LINE
  5
F79
  8
0
  6
CONTINUOUS
 10
728.38671072490661
 20
400.38443071016212
 30
0.0
 11
744.38671072490661
 21
400.38443071016212
 31
0.0
  0
LINE
  5
F7A
  8
0
  6
CONTINUOUS
 10
729.38671072490661
 20
401.38443071016212
 30
0.0
 11
743.38671072490649
 21
401.38443071016212
 31
0.0
  0
CIRCLE
  5
F7B
  8
0
  6
CONTINUOUS
 10
195.16655414267089
 20
348.88443071016212
 30
0.0
 40
2.5
  0
ARC
  5
F7C
  8
0
  6
CONTINUOUS
 62
     2
 10
195.16655414267089
 20
348.88443071016212
 30
0.0
 40
3.0000000000000031
 50
165.00000000000551
 51
104.9999999999944
  0
CIRCLE
  5
F7D
  8
0
  6
CONTINUOUS
 10
233.16655414267089
 20
348.88443071016212
 30
0.0
 40
2.5
  0
ARC
  5
F7E
  8
0
  6
CONTINUOUS
 62
     2
 10
233.16655414267089
 20
348.88443071016212
 30
0.0
 40
3.0000000000000031
 50
165.00000000000551
 51
104.9999999999944
  0
CIRCLE
  5
F7F
  8
0
  6
CONTINUOUS
 10
195.16655414267089
 20
310.88443071016212
 30
0.0
 40
2.5
  0
ARC
  5
F80
  8
0
  6
CONTINUOUS
 62
     2
 10
195.16655414267089
 20
310.88443071016212
 30
0.0
 40
3.0000000000000031
 50
165.00000000000551
 51
104.9999999999944
  0
CIRCLE
  5
F81
  8
0
  6
CONTINUOUS
 10
233.16655414267089
 20
310.88443071016212
 30
0.0
 40
2.5
  0
ARC
  5
F82
  8
0
  6
CONTINUOUS
 62
     2
 10
233.16655414267089
 20
310.88443071016212
 30
0.0
 40
3.0000000000000031
 50
165.00000000000551
 51
104.9999999999944
  0
CIRCLE
  5
F83
  8
0
  6
CONTINUOUS
 10
689.88671072490661
 20
348.88443071016212
 30
0.0
 40
2.5
  0
ARC
  5
F84
  8
0
  6
CONTINUOUS
 62
     2
 10
689.88671072490661
 20
348.88443071016212
 30
0.0
 40
3.0000000000000031
 50
75.000000000005556
 51
14.999999999994451
  0
CIRCLE
  5
F85
  8
0
  6
CONTINUOUS
 10
727.88671072490661
 20
348.88443071016212
 30
0.0
 40
2.5
  0
ARC
  5
F86
  8
0
  6
CONTINUOUS
 62
     2
 10
727.88671072490661
 20
348.88443071016212
 30
0.0
 40
3.0000000000000031
 50
75.000000000005556
 51
14.999999999994451
  0
CIRCLE
  5
F87
  8
0
  6
CONTINUOUS
 10
727.88671072490661
 20
310.88443071016212
 30
0.0
 40
2.5
  0
ARC
  5
F88
  8
0
  6
CONTINUOUS
 62
     2
 10
727.88671072490661
 20
310.88443071016212
 30
0.0
 40
3.0000000000000031
 50
75.000000000005556
 51
14.999999999994451
  0
CIRCLE
  5
F89
  8
0
  6
CONTINUOUS
 10
689.88671072490661
 20
310.88443071016212
 30
0.0
 40
2.5
  0
ARC
  5
F8A
  8
0
  6
CONTINUOUS
 62
     2
 10
689.88671072490661
 20
310.88443071016212
 30
0.0
 40
3.0000000000000031
 50
75.000000000005556
 51
14.999999999994451
  0
LINE
  5
F8B
  8
CENTER
  6
CENTER
 10
353.52663243378862
 20
436.69924033532538
 30
0.0
 11
353.52663243378862
 21
455.08728267755657
 31
0.0
  0
LINE
  5
F8C
  8
HIDDEN
  6
HIDDEN
 10
336.02663243378862
 20
483.74204973755081
 30
0.0
 11
336.02663243378862
 21
489.74204973755087
 31
0.0
  0
LINE
  5
F8D
  8
HIDDEN
  6
HIDDEN
 10
348.02663243378862
 20
489.14204973755079
 30
0.0
 11
349.41227307984389
 21
486.74204973755081
 31
0.0
  0
LINE
  5
F8E
  8
HIDDEN
  6
HIDDEN
 10
348.02663243378862
 20
484.34204973755078
 30
0.0
 11
348.02663243378862
 21
489.14204973755079
 31
0.0
  0
LINE
  5
F8F
  8
HIDDEN
  6
HIDDEN
 10
348.02663243378862
 20
484.34204973755078
 30
0.0
 11
349.41227307984389
 21
486.74204973755081
 31
0.0
  0
LINE
  5
F90
  8
HIDDEN
  6
HIDDEN
 10
345.02663243378862
 20
483.74204973755081
 30
0.0
 11
345.02663243378862
 21
489.74204973755087
 31
0.0
  0
LINE
  5
F91
  8
HIDDEN
  6
HIDDEN
 10
336.02663243378862
 20
484.34204973755078
 30
0.0
 11
348.02663243378862
 21
484.34204973755078
 31
0.0
  0
LINE
  5
F92
  8
HIDDEN
  6
HIDDEN
 10
336.02663243378862
 20
489.14204973755079
 30
0.0
 11
348.02663243378862
 21
489.14204973755079
 31
0.0
  0
LINE
  5
F93
  8
HIDDEN
  6
HIDDEN
 10
330.02663243378862
 20
483.74204973755081
 30
0.0
 11
345.02663243378862
 21
483.74204973755081
 31
0.0
  0
LINE
  5
F94
  8
HIDDEN
  6
HIDDEN
 10
330.02663243378862
 20
489.74204973755087
 30
0.0
 11
345.02663243378862
 21
489.74204973755087
 31
0.0
  0
LINE
  5
F95
  8
HIDDEN
  6
HIDDEN
 10
336.02663243378862
 20
445.74204973755081
 30
0.0
 11
336.02663243378862
 21
451.74204973755087
 31
0.0
  0
LINE
  5
F96
  8
HIDDEN
  6
HIDDEN
 10
345.02663243378862
 20
445.74204973755081
 30
0.0
 11
345.02663243378862
 21
451.74204973755087
 31
0.0
  0
LINE
  5
F97
  8
HIDDEN
  6
HIDDEN
 10
348.02663243378862
 20
451.14204973755079
 30
0.0
 11
349.41227307984389
 21
448.74204973755081
 31
0.0
  0
LINE
  5
F98
  8
HIDDEN
  6
HIDDEN
 10
348.02663243378862
 20
446.34204973755078
 30
0.0
 11
349.41227307984389
 21
448.74204973755081
 31
0.0
  0
LINE
  5
F99
  8
HIDDEN
  6
HIDDEN
 10
348.02663243378862
 20
446.34204973755078
 30
0.0
 11
348.02663243378862
 21
451.14204973755079
 31
0.0
  0
LINE
  5
F9A
  8
HIDDEN
  6
HIDDEN
 10
336.02663243378862
 20
451.14204973755079
 30
0.0
 11
348.02663243378862
 21
451.14204973755079
 31
0.0
  0
LINE
  5
F9B
  8
HIDDEN
  6
HIDDEN
 10
336.02663243378862
 20
446.34204973755078
 30
0.0
 11
348.02663243378862
 21
446.34204973755078
 31
0.0
  0
LINE
  5
F9C
  8
HIDDEN
  6
HIDDEN
 10
330.02663243378862
 20
451.74204973755087
 30
0.0
 11
345.02663243378862
 21
451.74204973755087
 31
0.0
  0
LINE
  5
F9D
  8
HIDDEN
  6
HIDDEN
 10
330.02663243378862
 20
445.74204973755081
 30
0.0
 11
345.02663243378862
 21
445.74204973755081
 31
0.0
  0
LINE
  5
F9E
  8
CENTER
  6
CENTER
 10
345.02663243378862
 20
437.14017810920092
 30
0.0
 11
345.02663243378862
 21
455.11271826489161
 31
0.0
  0
LINE
  5
F9F
  8
CENTER
  6
CENTER
 10
326.93908232573727
 20
486.74204973755081
 30
0.0
 11
361.02663243378862
 21
486.74204973755081
 31
0.0
  0
LINE
  5
FA0
  8
CENTER
  6
CENTER
 10
327.60350229548033
 20
448.74204973755081
 30
0.0
 11
361.02663243378862
 21
448.74204973755081
 31
0.0
  0
LINE
  5
FA1
  8
0
 10
593.02663243378868
 20
228.50458911885269
 30
0.0
 11
596.02663243378868
 21
228.50458911885269
 31
0.0
  0
LINE
  5
FA2
  8
HIDDEN
  6
HIDDEN
 10
336.02663243378862
 20
345.88443071016212
 30
0.0
 11
336.02663243378862
 21
351.88443071016212
 31
0.0
  0
LINE
  5
FA3
  8
HIDDEN
  6
HIDDEN
 10
348.02663243378862
 20
351.28443071016198
 30
0.0
 11
349.41227307984383
 21
348.88443071016212
 31
0.0
  0
LINE
  5
FA4
  8
HIDDEN
  6
HIDDEN
 10
348.02663243378862
 20
346.48443071016209
 30
0.0
 11
348.02663243378862
 21
351.28443071016198
 31
0.0
  0
LINE
  5
FA5
  8
HIDDEN
  6
HIDDEN
 10
348.02663243378862
 20
346.48443071016209
 30
0.0
 11
349.41227307984383
 21
348.88443071016212
 31
0.0
  0
LINE
  5
FA6
  8
HIDDEN
  6
HIDDEN
 10
345.02663243378862
 20
345.88443071016212
 30
0.0
 11
345.02663243378862
 21
351.88443071016212
 31
0.0
  0
LINE
  5
FA7
  8
HIDDEN
  6
HIDDEN
 10
336.02663243378862
 20
346.48443071016209
 30
0.0
 11
348.02663243378862
 21
346.48443071016209
 31
0.0
  0
LINE
  5
FA8
  8
HIDDEN
  6
HIDDEN
 10
336.02663243378862
 20
351.28443071016198
 30
0.0
 11
348.02663243378862
 21
351.28443071016198
 31
0.0
  0
LINE
  5
FA9
  8
HIDDEN
  6
HIDDEN
 10
330.02663243378862
 20
345.88443071016212
 30
0.0
 11
345.02663243378862
 21
345.88443071016212
 31
0.0
  0
LINE
  5
FAA
  8
HIDDEN
  6
HIDDEN
 10
330.02663243378862
 20
351.88443071016212
 30
0.0
 11
345.02663243378862
 21
351.88443071016212
 31
0.0
  0
LINE
  5
FAB
  8
HIDDEN
  6
HIDDEN
 10
336.02663243378862
 20
307.88443071016212
 30
0.0
 11
336.02663243378862
 21
313.88443071016212
 31
0.0
  0
LINE
  5
FAC
  8
HIDDEN
  6
HIDDEN
 10
345.02663243378862
 20
307.88443071016212
 30
0.0
 11
345.02663243378862
 21
313.88443071016212
 31
0.0
  0
LINE
  5
FAD
  8
HIDDEN
  6
HIDDEN
 10
348.02663243378862
 20
313.28443071016198
 30
0.0
 11
349.41227307984383
 21
310.88443071016212
 31
0.0
  0
LINE
  5
FAE
  8
HIDDEN
  6
HIDDEN
 10
348.02663243378862
 20
308.48443071016197
 30
0.0
 11
349.41227307984383
 21
310.88443071016212
 31
0.0
  0
LINE
  5
FAF
  8
HIDDEN
  6
HIDDEN
 10
348.02663243378862
 20
308.48443071016197
 30
0.0
 11
348.02663243378862
 21
313.28443071016198
 31
0.0
  0
LINE
  5
FB0
  8
HIDDEN
  6
HIDDEN
 10
336.02663243378862
 20
313.28443071016198
 30
0.0
 11
348.02663243378862
 21
313.28443071016198
 31
0.0
  0
LINE
  5
FB1
  8
HIDDEN
  6
HIDDEN
 10
336.02663243378862
 20
308.48443071016197
 30
0.0
 11
348.02663243378862
 21
308.48443071016197
 31
0.0
  0
LINE
  5
FB2
  8
HIDDEN
  6
HIDDEN
 10
330.02663243378862
 20
313.88443071016212
 30
0.0
 11
345.02663243378862
 21
313.88443071016212
 31
0.0
  0
LINE
  5
FB3
  8
HIDDEN
  6
HIDDEN
 10
330.02663243378862
 20
307.88443071016212
 30
0.0
 11
345.02663243378862
 21
307.88443071016212
 31
0.0
  0
LINE
  5
FB4
  8
CENTER
  6
CENTER
 10
326.93908232573722
 20
348.88443071016212
 30
0.0
 11
361.02663243378862
 21
348.88443071016212
 31
0.0
  0
LINE
  5
FB5
  8
CENTER
  6
CENTER
 10
327.60350229548021
 20
310.88443071016212
 30
0.0
 11
361.02663243378862
 21
310.88443071016212
 31
0.0
  0
LINE
  5
FB6
  8
HIDDEN
  6
HIDDEN
 10
336.02663243378862
 20
227.00458911885269
 30
0.0
 11
336.02663243378862
 21
233.00458911885269
 31
0.0
  0
LINE
  5
FB7
  8
HIDDEN
  6
HIDDEN
 10
348.02663243378862
 20
232.40458911885261
 30
0.0
 11
349.41227307984389
 21
230.00458911885269
 31
0.0
  0
LINE
  5
FB8
  8
HIDDEN
  6
HIDDEN
 10
348.02663243378862
 20
227.60458911885269
 30
0.0
 11
348.02663243378862
 21
232.40458911885261
 31
0.0
  0
LINE
  5
FB9
  8
HIDDEN
  6
HIDDEN
 10
348.02663243378862
 20
227.60458911885269
 30
0.0
 11
349.41227307984389
 21
230.00458911885269
 31
0.0
  0
LINE
  5
FBA
  8
HIDDEN
  6
HIDDEN
 10
345.02663243378862
 20
227.00458911885269
 30
0.0
 11
345.02663243378862
 21
233.00458911885269
 31
0.0
  0
LINE
  5
FBB
  8
HIDDEN
  6
HIDDEN
 10
336.02663243378862
 20
227.60458911885269
 30
0.0
 11
348.02663243378862
 21
227.60458911885269
 31
0.0
  0
LINE
  5
FBC
  8
HIDDEN
  6
HIDDEN
 10
336.02663243378862
 20
232.40458911885261
 30
0.0
 11
348.02663243378862
 21
232.40458911885261
 31
0.0
  0
LINE
  5
FBD
  8
HIDDEN
  6
HIDDEN
 10
330.02663243378862
 20
227.00458911885269
 30
0.0
 11
345.02663243378862
 21
227.00458911885269
 31
0.0
  0
LINE
  5
FBE
  8
HIDDEN
  6
HIDDEN
 10
330.02663243378862
 20
233.00458911885269
 30
0.0
 11
345.02663243378862
 21
233.00458911885269
 31
0.0
  0
LINE
  5
FBF
  8
HIDDEN
  6
HIDDEN
 10
336.02663243378862
 20
189.00458911885269
 30
0.0
 11
336.02663243378862
 21
195.00458911885269
 31
0.0
  0
LINE
  5
FC0
  8
HIDDEN
  6
HIDDEN
 10
345.02663243378862
 20
189.00458911885269
 30
0.0
 11
345.02663243378862
 21
195.00458911885269
 31
0.0
  0
LINE
  5
FC1
  8
HIDDEN
  6
HIDDEN
 10
348.02663243378862
 20
194.40458911885261
 30
0.0
 11
349.41227307984389
 21
192.00458911885269
 31
0.0
  0
LINE
  5
FC2
  8
HIDDEN
  6
HIDDEN
 10
348.02663243378862
 20
189.6045891188526
 30
0.0
 11
349.41227307984389
 21
192.00458911885269
 31
0.0
  0
LINE
  5
FC3
  8
HIDDEN
  6
HIDDEN
 10
348.02663243378862
 20
189.6045891188526
 30
0.0
 11
348.02663243378862
 21
194.40458911885261
 31
0.0
  0
LINE
  5
FC4
  8
HIDDEN
  6
HIDDEN
 10
336.02663243378862
 20
194.40458911885261
 30
0.0
 11
348.02663243378862
 21
194.40458911885261
 31
0.0
  0
LINE
  5
FC5
  8
HIDDEN
  6
HIDDEN
 10
336.02663243378862
 20
189.6045891188526
 30
0.0
 11
348.02663243378862
 21
189.6045891188526
 31
0.0
  0
LINE
  5
FC6
  8
HIDDEN
  6
HIDDEN
 10
330.02663243378862
 20
195.00458911885269
 30
0.0
 11
345.02663243378862
 21
195.00458911885269
 31
0.0
  0
LINE
  5
FC7
  8
HIDDEN
  6
HIDDEN
 10
330.02663243378862
 20
189.00458911885269
 30
0.0
 11
345.02663243378862
 21
189.00458911885269
 31
0.0
  0
LINE
  5
FC8
  8
CENTER
  6
CENTER
 10
326.93908232573727
 20
230.00458911885269
 30
0.0
 11
361.02663243378862
 21
230.00458911885269
 31
0.0
  0
LINE
  5
FC9
  8
CENTER
  6
CENTER
 10
327.60350229548033
 20
192.00458911885269
 30
0.0
 11
361.02663243378862
 21
192.00458911885269
 31
0.0
  0
LINE
  5
FCA
  8
CENTER
  6
CENTER
 10
353.52663243378862
 20
242.04739852107809
 30
0.0
 11
353.52663243378862
 21
223.65935617884691
 31
0.0
  0
LINE
  5
FCB
  8
CENTER
  6
CENTER
 10
345.02663243378862
 20
241.60646074720259
 30
0.0
 11
345.02663243378862
 21
223.6339205915119
 31
0.0
  0
LINE
  5
FCC
  8
HIDDEN
  6
HIDDEN
 10
587.02663243378879
 20
345.88443071016212
 30
0.0
 11
587.02663243378879
 21
351.88443071016212
 31
0.0
  0
LINE
  5
FCD
  8
HIDDEN
  6
HIDDEN
 10
575.02663243378868
 20
351.28443071016198
 30
0.0
 11
573.64099178773358
 21
348.88443071016212
 31
0.0
  0
LINE
  5
FCE
  8
HIDDEN
  6
HIDDEN
 10
575.02663243378868
 20
346.48443071016209
 30
0.0
 11
575.02663243378868
 21
351.28443071016198
 31
0.0
  0
LINE
  5
FCF
  8
HIDDEN
  6
HIDDEN
 10
575.02663243378868
 20
346.48443071016209
 30
0.0
 11
573.64099178773358
 21
348.88443071016212
 31
0.0
  0
LINE
  5
FD0
  8
HIDDEN
  6
HIDDEN
 10
578.02663243378879
 20
345.88443071016212
 30
0.0
 11
578.02663243378879
 21
351.88443071016212
 31
0.0
  0
LINE
  5
FD1
  8
HIDDEN
  6
HIDDEN
 10
587.02663243378879
 20
346.48443071016209
 30
0.0
 11
575.02663243378868
 21
346.48443071016209
 31
0.0
  0
LINE
  5
FD2
  8
HIDDEN
  6
HIDDEN
 10
587.02663243378879
 20
351.28443071016198
 30
0.0
 11
575.02663243378868
 21
351.28443071016198
 31
0.0
  0
LINE
  5
FD3
  8
HIDDEN
  6
HIDDEN
 10
593.02663243378868
 20
345.88443071016212
 30
0.0
 11
578.02663243378879
 21
345.88443071016212
 31
0.0
  0
LINE
  5
FD4
  8
HIDDEN
  6
HIDDEN
 10
593.02663243378868
 20
351.88443071016212
 30
0.0
 11
578.02663243378879
 21
351.88443071016212
 31
0.0
  0
LINE
  5
FD5
  8
HIDDEN
  6
HIDDEN
 10
587.02663243378879
 20
307.88443071016212
 30
0.0
 11
587.02663243378879
 21
313.88443071016212
 31
0.0
  0
LINE
  5
FD6
  8
HIDDEN
  6
HIDDEN
 10
578.02663243378879
 20
307.88443071016212
 30
0.0
 11
578.02663243378879
 21
313.88443071016212
 31
0.0
  0
LINE
  5
FD7
  8
HIDDEN
  6
HIDDEN
 10
575.02663243378868
 20
313.28443071016198
 30
0.0
 11
573.64099178773358
 21
310.88443071016212
 31
0.0
  0
LINE
  5
FD8
  8
HIDDEN
  6
HIDDEN
 10
575.02663243378868
 20
308.48443071016197
 30
0.0
 11
573.64099178773358
 21
310.88443071016212
 31
0.0
  0
LINE
  5
FD9
  8
HIDDEN
  6
HIDDEN
 10
575.02663243378868
 20
308.48443071016197
 30
0.0
 11
575.02663243378868
 21
313.28443071016198
 31
0.0
  0
LINE
  5
FDA
  8
HIDDEN
  6
HIDDEN
 10
587.02663243378879
 20
313.28443071016198
 30
0.0
 11
575.02663243378868
 21
313.28443071016198
 31
0.0
  0
LINE
  5
FDB
  8
HIDDEN
  6
HIDDEN
 10
587.02663243378879
 20
308.48443071016197
 30
0.0
 11
575.02663243378868
 21
308.48443071016197
 31
0.0
  0
LINE
  5
FDC
  8
HIDDEN
  6
HIDDEN
 10
593.02663243378868
 20
313.88443071016212
 30
0.0
 11
578.02663243378879
 21
313.88443071016212
 31
0.0
  0
LINE
  5
FDD
  8
HIDDEN
  6
HIDDEN
 10
593.02663243378868
 20
307.88443071016212
 30
0.0
 11
578.02663243378879
 21
307.88443071016212
 31
0.0
  0
LINE
  5
FDE
  8
CENTER
  6
CENTER
 10
596.11418254184014
 20
348.88443071016212
 30
0.0
 11
562.02663243378879
 21
348.88443071016212
 31
0.0
  0
LINE
  5
FDF
  8
CENTER
  6
CENTER
 10
595.44976257209714
 20
310.88443071016212
 30
0.0
 11
562.02663243378879
 21
310.88443071016212
 31
0.0
  0
LINE
  5
FE0
  8
HIDDEN
  6
HIDDEN
 10
587.02663243378879
 20
227.00458911885269
 30
0.0
 11
587.02663243378879
 21
233.00458911885269
 31
0.0
  0
LINE
  5
FE1
  8
HIDDEN
  6
HIDDEN
 10
575.02663243378868
 20
232.40458911885261
 30
0.0
 11
573.64099178773358
 21
230.00458911885269
 31
0.0
  0
LINE
  5
FE2
  8
HIDDEN
  6
HIDDEN
 10
575.02663243378868
 20
227.60458911885269
 30
0.0
 11
575.02663243378868
 21
232.40458911885261
 31
0.0
  0
LINE
  5
FE3
  8
HIDDEN
  6
HIDDEN
 10
575.02663243378868
 20
227.60458911885269
 30
0.0
 11
573.64099178773358
 21
230.00458911885269
 31
0.0
  0
LINE
  5
FE4
  8
HIDDEN
  6
HIDDEN
 10
578.02663243378879
 20
227.00458911885269
 30
0.0
 11
578.02663243378879
 21
233.00458911885269
 31
0.0
  0
LINE
  5
FE5
  8
HIDDEN
  6
HIDDEN
 10
587.02663243378879
 20
227.60458911885269
 30
0.0
 11
575.02663243378868
 21
227.60458911885269
 31
0.0
  0
LINE
  5
FE6
  8
HIDDEN
  6
HIDDEN
 10
587.02663243378879
 20
232.40458911885261
 30
0.0
 11
575.02663243378868
 21
232.40458911885261
 31
0.0
  0
LINE
  5
FE7
  8
HIDDEN
  6
HIDDEN
 10
593.02663243378868
 20
227.00458911885269
 30
0.0
 11
578.02663243378879
 21
227.00458911885269
 31
0.0
  0
LINE
  5
FE8
  8
HIDDEN
  6
HIDDEN
 10
593.02663243378868
 20
233.00458911885269
 30
0.0
 11
578.02663243378879
 21
233.00458911885269
 31
0.0
  0
LINE
  5
FE9
  8
HIDDEN
  6
HIDDEN
 10
587.02663243378879
 20
189.00458911885269
 30
0.0
 11
587.02663243378879
 21
195.00458911885269
 31
0.0
  0
LINE
  5
FEA
  8
HIDDEN
  6
HIDDEN
 10
578.02663243378879
 20
189.00458911885269
 30
0.0
 11
578.02663243378879
 21
195.00458911885269
 31
0.0
  0
LINE
  5
FEB
  8
HIDDEN
  6
HIDDEN
 10
575.02663243378868
 20
194.40458911885261
 30
0.0
 11
573.64099178773358
 21
192.00458911885269
 31
0.0
  0
LINE
  5
FEC
  8
HIDDEN
  6
HIDDEN
 10
575.02663243378868
 20
189.6045891188526
 30
0.0
 11
573.64099178773358
 21
192.00458911885269
 31
0.0
  0
LINE
  5
FED
  8
HIDDEN
  6
HIDDEN
 10
575.02663243378868
 20
189.6045891188526
 30
0.0
 11
575.02663243378868
 21
194.40458911885261
 31
0.0
  0
LINE
  5
FEE
  8
HIDDEN
  6
HIDDEN
 10
587.02663243378879
 20
194.40458911885261
 30
0.0
 11
575.02663243378868
 21
194.40458911885261
 31
0.0
  0
LINE
  5
FEF
  8
HIDDEN
  6
HIDDEN
 10
587.02663243378879
 20
189.6045891188526
 30
0.0
 11
575.02663243378868
 21
189.6045891188526
 31
0.0
  0
LINE
  5
FF0
  8
HIDDEN
  6
HIDDEN
 10
593.02663243378868
 20
195.00458911885269
 30
0.0
 11
578.02663243378879
 21
195.00458911885269
 31
0.0
  0
LINE
  5
FF1
  8
HIDDEN
  6
HIDDEN
 10
593.02663243378868
 20
189.00458911885269
 30
0.0
 11
578.02663243378879
 21
189.00458911885269
 31
0.0
  0
LINE
  5
FF2
  8
CENTER
  6
CENTER
 10
596.11418254184014
 20
230.00458911885269
 30
0.0
 11
562.02663243378879
 21
230.00458911885269
 31
0.0
  0
LINE
  5
FF3
  8
CENTER
  6
CENTER
 10
595.44976257209714
 20
192.00458911885269
 30
0.0
 11
562.02663243378879
 21
192.00458911885269
 31
0.0
  0
LINE
  5
FF4
  8
CENTER
  6
CENTER
 10
569.52663243378879
 20
242.04739852107809
 30
0.0
 11
569.52663243378879
 21
223.65935617884691
 31
0.0
  0
LINE
  5
FF5
  8
CENTER
  6
CENTER
 10
578.02663243378879
 20
241.60646074720259
 30
0.0
 11
578.02663243378879
 21
223.6339205915119
 31
0.0
  0
CIRCLE
  5
FF6
  8
0
  6
CONTINUOUS
 10
461.52663243378868
 20
525.24204973755081
 30
0.0
 40
4.25
  0
CIRCLE
  5
FF7
  8
0
  6
CONTINUOUS
 10
461.52663243378868
 20
525.24204973755081
 30
0.0
 40
3.9035796766743651
  0
POLYLINE
  5
FF8
  8
0
  6
CONTINUOUS
 66
     1
 10
0.0
 20
0.0
 30
0.0
 70
     1
  0
VERTEX
  5
14DE
  8
0
  6
CONTINUOUS
 10
460.37193189540869
 20
527.24204973755081
 30
0.0
  0
VERTEX
  5
14DF
  8
0
  6
CONTINUOUS
 10
459.21723135703058
 20
525.24204973755081
 30
0.0
  0
VERTEX
  5
14E0
  8
0
  6
CONTINUOUS
 10
460.37193189540869
 20
523.24204973755081
 30
0.0
  0
VERTEX
  5
14E1
  8
0
  6
CONTINUOUS
 10
462.68133297216872
 20
523.24204973755081
 30
0.0
  0
VERTEX
  5
14E2
  8
0
  6
CONTINUOUS
 10
463.83603351054688
 20
525.24204973755081
 30
0.0
  0
VERTEX
  5
14E3
  8
0
  6
CONTINUOUS
 10
462.68133297216872
 20
527.24204973755081
 30
0.0
  0
SEQEND
  5
14E4
  8
0
  6
CONTINUOUS
  0
CIRCLE
  5
1000
  8
0
  6
CONTINUOUS
 10
461.52663243378868
 20
465.24204973755087
 30
0.0
 40
4.25
  0
CIRCLE
  5
1001
  8
0
  6
CONTINUOUS
 10
461.52663243378868
 20
465.24204973755087
 30
0.0
 40
3.9035796766743651
  0
POLYLINE
  5
1002
  8
0
  6
CONTINUOUS
 66
     1
 10
0.0
 20
0.0
 30
0.0
 70
     1
  0
VERTEX
  5
14E5
  8
0
  6
CONTINUOUS
 10
460.37193189540869
 20
467.24204973755081
 30
0.0
  0
VERTEX
  5
14E6
  8
0
  6
CONTINUOUS
 10
459.21723135703058
 20
465.24204973755087
 30
0.0
  0
VERTEX
  5
14E7
  8
0
  6
CONTINUOUS
 10
460.37193189540869
 20
463.24204973755081
 30
0.0
  0
VERTEX
  5
14E8
  8
0
  6
CONTINUOUS
 10
462.68133297216872
 20
463.24204973755081
 30
0.0
  0
VERTEX
  5
14E9
  8
0
  6
CONTINUOUS
 10
463.83603351054688
 20
465.24204973755087
 30
0.0
  0
VERTEX
  5
14EA
  8
0
  6
CONTINUOUS
 10
462.68133297216872
 20
467.24204973755081
 30
0.0
  0
SEQEND
  5
14EB
  8
0
  6
CONTINUOUS
  0
CIRCLE
  5
100A
  8
0
  6
CONTINUOUS
 10
431.52663243378868
 20
495.24204973755081
 30
0.0
 40
4.25
  0
CIRCLE
  5
100B
  8
0
  6
CONTINUOUS
 10
431.52663243378868
 20
495.24204973755081
 30
0.0
 40
3.9035796766743651
  0
POLYLINE
  5
100C
  8
0
  6
CONTINUOUS
 66
     1
 10
0.0
 20
0.0
 30
0.0
 70
     1
  0
VERTEX
  5
14EC
  8
0
  6
CONTINUOUS
 10
430.37193189540869
 20
497.24204973755081
 30
0.0
  0
VERTEX
  5
14ED
  8
0
  6
CONTINUOUS
 10
429.21723135703053
 20
495.24204973755081
 30
0.0
  0
VERTEX
  5
14EE
  8
0
  6
CONTINUOUS
 10
430.37193189540869
 20
493.24204973755087
 30
0.0
  0
VERTEX
  5
14EF
  8
0
  6
CONTINUOUS
 10
432.6813329721686
 20
493.24204973755087
 30
0.0
  0
VERTEX
  5
14F0
  8
0
  6
CONTINUOUS
 10
433.83603351054688
 20
495.24204973755081
 30
0.0
  0
VERTEX
  5
14F1
  8
0
  6
CONTINUOUS
 10
432.6813329721686
 20
497.24204973755081
 30
0.0
  0
SEQEND
  5
14F2
  8
0
  6
CONTINUOUS
  0
CIRCLE
  5
1014
  8
0
  6
CONTINUOUS
 10
491.52663243378868
 20
495.24204973755081
 30
0.0
 40
4.25
  0
CIRCLE
  5
1015
  8
0
  6
CONTINUOUS
 10
491.52663243378868
 20
495.24204973755081
 30
0.0
 40
3.9035796766743651
  0
POLYLINE
  5
1016
  8
0
  6
CONTINUOUS
 66
     1
 10
0.0
 20
0.0
 30
0.0
 70
     1
  0
VERTEX
  5
14F3
  8
0
  6
CONTINUOUS
 10
490.37193189540869
 20
497.24204973755081
 30
0.0
  0
VERTEX
  5
14F4
  8
0
  6
CONTINUOUS
 10
489.21723135703058
 20
495.24204973755081
 30
0.0
  0
VERTEX
  5
14F5
  8
0
  6
CONTINUOUS
 10
490.37193189540869
 20
493.24204973755087
 30
0.0
  0
VERTEX
  5
14F6
  8
0
  6
CONTINUOUS
 10
492.68133297216872
 20
493.24204973755087
 30
0.0
  0
VERTEX
  5
14F7
  8
0
  6
CONTINUOUS
 10
493.83603351054688
 20
495.24204973755081
 30
0.0
  0
VERTEX
  5
14F8
  8
0
  6
CONTINUOUS
 10
492.68133297216872
 20
497.24204973755081
 30
0.0
  0
SEQEND
  5
14F9
  8
0
  6
CONTINUOUS
  0
CIRCLE
  5
101E
  8
0
  6
CONTINUOUS
 10
461.52663243378868
 20
153.50458911885269
 30
0.0
 40
4.25
  0
CIRCLE
  5
101F
  8
0
  6
CONTINUOUS
 10
461.52663243378868
 20
153.50458911885269
 30
0.0
 40
3.9035796766743651
  0
POLYLINE
  5
1020
  8
0
  6
CONTINUOUS
 66
     1
 10
0.0
 20
0.0
 30
0.0
 70
     1
  0
VERTEX
  5
14FA
  8
0
  6
CONTINUOUS
 10
460.37193189540869
 20
151.50458911885269
 30
0.0
  0
VERTEX
  5
14FB
  8
0
  6
CONTINUOUS
 10
459.21723135703058
 20
153.50458911885269
 30
0.0
  0
VERTEX
  5
14FC
  8
0
  6
CONTINUOUS
 10
460.37193189540869
 20
155.50458911885269
 30
0.0
  0
VERTEX
  5
14FD
  8
0
  6
CONTINUOUS
 10
462.68133297216872
 20
155.50458911885269
 30
0.0
  0
VERTEX
  5
14FE
  8
0
  6
CONTINUOUS
 10
463.83603351054688
 20
153.50458911885269
 30
0.0
  0
VERTEX
  5
14FF
  8
0
  6
CONTINUOUS
 10
462.68133297216872
 20
151.50458911885269
 30
0.0
  0
SEQEND
  5
1500
  8
0
  6
CONTINUOUS
  0
CIRCLE
  5
1028
  8
0
  6
CONTINUOUS
 10
431.52663243378868
 20
183.50458911885269
 30
0.0
 40
4.25
  0
CIRCLE
  5
1029
  8
0
  6
CONTINUOUS
 10
431.52663243378868
 20
183.50458911885269
 30
0.0
 40
3.9035796766743651
  0
POLYLINE
  5
102A
  8
0
  6
CONTINUOUS
 66
     1
 10
0.0
 20
0.0
 30
0.0
 70
     1
  0
VERTEX
  5
1501
  8
0
  6
CONTINUOUS
 10
430.37193189540869
 20
181.50458911885269
 30
0.0
  0
VERTEX
  5
1502
  8
0
  6
CONTINUOUS
 10
429.21723135703053
 20
183.50458911885269
 30
0.0
  0
VERTEX
  5
1503
  8
0
  6
CONTINUOUS
 10
430.37193189540869
 20
185.50458911885269
 30
0.0
  0
VERTEX
  5
1504
  8
0
  6
CONTINUOUS
 10
432.6813329721686
 20
185.50458911885269
 30
0.0
  0
VERTEX
  5
1505
  8
0
  6
CONTINUOUS
 10
433.83603351054688
 20
183.50458911885269
 30
0.0
  0
VERTEX
  5
1506
  8
0
  6
CONTINUOUS
 10
432.6813329721686
 20
181.50458911885269
 30
0.0
  0
SEQEND
  5
1507
  8
0
  6
CONTINUOUS
  0
CIRCLE
  5
1032
  8
0
  6
CONTINUOUS
 10
461.52663243378868
 20
213.50458911885269
 30
0.0
 40
4.25
  0
CIRCLE
  5
1033
  8
0
  6
CONTINUOUS
 10
461.52663243378868
 20
213.50458911885269
 30
0.0
 40
3.9035796766743651
  0
POLYLINE
  5
1034
  8
0
  6
CONTINUOUS
 66
     1
 10
0.0
 20
0.0
 30
0.0
 70
     1
  0
VERTEX
  5
1508
  8
0
  6
CONTINUOUS
 10
460.37193189540869
 20
211.50458911885269
 30
0.0
  0
VERTEX
  5
1509
  8
0
  6
CONTINUOUS
 10
459.21723135703058
 20
213.50458911885269
 30
0.0
  0
VERTEX
  5
150A
  8
0
  6
CONTINUOUS
 10
460.37193189540869
 20
215.50458911885269
 30
0.0
  0
VERTEX
  5
150B
  8
0
  6
CONTINUOUS
 10
462.68133297216872
 20
215.50458911885269
 30
0.0
  0
VERTEX
  5
150C
  8
0
  6
CONTINUOUS
 10
463.83603351054688
 20
213.50458911885269
 30
0.0
  0
VERTEX
  5
150D
  8
0
  6
CONTINUOUS
 10
462.68133297216872
 20
211.50458911885269
 30
0.0
  0
SEQEND
  5
150E
  8
0
  6
CONTINUOUS
  0
CIRCLE
  5
103C
  8
0
  6
CONTINUOUS
 10
491.52663243378868
 20
183.50458911885269
 30
0.0
 40
4.25
  0
CIRCLE
  5
103D
  8
0
  6
CONTINUOUS
 10
491.52663243378868
 20
183.50458911885269
 30
0.0
 40
3.9035796766743651
  0
POLYLINE
  5
103E
  8
0
  6
CONTINUOUS
 66
     1
 10
0.0
 20
0.0
 30
0.0
 70
     1
  0
VERTEX
  5
150F
  8
0
  6
CONTINUOUS
 10
490.37193189540869
 20
181.50458911885269
 30
0.0
  0
VERTEX
  5
1510
  8
0
  6
CONTINUOUS
 10
489.21723135703058
 20
183.50458911885269
 30
0.0
  0
VERTEX
  5
1511
  8
0
  6
CONTINUOUS
 10
490.37193189540869
 20
185.50458911885269
 30
0.0
  0
VERTEX
  5
1512
  8
0
  6
CONTINUOUS
 10
492.68133297216872
 20
185.50458911885269
 30
0.0
  0
VERTEX
  5
1513
  8
0
  6
CONTINUOUS
 10
493.83603351054688
 20
183.50458911885269
 30
0.0
  0
VERTEX
  5
1514
  8
0
  6
CONTINUOUS
 10
492.68133297216872
 20
181.50458911885269
 30
0.0
  0
SEQEND
  5
1515
  8
0
  6
CONTINUOUS
  0
ARC
  5
1046
  8
DIM
  6
CONTINUOUS
 10
461.52663243378879
 20
495.24204973755081
 30
0.0
 40
63.623948991042731
 50
90.0
 51
177.29813586581719
  0
TEXT
  5
104B
  8
LOGO
 62
     6
 10
726.59193219389454
 20
56.810747968931722
 30
0.0
 40
14.663067554990709
  1
作動角度
 41
0.9
  7
CHINESET
 72
     4
 11
752.98545379287782
 21
63.684662225046338
 31
0.0
  0
LINE
  5
104C
  8
LOGO
 62
     6
 10
790.84992642476072
 20
36.191410559438857
 30
0.0
 11
715.12098116099492
 21
36.191410559438751
 31
0.0
  0
LINE
  5
104D
  8
LOGO
 62
     6
 10
790.84992642476072
 20
76.514846335663336
 30
0.0
 11
715.12098116099492
 21
76.514846335663336
 31
0.0
  0
TEXT
  5
104E
  8
LOGO
  6
CONTINUOUS
 62
     6
 10
718.42250884182829
 20
42.301022040684877
 30
0.0
 40
9.1644172218691935
  1
Rotary angle
 41
0.8
  7
CHINESET
 72
     4
 11
752.98545379287782
 21
45.355827781307951
 31
0.0
  0
TEXT
  5
104F
  8
LOGO
  6
CONTINUOUS
 62
     7
 10
739.85851759671709
 20
100.13448097498041
 30
0.0
 40
18.32883444373838
  1
90
  7
CHINESET
 72
     1
 11
754.69614547974345
 21
109.29889819684961
 31
0.0
 73
     2
  0
LINE
  5
1050
  8
LOGO
 62
     6
 10
783.51839264726527
 20
126.00269933375689
 30
0.0
 11
722.45251493849025
 21
126.00269933375689
 31
0.0
  0
LINE
  5
1051
  8
LOGO
 62
     6
 10
783.51839264726527
 20
93.010797335027831
 30
0.0
 11
722.45251493849025
 21
93.010797335027874
 31
0.0
  0
LINE
  5
1052
  8
LOGO
 62
     1
 10
809.99999999999989
 20
137.0
 30
0.0
 11
130.0
 21
137.0
 31
0.0
  0
LINE
  5
1053
  8
LOGO
 62
     1
 10
809.99999999999989
 20
27.026993337569689
 30
0.0
 11
130.0
 21
27.026993337569689
 31
0.0
  0
LINE
  5
1054
  8
LOGO
  6
CONTINUOUS
 62
     6
 10
339.09654533049962
 20
107.7728369358494
 30
0.0
 11
359.11406800747437
 21
110.4169129219716
 31
0.0
  0
LINE
  5
1055
  8
LOGO
  6
CONTINUOUS
 62
     6
 10
339.09654533049962
 20
100.290405679895
 30
0.0
 11
359.11406800747437
 21
97.646329693772742
 31
0.0
  0
LINE
  5
1056
  8
LOGO
 62
     1
 10
371.9406146573466
 20
115.0053986675139
 30
0.0
 11
210.64687155244891
 21
115.0053986675139
 31
0.0
  0
LINE
  5
1057
  8
LOGO
 62
     1
 10
371.9406146573466
 20
93.010797335027874
 30
0.0
 11
210.64687155244891
 21
93.010797335027874
 31
0.0
  0
TEXT
  5
1058
  8
LOGO
 62
     6
 10
315.1230411907606
 20
120.5040490006354
 30
0.0
 40
10.99730066624303
  1
1 : 1
  7
CHINESET
 72
     1
 11
334.49923760271253
 21
126.00269933375689
 31
0.0
 73
     2
  0
TEXT
  5
1059
  8
LOGO
 62
     6
 10
315.1230411907606
 20
76.514846335663336
 30
0.0
 40
10.99730066624303
  1
m/m
  7
CHINESET
 72
     1
 11
334.49923760271253
 21
82.013496668784853
 31
0.0
 73
     2
  0
LINE
  5
105A
  8
LOGO
 62
     1
 10
371.9406146573466
 20
71.016196002541918
 30
0.0
 11
129.9999999999998
 21
71.016196002541918
 31
0.0
  0
TEXT
  5
105B
  8
LOGO
  6
CONTINUOUS
 62
     5
 10
133.5996021876534
 20
48.63102453266638
 30
0.0
 40
16.495950999364549
  1
金器工業股份有限公司
 41
0.8
  7
LOGO
  0
TEXT
  5
105C
  8
LOGO
  6
CONTINUOUS
 62
     5
 10
138.323047612972
 20
32.131841620238433
 30
0.0
 40
10.99730066624303
  1
MINDMAN INDUSTRIAL CO.,LTD
 41
0.85
  7
CHINESET
  0
SOLID
  5
105D
  8
LOGO
 62
     5
 10
141.40987593447949
 20
89.297643017684862
 30
0.0
 11
146.16482017339331
 21
89.297643017683285
 31
0.0
 12
166.0044151012774
 22
134.38763149014611
 32
0.0
 13
170.7593593401908
 23
134.38763149014301
 33
0.0
  0
SOLID
  5
105E
  8
LOGO
 62
     5
 10
148.13238330674
 20
89.297643017684862
 30
0.0
 11
152.88732754565331
 21
89.297643017684862
 31
0.0
 12
170.7593593401908
 22
130.78043241234761
 32
0.0
 13
166.0044151012774
 23
113.345636869662
 33
0.0
  0
SOLID
  5
105F
  8
LOGO
 62
     2
 10
146.16482017339331
 20
89.297643017683285
 30
0.0
 11
148.13238330674
 21
89.297643017684862
 31
0.0
 12
170.7593593401908
 22
134.38763149014301
 32
0.0
 13
172.72692247353589
 23
134.38763149014301
 33
0.0
  0
SOLID
  5
1060
  8
LOGO
 62
     5
 10
146.30049103053511
 20
81.099463295419056
 30
0.0
 11
147.94012697498661
 21
81.099463295419056
 31
0.0
 12
146.30049103053511
 22
72.901283573154757
 32
0.0
 13
147.94012697498661
 23
72.901283573154757
 33
0.0
  0
SOLID
  5
1061
  8
LOGO
 62
     5
 10
133.78653426433979
 20
72.901283573154757
 30
0.0
 11
135.4261702087947
 21
72.901283573154757
 31
0.0
 12
140.04351264743639
 22
81.099463295419056
 32
0.0
 13
141.68314859188831
 23
81.099463295419056
 33
0.0
  0
SOLID
  5
1062
  8
LOGO
 62
     5
 10
140.04351264743639
 20
81.099463295419056
 30
0.0
 11
141.68314859188831
 21
81.099463295419056
 31
0.0
 12
140.04351264743639
 22
72.901283573154757
 32
0.0
 13
141.68314859188831
 23
72.901283573154757
 33
0.0
  0
SOLID
  5
1063
  8
LOGO
 62
     5
 10
140.04351264743639
 20
72.901283573154757
 30
0.0
 11
141.68314859188831
 21
72.901283573154757
 31
0.0
 12
146.30049103053511
 22
81.099463295419056
 32
0.0
 13
147.94012697498661
 23
81.099463295419056
 33
0.0
  0
LINE
  5
1064
  8
LOGO
 62
     1
 10
130.0
 20
27.026993337569689
 30
0.0
 11
130.0
 21
137.0
 31
0.0
  0
TEXT
  5
1065
  8
LOGO
 62
     6
 10
219.71473509287341
 20
120.50946105804989
 30
0.0
 40
10.99730066624303
  1
比例 Scale:
 41
0.9
  7
CHINESET
 72
     4
 11
254.636074217421
 21
126.00269933375689
 31
0.0
  0
TEXT
  5
1066
  8
LOGO
 62
     6
 10
223.55888081683241
 20
98.664142309246884
 30
0.0
 40
10.99730066624303
  1
投影 View:
 41
0.9
  7
CHINESET
 72
     4
 11
254.636074217421
 21
104.0080980012708
 31
0.0
  0
TEXT
  5
1067
  8
LOGO
 62
     6
 10
224.63406333732681
 20
76.514846335663336
 30
0.0
 40
10.99730066624303
  1
單位 Unit:
 41
0.9
  7
CHINESET
 72
     4
 11
254.636074217421
 21
82.013496668784853
 31
0.0
  0
POLYLINE
  5
1068
  8
LOGO
 62
     5
 66
     1
 10
0.0
 20
0.0
 30
0.0
 70
     1
 40
1.6422635661589591
 41
1.6422635661589591
  0
VERTEX
  5
1516
  8
LOGO
 62
     5
 10
186.22144581518259
 20
77.000373434286075
 30
0.0
 42
1.0
  0
VERTEX
  5
1517
  8
LOGO
 62
     5
 10
192.79050007981829
 20
77.000373434286075
 30
0.0
 42
1.0
  0
SEQEND
  5
1518
  8
LOGO
 62
     5
  0
LINE
  5
1069
  8
LOGO
 62
     5
 10
202.07640587924519
 20
72.901283573154757
 30
0.0
 11
202.07640587924519
 21
77.820191406512663
 31
0.0
  0
SOLID
  5
106A
  8
LOGO
 62
     5
 10
191.96526290058941
 20
81.099463295419056
 30
0.0
 11
193.60489884504111
 21
81.099463295419056
 31
0.0
 12
191.96526290058941
 22
72.901283573154757
 32
0.0
 13
193.60489884504111
 23
72.901283573154757
 33
0.0
  0
SOLID
  5
106B
  8
LOGO
 62
     5
 10
195.5178621014326
 20
72.901283573154757
 30
0.0
 11
197.15749804588719
 21
72.901283573154757
 31
0.0
 12
195.5178621014326
 22
81.099463295419056
 32
0.0
 13
197.15749804588719
 23
81.099463295419056
 33
0.0
  0
SOLID
  5
106C
  8
LOGO
 62
     5
 10
200.4367699347938
 20
77.820191406512663
 30
0.0
 11
202.07640587924519
 21
77.82019140651245
 31
0.0
 12
200.4367699347938
 22
72.901283573154757
 32
0.0
 13
202.07640587924519
 23
72.901283573154757
 33
0.0
  0
SOLID
  5
106D
  8
LOGO
 62
     5
 10
168.46370505436369
 20
83.558917212099544
 30
0.0
 11
170.10334099881521
 21
83.558917212099544
 31
0.0
 12
168.46370505436369
 22
72.901283573154757
 32
0.0
 13
170.10334099881521
 23
72.901283573154757
 33
0.0
  0
SOLID
  5
106E
  8
LOGO
 62
     5
 10
172.01630425521151
 20
81.099463295419056
 30
0.0
 11
173.65594019966321
 21
81.099463295419056
 31
0.0
 12
172.01630425521151
 22
72.901283573154757
 32
0.0
 13
173.65594019966321
 23
72.901283573154757
 33
0.0
  0
SOLID
  5
106F
  8
LOGO
 62
     5
 10
176.9352120885695
 20
77.820191406512663
 30
0.0
 11
178.5748480330212
 21
77.820191406512663
 31
0.0
 12
176.9352120885695
 22
72.901283573154757
 32
0.0
 13
178.5748480330212
 23
72.901283573154757
 33
0.0
  0
SOLID
  5
1070
  8
LOGO
 62
     5
 10
181.85411992192769
 20
77.820191406512663
 30
0.0
 11
183.49375586637919
 21
77.820191406512663
 31
0.0
 12
181.85411992192769
 22
72.901283573151645
 32
0.0
 13
183.49375586637919
 23
72.901283573151645
 33
0.0
  0
LINE
  5
1071
  8
LOGO
 62
     1
 10
210.64687155244891
 20
71.01619600254179
 30
0.0
 11
210.64687155244891
 21
137.0
 31
0.0
  0
SOLID
  5
1072
  8
LOGO
 62
     5
 10
153.43365424234551
 20
81.099463295419056
 30
0.0
 11
155.0732901867969
 21
81.099463295419056
 31
0.0
 12
153.43365424234551
 22
72.901283573154757
 32
0.0
 13
155.0732901867969
 23
72.901283573154757
 33
0.0
  0
SOLID
  5
1073
  8
LOGO
 62
     5
 10
158.3525620757031
 20
77.820191406512663
 30
0.0
 11
159.9921980201577
 21
77.820191406512663
 31
0.0
 12
158.3525620757031
 22
72.901283573154757
 32
0.0
 13
159.9921980201577
 23
72.901283573154757
 33
0.0
  0
SOLID
  5
1074
  8
LOGO
 62
     5
 10
149.88105504149721
 20
81.099463295419056
 30
0.0
 11
151.52069098595359
 21
81.099463295419056
 31
0.0
 12
149.88105504149721
 22
72.901283573151645
 32
0.0
 13
151.52069098595359
 23
72.901283573154757
 33
0.0
  0
POLYLINE
  5
1075
  8
LOGO
 62
     5
 66
     1
 10
0.0
 20
0.0
 30
0.0
 70
     1
 40
1.6422635661589591
 41
1.6422635661589591
  0
VERTEX
  5
1519
  8
LOGO
 62
     5
 10
162.7198879689584
 20
77.000373434286075
 30
0.0
 42
1.0
  0
VERTEX
  5
151A
  8
LOGO
 62
     5
 10
169.2889422335943
 20
77.000373434286075
 30
0.0
 42
1.0
  0
SEQEND
  5
151B
  8
LOGO
 62
     5
  0
POLYLINE
  5
1076
  8
LOGO
 62
     5
 66
     1
 10
0.0
 20
0.0
 30
0.0
 40
1.6422635661589591
 41
1.6422635661589591
  0
VERTEX
  5
151C
  8
LOGO
 62
     5
 10
201.26052933957911
 20
77.820191406512691
 30
0.0
 42
1.0
  0
VERTEX
  5
151D
  8
LOGO
 62
     5
 10
196.333738641102
 20
77.820191406512691
 30
0.0
 42
1.0
  0
SEQEND
  5
151E
  8
LOGO
 62
     5
  0
SOLID
  5
1077
  8
LOGO
 62
     5
 10
197.3214616403319
 20
89.297643017683285
 30
0.0
 11
202.07640587924519
 21
89.297643017683285
 31
0.0
 12
197.3214616403319
 22
134.38763149014301
 32
0.0
 13
202.07640587924519
 23
134.38763149014611
 33
0.0
  0
SOLID
  5
1078
  8
LOGO
 62
     5
 10
172.72692247353589
 20
134.38763149014301
 30
0.0
 11
177.48186671244909
 21
134.38763149014611
 31
0.0
 12
172.72692247353589
 22
92.904842095480291
 32
0.0
 13
177.48186671244909
 23
110.3396376381658
 33
0.0
  0
SOLID
  5
1079
  8
LOGO
 62
     5
 10
172.72692247353589
 20
92.904842095480291
 30
0.0
 11
177.48186671244909
 21
110.3396376381658
 31
0.0
 12
195.3538985069867
 22
134.38763149014611
 32
0.0
 13
190.5989542680729
 23
134.38763149014611
 33
0.0
  0
SOLID
  5
107A
  8
LOGO
 62
     5
 10
195.3538985069867
 20
130.78043241234761
 30
0.0
 11
190.5989542680729
 21
113.345636869662
 31
0.0
 12
195.3538985069867
 22
89.297643017683285
 32
0.0
 13
190.5989542680729
 23
89.297643017683285
 33
0.0
  0
SOLID
  5
107B
  8
LOGO
 62
     2
 10
195.3538985069867
 20
134.38763149014611
 30
0.0
 11
197.3214616403319
 21
134.38763149014301
 31
0.0
 12
195.3538985069867
 22
89.297643017683285
 32
0.0
 13
197.3214616403319
 23
89.297643017683285
 33
0.0
  0
SOLID
  5
107C
  8
LOGO
 62
     5
 10
166.0044151012774
 20
89.297643017684862
 30
0.0
 11
170.7593593401908
 21
89.297643017684862
 31
0.0
 12
166.0044151012774
 22
113.345636869662
 32
0.0
 13
170.7593593401908
 23
130.78043241234761
 33
0.0
  0
SOLID
  5
107D
  8
LOGO
 62
     2
 10
170.7593593401908
 20
134.38763149014301
 30
0.0
 11
172.72692247353589
 21
134.38763149014301
 31
0.0
 12
170.7593593401908
 22
89.297643017684862
 32
0.0
 13
172.72692247353589
 23
89.297643017684862
 33
0.0
  0
SOLID
  5
107E
  8
LOGO
 62
     5
 10
172.72692247353589
 20
89.297643017684862
 30
0.0
 11
177.48186671244909
 21
89.297643017684862
 31
0.0
 12
195.3538985069867
 22
130.78043241234761
 32
0.0
 13
190.5989542680729
 23
113.345636869662
 33
0.0
  0
SOLID
  5
107F
  8
LOGO
 62
     2
 10
170.7593593401908
 20
89.297643017684862
 30
0.0
 11
172.72692247353589
 21
89.297643017684862
 31
0.0
 12
195.3538985069867
 22
134.38763149014611
 32
0.0
 13
197.3214616403319
 23
134.38763149014301
 33
0.0
  0
POLYLINE
  5
1080
  8
LOGO
 62
     5
 66
     1
 10
0.0
 20
0.0
 30
0.0
 40
1.6422635661589591
 41
1.6422635661589591
  0
VERTEX
  5
151F
  8
LOGO
 62
     5
 10
177.75897149335489
 20
77.820191406512691
 30
0.0
 42
1.0
  0
VERTEX
  5
1520
  8
LOGO
 62
     5
 10
172.83218079487779
 20
77.820191406512691
 30
0.0
 42
1.0
  0
SEQEND
  5
1521
  8
LOGO
 62
     5
  0
POLYLINE
  5
1081
  8
LOGO
 62
     5
 66
     1
 10
0.0
 20
0.0
 30
0.0
 40
1.6422635661589591
 41
1.6422635661589591
  0
VERTEX
  5
1522
  8
LOGO
 62
     5
 10
159.17632148048881
 20
77.820191406512691
 30
0.0
 42
1.0
  0
VERTEX
  5
1523
  8
LOGO
 62
     5
 10
154.24953078201179
 20
77.820191406512691
 30
0.0
 42
1.0
  0
SEQEND
  5
1524
  8
LOGO
 62
     5
  0
SOLID
  5
1082
  8
LOGO
 62
     5
 10
149.88105504149721
 20
82.247208456535475
 30
0.0
 11
151.52069098595359
 21
82.247208456535475
 31
0.0
 12
149.88105504149721
 22
83.558917212099544
 32
0.0
 13
151.52069098595359
 23
83.558917212099544
 33
0.0
  0
POLYLINE
  5
1083
  8
LOGO
 62
     5
 66
     1
 10
0.0
 20
0.0
 30
0.0
 70
     1
  0
VERTEX
  5
1525
  8
LOGO
 62
     5
 10
187.04651903082151
 20
77.000373434286885
 30
0.0
 42
1.0000000573306349
  0
VERTEX
  5
1526
  8
LOGO
 62
     5
 10
191.96542686418161
 20
77.000373434286885
 30
0.0
 42
1.0000000573306349
  0
SEQEND
  5
1527
  8
LOGO
 62
     5
  0
CIRCLE
  5
1084
  8
LOGO
 62
     5
 10
189.50597294750139
 20
77.000373434286885
 30
0.0
 40
2.4594539166796578
  0
POLYLINE
  5
1085
  8
LOGO
 62
     5
 66
     1
 10
0.0
 20
0.0
 30
0.0
 40
1.6422635661589591
 41
1.6422635661589591
  0
VERTEX
  5
1528
  8
LOGO
 62
     5
 10
182.67787932671291
 20
77.820191406512691
 30
0.0
 42
1.0
  0
VERTEX
  5
1529
  8
LOGO
 62
     5
 10
177.75108862823581
 20
77.820191406512691
 30
0.0
 42
1.0
  0
SEQEND
  5
152A
  8
LOGO
 62
     5
  0
LINE
  5
1086
  8
LOGO
 62
     1
 10
298.62527688239311
 20
71.01619600254179
 30
0.0
 11
298.62527688239311
 21
137.0
 31
0.0
  0
CIRCLE
  5
1087
  8
LOGO
  6
CONTINUOUS
 62
     6
 10
318.98815458656571
 20
104.0316213078722
 30
0.0
 40
6.385291614099458
  0
CIRCLE
  5
1088
  8
LOGO
  6
CONTINUOUS
 62
     6
 10
318.98815458656571
 20
104.0316213078722
 30
0.0
 40
3.7412156279772142
  0
LINE
  5
1089
  8
LOGO
 62
     6
 10
339.09654533049991
 20
100.290405679895
 30
0.0
 11
339.09654533049962
 21
107.7728369358494
 31
0.0
  0
TEXT
  5
108A
  8
LOGO
  6
CONTINUOUS
 62
     6
 10
549.73677433311968
 20
40.773619170373458
 30
0.0
 40
9.1644172218691935
  1
Model
  7
CHINESET
 72
     4
 11
567.1928071366799
 21
45.355827781308037
 31
0.0
  0
TEXT
  5
108B
  8
LOGO
  6
CONTINUOUS
 62
     7
 10
533.58994398982634
 20
100.3423311125232
 30
0.0
 40
18.32883444373838
  1
MRTH
  7
CHINESET
 72
     1
 11
567.1928071366799
 21
109.5067483343924
 31
0.0
 73
     2
  0
LINE
  5
108C
  8
LOGO
 62
     6
 10
611.18200980165204
 20
126.00269933375689
 30
0.0
 11
523.20360447170776
 21
126.00269933375689
 31
0.0
  0
LINE
  5
108D
  8
LOGO
 62
     6
 10
611.18200980165204
 20
93.010797335027874
 30
0.0
 11
523.20360447170776
 21
93.010797335027874
 31
0.0
  0
LINE
  5
108E
  8
LOGO
 62
     6
 10
603.85047602415671
 20
76.514846335663336
 30
0.0
 11
530.53513824920333
 21
76.514846335663336
 31
0.0
  0
LINE
  5
108F
  8
LOGO
 62
     6
 10
603.85047602415671
 20
36.191410559438829
 30
0.0
 11
530.53513824920333
 21
36.191410559438751
 31
0.0
  0
TEXT
  5
1090
  8
LOGO
 62
     7
 10
380.94244282225691
 20
109.4652602223547
 30
0.0
 40
21.994601332486059
  1
訂購代號:
  7
CHINESET
  0
TEXT
  5
1091
  8
LOGO
 62
     7
 10
378.31176724425649
 20
88.822697131804631
 30
0.0
 40
14.663067554990709
  1
Order example:
 41
0.8
  7
CHINESET
  0
LINE
  5
1092
  8
LOGO
 62
     1
 10
371.9406146573466
 20
27.026993337569689
 30
0.0
 11
371.9406146573466
 21
137.0
 31
0.0
  0
LINE
  5
1093
  8
LOGO
 62
     6
 10
359.11406800747437
 20
97.646329693772742
 30
0.0
 11
359.11406800747437
 21
110.4169129219716
 31
0.0
  0
LINE
  5
1094
  8
LOGO
 62
     6
 10
530.53513824920333
 20
76.514846335663336
 30
0.0
 11
530.53513824920333
 21
36.191410559438751
 31
0.0
  0
LINE
  5
1095
  8
LOGO
 62
     6
 10
523.20360447170776
 20
126.00269933375689
 30
0.0
 11
523.20360447170776
 21
93.010797335027874
 31
0.0
  0
TEXT
  5
1096
  8
LOGO
  6
CONTINUOUS
 62
     7
 10
653.94042562156176
 20
100.1344809749806
 30
0.0
 40
18.32883444373838
  1
40
  7
CHINESET
 72
     1
 11
668.77805350458823
 21
109.29889819684981
 31
0.0
 73
     2
  0
LINE
  5
1097
  8
LOGO
 62
     6
 10
696.49504603345349
 20
36.191410559439049
 30
0.0
 11
637.63967760199125
 21
36.191410559438992
 31
0.0
  0
LINE
  5
1098
  8
LOGO
 62
     6
 10
696.49504603345349
 20
93.010797335028073
 30
0.0
 11
637.63967760199125
 21
93.010797335028073
 31
0.0
  0
LINE
  5
1099
  8
LOGO
 62
     6
 10
696.49504603345349
 20
76.51484633566352
 30
0.0
 11
637.63967760199125
 21
76.51484633566352
 31
0.0
  0
LINE
  5
109A
  8
LOGO
 62
     6
 10
696.49504603345349
 20
126.00269933375741
 30
0.0
 11
637.63967760199125
 21
126.00269933375711
 31
0.0
  0
LINE
  5
109B
  8
LOGO
 62
     6
 10
637.63967760199125
 20
76.51484633566352
 30
0.0
 11
637.63967760199125
 21
36.191410559439049
 31
0.0
  0
LINE
  5
109C
  8
LOGO
 62
     6
 10
603.85047602415682
 20
76.514846335663336
 30
0.0
 11
603.85047602415682
 21
36.191410559438857
 31
0.0
  0
TEXT
  5
109D
  8
LOGO
 62
     6
 10
552.52973958168934
 20
56.728364428289062
 30
0.0
 40
14.663067554990709
  1
型式
  7
CHINESET
 72
     4
 11
567.1928071366799
 21
63.684662225046473
 31
0.0
  0
LINE
  5
109E
  8
LOGO
 62
     6
 10
567.1928071366799
 20
93.010797335027874
 30
0.0
 11
567.1928071366799
 21
76.514846335663336
 31
0.0
  0
LINE
  5
109F
  8
LOGO
 62
     6
 10
637.63967760199125
 20
126.00269933375711
 30
0.0
 11
637.63967760199125
 21
93.010797335028073
 31
0.0
  0
LINE
  5
10A0
  8
LOGO
 62
     6
 10
611.18200980165204
 20
126.00269933375689
 30
0.0
 11
611.18200980165204
 21
93.010797335027874
 31
0.0
  0
LINE
  5
10A1
  8
LOGO
  6
CONTINUOUS
 62
     7
 10
617.36621759272293
 20
109.38988580356011
 30
0.0
 11
631.93423769434935
 21
109.38988580356011
 31
0.0
  0
LINE
  5
10A2
  8
LOGO
 62
     6
 10
715.12098116099492
 20
76.514846335663336
 30
0.0
 11
715.12098116099492
 21
36.191410559438751
 31
0.0
  0
LINE
  5
10A3
  8
LOGO
 62
     6
 10
696.49504603345349
 20
76.51484633566352
 30
0.0
 11
696.49504603345349
 21
36.19141055943917
 31
0.0
  0
TEXT
  5
10A4
  8
LOGO
  6
CONTINUOUS
 62
     6
 10
655.72094049540817
 20
40.773619170373557
 30
0.0
 40
9.1644172218691935
  1
Bore
 41
0.8
  7
CHINESET
 72
     4
 11
667.06736181772237
 21
45.355827781308157
 31
0.0
  0
TEXT
  5
10A5
  8
LOGO
 62
     6
 10
653.04580346826265
 20
56.353128447551192
 30
0.0
 40
14.663067554990709
  1
內徑
 41
0.9
  7
CHINESET
 72
     4
 11
667.06736181772237
 21
63.684662225046551
 31
0.0
  0
LINE
  5
10A6
  8
LOGO
  6
CONTINUOUS
 62
     7
 10
702.17905492922193
 20
109.3898858035603
 30
0.0
 11
716.74707503084869
 21
109.3898858035603
 31
0.0
  0
LINE
  5
10A7
  8
LOGO
 62
     6
 10
696.49504603345349
 20
126.00269933375741
 30
0.0
 11
696.49504603345349
 21
93.010797335028073
 31
0.0
  0
LINE
  5
10A8
  8
LOGO
 62
     6
 10
667.06736097245346
 20
93.010797335028073
 30
0.0
 11
667.06736097245346
 21
76.51484633566352
 31
0.0
  0
LINE
  5
10A9
  8
LOGO
 62
     6
 10
722.45251493849048
 20
126.00269933375689
 30
0.0
 11
722.45251493849025
 21
93.010797335027874
 31
0.0
  0
LINE
  5
10AA
  8
LOGO
 62
     6
 10
753.76182993528414
 20
93.010797335027874
 30
0.0
 11
753.76182993528414
 21
76.514846335663336
 31
0.0
  0
LINE
  5
10B0
  8
LOGO
 62
     6
 10
790.84992642476072
 20
76.514846335663336
 30
0.0
 11
790.84992642476072
 21
36.039364468977958
 31
0.0
  0
LINE
  5
10B1
  8
LOGO
 62
     6
 10
783.51839264726527
 20
126.00269933375689
 30
0.0
 11
783.51839264726527
 21
93.010797335027831
 31
0.0
  0
LINE
  5
10BA
  8
LOGO
 62
     1
 10
809.99999999999989
 20
27.026993337569689
 30
0.0
 11
809.99999999999989
 21
137.0
 31
0.0
  0
ENDSEC
  0
EOF
