  0
SECTION
  2
HEADER
  9
$ACADVER
  1
AC1009
  9
$INSBASE
 10
0.0
 20
0.0
 30
0.0
  9
$EXTMIN
 10
276.95105289312909
 20
-25.275876979897468
 30
-0.0015258207003583
  9
$EXTMAX
 10
1107.0065944686139
 20
665.00427421299298
 30
0.0000000349246037
  9
$LIMMIN
 10
0.0
 20
0.0
  9
$LIMMAX
 10
1188.0
 20
840.0
  9
$ORTHOMODE
 70
     0
  9
$REGENMODE
 70
     1
  9
$FILLMODE
 70
     1
  9
$QTEXTMODE
 70
     0
  9
$MIRRTEXT
 70
     1
  9
$DRAGMODE
 70
     2
  9
$LTSCALE
 40
1.0
  9
$OSMODE
 70
    39
  9
$ATTMODE
 70
     1
  9
$TEXTSIZE
 40
3.0
  9
$TRACEWID
 40
0.05
  9
$TEXTSTYLE
  7
ITALICT
  9
$CLAYER
  8
0
  9
$CELTYPE
  6
CONTINUOUS
  9
$CECOLOR
 62
   256
  9
$DIMSCALE
 40
1.0
  9
$DIMASZ
 40
3.0
  9
$DIMEXO
 40
1.0
  9
$DIMDLI
 40
1.4824161510814720E+016
  9
$DIMRND
 40
0.0
  9
$DIMDLE
 40
0.0
  9
$DIMEXE
 40
1.0
  9
$DIMTP
 40
0.15
  9
$DIMTM
 40
-0.1
  9
$DIMTXT
 40
3.0
  9
$DIMCEN
 40
2.0
  9
$DIMTSZ
 40
0.0
  9
$DIMTOL
 70
     0
  9
$DIMLIM
 70
     0
  9
$DIMTIH
 70
     0
  9
$DIMTOH
 70
     0
  9
$DIMSE1
 70
     0
  9
$DIMSE2
 70
     0
  9
$DIMTAD
 70
     1
  9
$DIMZIN
 70
     0
  9
$DIMBLK
  1

  9
$DIMASO
 70
     0
  9
$DIMSHO
 70
     0
  9
$DIMPOST
  1

  9
$DIMAPOST
  1

  9
$DIMALT
 70
     0
  9
$DIMALTD
 70
     2
  9
$DIMALTF
 40
25.399999999999999
  9
$DIMLFAC
 40
1.0
  9
$DIMTOFL
 70
     1
  9
$DIMTVP
 40
1.0
  9
$DIMTIX
 70
     0
  9
$DIMSOXD
 70
     0
  9
$DIMSAH
 70
     0
  9
$DIMBLK1
  1

  9
$DIMBLK2
  1

  9
$DIMSTYLE
  2
STANDARD
  9
$DIMCLRD
 70
     0
  9
$DIMCLRE
 70
     0
  9
$DIMCLRT
 70
     0
  9
$DIMTFAC
 40
1.0
  9
$DIMGAP
 40
0.09
  9
$LUNITS
 70
     2
  9
$LUPREC
 70
     2
  9
$SKETCHINC
 40
0.1
  9
$FILLETRAD
 40
0.75
  9
$AUNITS
 70
     0
  9
$AUPREC
 70
     2
  9
$MENU
  1
ACAD
  9
$ELEVATION
 40
0.0
  9
$PELEVATION
 40
0.0
  9
$THICKNESS
 40
0.0
  9
$LIMCHECK
 70
     0
  9
$BLIPMODE
 70
     0
  9
$CHAMFERA
 40
1.0
  9
$CHAMFERB
 40
1.0
  9
$SKPOLY
 70
     1
  9
$TDCREATE
 40
2450580.7034460641
  9
$TDUPDATE
 40
2451939.3835438308
  9
$TDINDWG
 40
0.0988464468
  9
$TDUSRTIMER
 40
0.0988464468
  9
$USRTIMER
 70
     1
  9
$ANGBASE
 50
0.0
  9
$ANGDIR
 70
     0
  9
$PDMODE
 70
     0
  9
$PDSIZE
 40
0.0
  9
$PLINEWID
 40
0.0
  9
$COORDS
 70
     2
  9
$SPLFRAME
 70
     0
  9
$SPLINETYPE
 70
     6
  9
$SPLINESEGS
 70
     8
  9
$ATTDIA
 70
     0
  9
$ATTREQ
 70
     1
  9
$HANDLING
 70
 12289
  9
$HANDSEED
  5
18B3
  9
$SURFTAB1
 70
     6
  9
$SURFTAB2
 70
     6
  9
$SURFTYPE
 70
     6
  9
$SURFU
 70
     6
  9
$SURFV
 70
     6
  9
$UCSNAME
  2

  9
$UCSORG
 10
0.0
 20
0.0
 30
0.0
  9
$UCSXDIR
 10
1.0
 20
0.0
 30
0.0
  9
$UCSYDIR
 10
0.0
 20
1.0
 30
0.0
  9
$PUCSNAME
  2

  9
$PUCSORG
 10
0.0
 20
0.0
 30
0.0
  9
$PUCSXDIR
 10
1.0
 20
0.0
 30
0.0
  9
$PUCSYDIR
 10
0.0
 20
1.0
 30
0.0
  9
$USERI1
 70
     0
  9
$USERI2
 70
-31485
  9
$USERI3
 70
     0
  9
$USERI4
 70
     0
  9
$USERI5
 70
     0
  9
$USERR1
 40
0.0
  9
$USERR2
 40
0.0
  9
$USERR3
 40
0.0
  9
$USERR4
 40
0.0
  9
$USERR5
 40
0.0
  9
$WORLDVIEW
 70
     1
  9
$SHADEDGE
 70
     3
  9
$SHADEDIF
 70
    70
  9
$TILEMODE
 70
     1
  9
$MAXACTVP
 70
    64
  9
$PLIMCHECK
 70
     0
  9
$PEXTMIN
 10
1.0000000000000000E+020
 20
1.0000000000000000E+020
 30
1.0000000000000000E+020
  9
$PEXTMAX
 10
-1.0000000000000000E+020
 20
-1.0000000000000000E+020
 30
-1.0000000000000000E+020
  9
$PLIMMIN
 10
0.0
 20
0.0
  9
$PLIMMAX
 10
12.0
 20
9.0
  9
$UNITMODE
 70
     0
  9
$VISRETAIN
 70
     1
  9
$PLINEGEN
 70
     0
  9
$PSLTSCALE
 70
     0
  0
ENDSEC
  0
SECTION
  2
TABLES
  0
TABLE
  2
VPORT
 70
     3
  0
VPORT
  2
*ACTIVE
 70
     0
 10
0.0
 20
0.0
 11
1.0
 21
1.0
 12
691.97882368087176
 22
319.86419861654781
 13
0.0
 23
0.0
 14
1.0
 24
1.0
 15
0.0
 25
0.0
 16
0.0
 26
0.0
 36
1.0
 17
0.0
 27
0.0
 37
0.0
 40
697.89353521340036
 41
1.7274401473296499
 42
1.0
 43
0.0
 44
0.0
 50
0.0
 51
0.0
 71
     0
 72
   100
 73
     1
 74
     1
 75
     0
 76
     0
 77
     0
 78
     0
  0
ENDTAB
  0
TABLE
  2
LTYPE
 70
     3
  0
LTYPE
  2
CONTINUOUS
 70
     0
  3
Solid line
 72
    65
 73
     0
 40
0.0
  0
LTYPE
  2
CENTER
 70
     0
  3
_______________ _ _______________ _ ___________
 72
    65
 73
     4
 40
18.0
 49
15.0
 49
-1.0
 49
1.0
 49
-1.0
  0
LTYPE
  2
HIDDEN
 70
     0
  3
___ ___ ___ ___ ___ ___ ___ ___ ___ ___ 
 72
    65
 73
     2
 40
4.0
 49
3.0
 49
-1.0
  0
ENDTAB
  0
TABLE
  2
LAYER
 70
     5
  0
LAYER
  2
0
 70
     0
 62
     7
  6
CONTINUOUS
  0
LAYER
  2
CENTER
 70
     0
 62
     1
  6
CENTER
  0
LAYER
  2
HIDDEN
 70
     0
 62
     7
  6
HIDDEN
  0
LAYER
  2
DIM
 70
     0
 62
     5
  6
CONTINUOUS
  0
LAYER
  2
LOGO
 70
     0
 62
     7
  6
CONTINUOUS
  0
ENDTAB
  0
TABLE
  2
STYLE
 70
     8
  0
STYLE
  2
STANDARD
 70
     0
 40
0.0
 41
1.0
 50
0.0
 71
     0
 42
3.0
  3
txt
  4

  0
STYLE
  2
ITALICT
 70
     0
 40
0.0
 41
1.0
 50
0.0
 71
     0
 42
3.0
  3
ITALICT.SHX
  4

  0
STYLE
  2
ROMANSS
 70
     0
 40
0.0
 41
1.0
 50
0.0
 71
     0
 42
3.0
  3
ROMANSS.SHX
  4
LMP
  0
STYLE
  2
CHINESET
 70
     0
 40
0.0
 41
1.0
 50
0.0
 71
     0
 42
4.0
  3
C:\r13\com\fonts\simplex.shx
  4
C:\r13\com\fonts\chineset.shx
  0
STYLE
  2
LOGO
 70
     0
 40
0.0
 41
1.0
 50
0.0
 71
     0
 42
5.0
  3
txt
  4

  0
ENDTAB
  0
TABLE
  2
VIEW
 70
     0
  0
ENDTAB
  0
TABLE
  2
UCS
 70
     0
  0
ENDTAB
  0
TABLE
  2
APPID
 70
     2
  0
APPID
  2
ACAD
 70
     0
  0
APPID
  2
TCAD
 70
     0
  0
ENDTAB
  0
TABLE
  2
DIMSTYLE
 70
     1
  0
DIMSTYLE
  2
STANDARD
 70
     0
  3

  4

  5

  6

  7

 40
1.0
 41
0.18
 42
0.0625
 43
0.38
 44
0.18
 45
0.0
 46
0.0
 47
0.0
 48
0.0
140
0.18
141
0.09
142
0.0
143
25.399999999999999
144
1.0
145
0.0
146
1.0
147
0.09
 71
     0
 72
     0
 73
     1
 74
     1
 75
     0
 76
     0
 77
     0
 78
     0
170
     0
171
     2
172
     0
173
     0
174
     0
175
     0
176
     0
177
     0
178
     0
  0
ENDTAB
  0
ENDSEC
  0
SECTION
  2
BLOCKS
  0
BLOCK
  8
0
  2
$MODEL_SPACE
 70
     0
 10
0.0
 20
0.0
 30
0.0
  3
$MODEL_SPACE
  1

  0
ENDBLK
  5
3F
  8
0
  0
BLOCK
 67
     1
  8
0
  2
$PAPER_SPACE
 70
     0
 10
0.0
 20
0.0
 30
0.0
  3
$PAPER_SPACE
  1

  0
ENDBLK
  5
3D
 67
     1
  8
0
  0
ENDSEC
  0
SECTION
  2
ENTITIES
  0
LINE
  5
B29
  8
0
 62
     4
 10
277.0
 20
109.0
 30
0.0
 11
277.0
 21
665.00000000000023
 31
0.0
  0
LINE
  5
B2A
  8
0
 62
     4
 10
1107.0
 20
109.0
 30
0.0
 11
277.0
 21
109.0
 31
0.0
  0
LINE
  5
B2E
  8
0
 62
     4
 10
277.0
 20
665.00000000000023
 30
0.0
 11
1107.0
 21
664.99999999999977
 31
0.0
  0
LINE
  5
B2F
  8
0
 62
     4
 10
1107.0
 20
664.99999999999977
 30
0.0
 11
1107.0
 21
109.0
 31
0.0
  0
CIRCLE
  5
B32
  8
0
  6
CONTINUOUS
 10
671.46681611047666
 20
178.9217268199609
 30
0.0
 40
46.999999999999829
  0
CIRCLE
  5
B33
  8
0
  6
CONTINUOUS
 10
671.46681611047666
 20
574.98577588536068
 30
0.0
 40
46.999999999999829
  0
POLYLINE
  5
B34
  8
0
  6
CONTINUOUS
 66
     1
 10
0.0
 20
0.0
 30
0.0
  0
VERTEX
  5
17D7
  8
0
  6
CONTINUOUS
 10
696.46681611047666
 20
270.4217268199609
 30
0.0
 42
0.0851703918331015
  0
VERTEX
  5
17D8
  8
0
  6
CONTINUOUS
 10
690.46681611047666
 20
269.3897268199616
 30
0.0
 42
0.3910851735909245
  0
VERTEX
  5
17D9
  8
0
  6
CONTINUOUS
 10
686.49181611047618
 20
269.85879379455758
 30
0.0
  0
SEQEND
  5
17DA
  8
0
  6
CONTINUOUS
  0
LINE
  5
B39
  8
0
  6
CONTINUOUS
 10
705.46681611047666
 20
270.4217268199609
 30
0.0
 11
687.46681611047666
 21
270.4217268199609
 31
0.0
  0
LINE
  5
B3A
  8
0
  6
CONTINUOUS
 10
731.96681611047654
 20
608.98577588536068
 30
0.0
 11
731.96681611047654
 21
590.98577588536079
 31
0.0
  0
POLYLINE
  5
B3B
  8
0
  6
CONTINUOUS
 66
     1
 10
0.0
 20
0.0
 30
0.0
  0
VERTEX
  5
17DB
  8
0
  6
CONTINUOUS
 10
731.96681611047654
 20
599.98577588536068
 30
0.0
 42
-0.0851703918331015
  0
VERTEX
  5
17DC
  8
0
  6
CONTINUOUS
 10
730.9348161104773
 20
593.98577588536079
 30
0.0
 42
-0.3910851735909245
  0
VERTEX
  5
17DD
  8
0
  6
CONTINUOUS
 10
731.40388308507329
 20
590.01077588536043
 30
0.0
  0
SEQEND
  5
17DE
  8
0
  6
CONTINUOUS
  0
LINE
  5
B40
  8
CENTER
  6
CENTER
 10
1012.609501052531
 20
360.54650035383639
 30
0.0
 11
1043.609501052531
 21
360.54650035383639
 31
0.0
  0
CIRCLE
  5
B41
  8
0
  6
CONTINUOUS
 10
1028.109501052531
 20
360.54650035383639
 30
0.0
 40
9.5
  0
POLYLINE
  5
B42
  8
0
  6
CONTINUOUS
 66
     1
 10
0.0
 20
0.0
 30
0.0
 70
     1
  0
VERTEX
  5
17DF
  8
0
  6
CONTINUOUS
 10
1022.62467349523
 20
370.04650035383639
 30
0.0
  0
VERTEX
  5
17E0
  8
0
  6
CONTINUOUS
 10
1017.139845937928
 20
360.54650035383639
 30
0.0
  0
VERTEX
  5
17E1
  8
0
  6
CONTINUOUS
 10
1022.62467349523
 20
351.04650035383639
 30
0.0
  0
VERTEX
  5
17E2
  8
0
  6
CONTINUOUS
 10
1033.5943286098329
 20
351.04650035383639
 30
0.0
  0
VERTEX
  5
17E3
  8
0
  6
CONTINUOUS
 10
1039.079156167134
 20
360.54650035383639
 30
0.0
  0
VERTEX
  5
17E4
  8
0
  6
CONTINUOUS
 10
1033.5943286098329
 20
370.04650035383639
 30
0.0
  0
SEQEND
  5
17E5
  8
0
  6
CONTINUOUS
  0
LINE
  5
B4A
  8
DIM
  6
CONTINUOUS
 10
485.9495026466584
 20
300.04650035383651
 30
0.0
 11
858.9740750702066
 21
300.04650035383651
 31
0.0
  0
LINE
  5
B4B
  8
DIM
  6
CONTINUOUS
 10
618.96681611047666
 20
308.04650035383651
 30
0.0
 11
723.96681611047666
 21
308.04650035383651
 31
0.0
  0
LINE
  5
B4C
  8
DIM
  6
CONTINUOUS
 10
623.46681611047666
 20
316.04650035383651
 30
0.0
 11
719.46681611047666
 21
316.04650035383651
 31
0.0
  0
LINE
  5
B4D
  8
DIM
  6
CONTINUOUS
 10
633.46681611047666
 20
634.48577588536068
 30
0.0
 11
709.46681611047666
 21
634.48577588536068
 31
0.0
  0
CIRCLE
  5
B4E
  8
CENTER
  6
CENTER
 10
671.46681611047666
 20
178.9217268199609
 30
0.0
 40
39.0
  0
LINE
  5
B4F
  8
CENTER
  6
CENTER
 10
490.96681611047671
 20
214.92172681996081
 30
0.0
 11
851.96681611047666
 21
214.92172681996081
 31
0.0
  0
LINE
  5
B50
  8
CENTER
  6
CENTER
 10
496.96681611047683
 20
178.9217268199609
 30
0.0
 11
845.96681611047688
 21
178.9217268199609
 31
0.0
  0
LINE
  5
B51
  8
0
 10
618.96681611047666
 20
127.4217268199608
 30
0.0
 11
723.96681611047666
 21
127.4217268199609
 31
0.0
  0
LINE
  5
B52
  8
0
 10
618.96681611047666
 20
262.42172681996078
 30
0.0
 11
723.96681611047666
 21
262.42172681996078
 31
0.0
  0
CIRCLE
  5
B53
  8
0
  6
CONTINUOUS
 10
671.46681611047666
 20
178.9217268199609
 30
0.0
 40
47.999999999999822
  0
CIRCLE
  5
B54
  8
CENTER
  6
CENTER
 10
671.46681611047666
 20
574.98577588536068
 30
0.0
 40
39.0
  0
CIRCLE
  5
B55
  8
0
  6
CONTINUOUS
 10
671.46681611047666
 20
574.98577588536068
 30
0.0
 40
47.999999999999822
  0
LINE
  5
B56
  8
0
 10
618.96681611047666
 20
491.48577588536068
 30
0.0
 11
723.96681611047666
 21
491.48577588536068
 31
0.0
  0
LINE
  5
B57
  8
0
 10
618.96681611047666
 20
626.48577588536079
 30
0.0
 11
723.96681611047666
 21
626.48577588536057
 31
0.0
  0
LINE
  5
B58
  8
0
 10
624.46681611047666
 20
324.04650035383651
 30
0.0
 11
718.46681611047666
 21
324.04650035383639
 31
0.0
  0
LINE
  5
B59
  8
0
 10
624.46681611047666
 20
443.04650035383651
 30
0.0
 11
718.46681611047666
 21
443.04650035383651
 31
0.0
  0
LINE
  5
B5A
  8
0
 10
618.96681611047666
 20
336.04650035383639
 30
0.0
 11
723.96681611047666
 21
336.04650035383639
 31
0.0
  0
LINE
  5
B5B
  8
0
 10
618.96681611047666
 20
431.04650035383639
 30
0.0
 11
723.96681611047666
 21
431.04650035383639
 31
0.0
  0
LINE
  5
B5C
  8
CENTER
  6
CENTER
 10
490.9668161104766
 20
383.54650035383639
 30
0.0
 11
851.96681611047666
 21
383.54650035383639
 31
0.0
  0
LINE
  5
B5D
  8
CENTER
  6
CENTER
 10
490.96681611047671
 20
538.98577588536068
 30
0.0
 11
851.96681611047666
 21
538.98577588536068
 31
0.0
  0
LINE
  5
B5E
  8
CENTER
  6
CENTER
 10
496.96681611047683
 20
574.98577588536068
 30
0.0
 11
845.96681611047688
 21
574.98577588536068
 31
0.0
  0
LINE
  5
B5F
  8
0
 10
537.96681611047666
 20
336.04650035383639
 30
0.0
 11
537.96681611047666
 21
431.04650035383639
 31
0.0
  0
LINE
  5
B60
  8
0
 10
499.9668161104766
 20
336.29650035383639
 30
0.0
 11
499.9668161104766
 21
430.79650035383639
 31
0.0
  0
LINE
  5
B61
  8
0
 10
618.96681611047666
 20
431.04650035383639
 30
0.0
 11
618.96681611047666
 21
336.04650035383639
 31
0.0
  0
LINE
  5
B62
  8
CENTER
  6
CENTER
 10
671.46681611047666
 20
449.63240435657661
 30
0.0
 11
671.46681611047666
 21
321.04650035383639
 31
0.0
  0
LINE
  5
B63
  8
CENTER
  6
CENTER
 10
630.46681611047666
 20
209.9217268199609
 30
0.0
 11
630.46681611047666
 21
229.92172681996081
 31
0.0
  0
LINE
  5
B64
  8
CENTER
  6
CENTER
 10
671.46681611047666
 20
124.4217268199608
 30
0.0
 11
671.46681611047666
 21
265.42172681996078
 31
0.0
  0
LINE
  5
B65
  8
0
 10
537.96681611047666
 20
167.4217268199609
 30
0.0
 11
537.96681611047666
 21
262.42172681996072
 31
0.0
  0
LINE
  5
B66
  8
0
 10
499.96681611047671
 20
167.6717268199609
 30
0.0
 11
499.96681611047671
 21
262.17172681996072
 31
0.0
  0
LINE
  5
B67
  8
0
 10
493.96681611047671
 20
193.4217268199609
 30
0.0
 11
493.96681611047671
 21
236.4217268199607
 31
0.0
  0
LINE
  5
B68
  8
0
 10
618.96681611047666
 20
127.4217268199608
 30
0.0
 11
618.96681611047666
 21
262.42172681996078
 31
0.0
  0
CIRCLE
  5
B69
  8
0
  6
CONTINUOUS
 10
630.46681611047666
 20
219.9217268199609
 30
0.0
 40
4.25
  0
ARC
  5
B6A
  8
0
  6
CONTINUOUS
 62
     2
 10
630.46681611047666
 20
219.9217268199609
 30
0.0
 40
5.0
 50
244.7996045918774
 51
198.7093473556057
  0
LINE
  5
B6B
  8
0
 62
     7
 10
618.96681611047666
 20
190.28550530458011
 30
0.0
 11
537.96681611047666
 21
190.2855053045802
 31
0.0
  0
LINE
  5
B6C
  8
0
 10
618.96681611047666
 20
171.4217268199609
 30
0.0
 11
537.96681611047666
 21
171.4217268199609
 31
0.0
  0
LINE
  5
B6D
  8
0
 10
537.96681611047666
 20
167.4217268199609
 30
0.0
 11
499.96681611047671
 21
167.6717268199609
 31
0.0
  0
LINE
  5
B6E
  8
HIDDEN
  6
HIDDEN
 10
505.96681611047683
 20
173.9217268199609
 30
0.0
 11
505.96681611047683
 21
183.9217268199609
 31
0.0
  0
LINE
  5
B6F
  8
HIDDEN
  6
HIDDEN
 10
521.96681611047688
 20
173.9217268199609
 30
0.0
 11
521.96681611047688
 21
183.9217268199609
 31
0.0
  0
LINE
  5
B70
  8
HIDDEN
  6
HIDDEN
 10
499.96681611047688
 20
173.9217268199609
 30
0.0
 11
521.96681611047688
 21
173.9217268199609
 31
0.0
  0
LINE
  5
B71
  8
HIDDEN
  6
HIDDEN
 10
499.96681611047688
 20
183.9217268199609
 30
0.0
 11
521.96681611047688
 21
183.9217268199609
 31
0.0
  0
ARC
  5
B72
  8
0
 10
494.96681611047671
 20
193.4217268199609
 30
0.0
 40
1.0
 50
180.0
 51
270.0
  0
LINE
  5
B73
  8
0
 10
494.96681611047671
 20
192.4217268199609
 30
0.0
 11
499.96681611047671
 21
192.4217268199609
 31
0.0
  0
LINE
  5
B74
  8
HIDDEN
  6
HIDDEN
 10
505.96681611047683
 20
183.1717268199609
 30
0.0
 11
524.96681611047666
 21
183.1717268199609
 31
0.0
  0
LINE
  5
B75
  8
HIDDEN
  6
HIDDEN
 10
505.96681611047683
 20
174.6717268199609
 30
0.0
 11
524.96681611047666
 21
174.6717268199609
 31
0.0
  0
LINE
  5
B76
  8
HIDDEN
  6
HIDDEN
 10
524.96681611047666
 20
174.67172681996081
 30
0.0
 11
527.42055475453265
 21
178.9217268199609
 31
0.0
  0
LINE
  5
B77
  8
HIDDEN
  6
HIDDEN
 10
524.96681611047666
 20
183.1717268199609
 30
0.0
 11
527.42055475453265
 21
178.9217268199609
 31
0.0
  0
LINE
  5
B78
  8
HIDDEN
  6
HIDDEN
 10
524.96681611047666
 20
174.6717268199609
 30
0.0
 11
524.96681611047666
 21
183.1717268199609
 31
0.0
  0
LINE
  5
B79
  8
CENTER
  6
CENTER
 10
620.46681611047666
 20
137.92172681996081
 30
0.0
 11
640.46681611047666
 21
137.92172681996081
 31
0.0
  0
LINE
  5
B7A
  8
CENTER
  6
CENTER
 10
620.46681611047666
 20
219.9217268199609
 30
0.0
 11
640.46681611047666
 21
219.9217268199609
 31
0.0
  0
LINE
  5
B7B
  8
CENTER
  6
CENTER
 10
638.232797394709
 20
145.68770810419309
 30
0.0
 11
649.54650589369362
 21
157.00141660317789
 31
0.0
  0
ARC
  5
B7C
  8
0
  6
CONTINUOUS
 62
     2
 10
643.88965164420131
 20
151.34456235368549
 30
0.0
 40
4.0
 50
202.52441221510509
 51
149.49721034531461
  0
CIRCLE
  5
B7D
  8
0
  6
CONTINUOUS
 10
643.88965164420131
 20
151.34456235368549
 30
0.0
 40
3.399999999999999
  0
LINE
  5
B7E
  8
CENTER
  6
CENTER
 10
630.46681611047666
 20
127.9217268199608
 30
0.0
 11
630.46681611047666
 21
147.92172681996081
 31
0.0
  0
ARC
  5
B7F
  8
0
  6
CONTINUOUS
 62
     2
 10
630.46681611047666
 20
137.92172681996081
 30
0.0
 40
5.0
 50
244.79960459187899
 51
198.7093473556057
  0
CIRCLE
  5
B80
  8
0
  6
CONTINUOUS
 10
630.46681611047666
 20
137.92172681996081
 30
0.0
 40
4.25
  0
LINE
  5
B81
  8
0
 10
618.96681611047666
 20
258.42172681996078
 30
0.0
 11
537.96681611047666
 21
258.42172681996078
 31
0.0
  0
LINE
  5
B82
  8
0
 62
     7
 10
618.96681611047666
 20
239.55794833534151
 30
0.0
 11
537.96681611047666
 21
239.55794833534151
 31
0.0
  0
LINE
  5
B83
  8
CENTER
  6
CENTER
 10
496.96681611047683
 20
250.92172681996061
 30
0.0
 11
618.96681611047666
 21
250.9217268199607
 31
0.0
  0
LINE
  5
B84
  8
0
 10
618.96681611047666
 20
340.04650035383639
 30
0.0
 11
537.96681611047666
 21
340.04650035383639
 31
0.0
  0
LINE
  5
B85
  8
0
 62
     7
 10
618.96681611047666
 20
358.91027883845561
 30
0.0
 11
537.96681611047666
 21
358.91027883845572
 31
0.0
  0
LINE
  5
B86
  8
0
 62
     7
 10
618.96681611047666
 20
408.18272186921712
 30
0.0
 11
537.96681611047666
 21
408.18272186921712
 31
0.0
  0
LINE
  5
B87
  8
CENTER
  6
CENTER
 10
496.9668161104766
 20
419.54650035383639
 30
0.0
 11
618.96681611047666
 21
419.54650035383639
 31
0.0
  0
LINE
  5
B88
  8
CENTER
  6
CENTER
 10
496.9668161104766
 20
347.54650035383639
 30
0.0
 11
618.96681611047666
 21
347.54650035383639
 31
0.0
  0
LINE
  5
B89
  8
DIM
  6
CONTINUOUS
 10
493.96681611047671
 20
359.77010558902037
 30
0.0
 11
493.96681611047671
 21
299.04650035383651
 31
0.0
  0
LINE
  5
B8A
  8
DIM
  6
CONTINUOUS
 10
499.9668161104766
 20
335.29650035383639
 30
0.0
 11
499.9668161104766
 21
299.04650035383651
 31
0.0
  0
LINE
  5
B8B
  8
0
 10
537.96681611047666
 20
262.42172681996072
 30
0.0
 11
499.96681611047671
 21
262.17172681996072
 31
0.0
  0
LINE
  5
B8C
  8
CENTER
  6
CENTER
 10
530.96681611047666
 20
247.3655733663162
 30
0.0
 11
530.96681611047666
 21
267.53648280918702
 31
0.0
  0
LINE
  5
B8D
  8
CENTER
  6
CENTER
 10
518.96681611047666
 20
247.8950588248218
 30
0.0
 11
518.96681611047666
 21
266.93299277942288
 31
0.0
  0
LINE
  5
B8E
  8
HIDDEN
  6
HIDDEN
 10
499.96681611047688
 20
255.9217268199607
 30
0.0
 11
521.96681611047688
 21
255.9217268199609
 31
0.0
  0
LINE
  5
B8F
  8
HIDDEN
  6
HIDDEN
 10
499.96681611047688
 20
245.92172681996081
 30
0.0
 11
521.96681611047688
 21
245.92172681996081
 31
0.0
  0
ARC
  5
B90
  8
0
 10
494.96681611047671
 20
236.4217268199607
 30
0.0
 40
1.0
 50
90.0
 51
180.0
  0
LINE
  5
B91
  8
0
 10
494.96681611047671
 20
237.4217268199607
 30
0.0
 11
499.96681611047671
 21
237.4217268199607
 31
0.0
  0
LINE
  5
B92
  8
HIDDEN
  6
HIDDEN
 10
505.96681611047683
 20
255.1717268199607
 30
0.0
 11
524.96681611047666
 21
255.1717268199609
 31
0.0
  0
LINE
  5
B93
  8
HIDDEN
  6
HIDDEN
 10
505.96681611047683
 20
246.6717268199607
 30
0.0
 11
524.96681611047666
 21
246.6717268199607
 31
0.0
  0
LINE
  5
B94
  8
HIDDEN
  6
HIDDEN
 10
505.96681611047683
 20
255.9217268199607
 30
0.0
 11
505.96681611047683
 21
245.92172681996081
 31
0.0
  0
LINE
  5
B95
  8
HIDDEN
  6
HIDDEN
 10
521.96681611047688
 20
255.9217268199609
 30
0.0
 11
521.96681611047688
 21
245.92172681996081
 31
0.0
  0
LINE
  5
B96
  8
HIDDEN
  6
HIDDEN
 10
524.96681611047666
 20
255.17172681996101
 30
0.0
 11
527.42055475453265
 21
250.9217268199609
 31
0.0
  0
LINE
  5
B97
  8
HIDDEN
  6
HIDDEN
 10
524.96681611047666
 20
255.1717268199609
 30
0.0
 11
524.96681611047666
 21
246.6717268199607
 31
0.0
  0
LINE
  5
B98
  8
HIDDEN
  6
HIDDEN
 10
524.96681611047666
 20
246.6717268199607
 30
0.0
 11
527.42055475453265
 21
250.9217268199609
 31
0.0
  0
SOLID
  5
B99
  8
DIM
  6
CONTINUOUS
 10
502.9668161104766
 20
300.54650035383651
 30
0.0
 11
502.9668161104766
 21
299.54650035383651
 31
0.0
 12
499.9668161104766
 22
300.04650035383651
 32
0.0
 13
499.9668161104766
 23
300.04650035383651
 33
0.0
  0
SOLID
  5
B9A
  8
DIM
  6
CONTINUOUS
 10
490.9668161104766
 20
300.54650035383651
 30
0.0
 11
490.9668161104766
 21
299.54650035383651
 31
0.0
 12
493.96681611047671
 22
300.04650035383651
 32
0.0
 13
493.96681611047671
 23
300.04650035383651
 33
0.0
  0
TEXT
  5
B9B
  8
DIM
  6
CONTINUOUS
 10
487.33842320670198
 20
301.54650035383651
 30
0.0
 40
3.0
  1
6
  7
ROMANSS
 72
     1
 11
488.26699463527342
 21
303.04650035383651
 31
0.0
 73
     2
  0
LINE
  5
B9D
  8
0
 10
537.96681611047666
 20
336.04650035383639
 30
0.0
 11
499.9668161104766
 21
336.29650035383639
 31
0.0
  0
LINE
  5
B9E
  8
0
  6
CONTINUOUS
 10
535.52523809538013
 20
395.60095624471069
 30
0.0
 11
534.21681611047666
 21
394.84553845951308
 31
0.0
  0
LINE
  5
B9F
  8
0
  6
CONTINUOUS
 10
534.21681611047666
 20
392.24746224815971
 30
0.0
 11
535.52523809538013
 21
391.49204446296199
 31
0.0
  0
LINE
  5
BA0
  8
CENTER
  6
CENTER
 10
537.96681611047666
 20
393.54650035383639
 30
0.0
 11
523.96681611047666
 21
393.54650035383639
 31
0.0
  0
CIRCLE
  5
BA1
  8
0
 10
530.96681611047666
 20
393.54650035383639
 30
0.0
 40
5.0
  0
CIRCLE
  5
BA2
  8
0
 10
530.96681611047666
 20
393.54650035383639
 30
0.0
 40
5.2999999999999989
  0
CIRCLE
  5
BA3
  8
0
 10
518.96681611047666
 20
376.54650035383639
 30
0.0
 40
5.5
  0
CIRCLE
  5
BA4
  8
0
 10
518.96681611047666
 20
376.54650035383639
 30
0.0
 40
7.5
  0
ARC
  5
BA5
  8
0
 62
     2
 10
518.96681611047666
 20
376.54650035383639
 30
0.0
 40
8.3000000000000007
 50
77.189608741317514
 51
29.60968586855638
  0
LINE
  5
BA6
  8
0
 10
493.96681611047671
 20
362.04650035383639
 30
0.0
 11
493.96681611047671
 21
405.04650035383639
 31
0.0
  0
LINE
  5
BA7
  8
CENTER
  6
CENTER
 10
518.96681611047666
 20
362.04650035383639
 30
0.0
 11
518.96681611047666
 21
391.04650035383639
 31
0.0
  0
CIRCLE
  5
BA8
  8
0
 10
518.96681611047666
 20
376.54650035383639
 30
0.0
 40
11.5
  0
LINE
  5
BA9
  8
HIDDEN
  6
HIDDEN
 10
499.9668161104766
 20
342.54650035383639
 30
0.0
 11
521.96681611047666
 21
342.54650035383639
 31
0.0
  0
LINE
  5
BAA
  8
HIDDEN
  6
HIDDEN
 10
499.9668161104766
 20
352.54650035383639
 30
0.0
 11
521.96681611047666
 21
352.54650035383639
 31
0.0
  0
ARC
  5
BAB
  8
0
 10
494.9668161104766
 20
362.04650035383639
 30
0.0
 40
1.0
 50
180.0
 51
270.0
  0
LINE
  5
BAC
  8
0
 10
494.9668161104766
 20
361.04650035383639
 30
0.0
 11
499.9668161104766
 21
361.04650035383639
 31
0.0
  0
LINE
  5
BAD
  8
HIDDEN
  6
HIDDEN
 10
505.9668161104766
 20
351.79650035383639
 30
0.0
 11
524.96681611047666
 21
351.79650035383639
 31
0.0
  0
LINE
  5
BAE
  8
HIDDEN
  6
HIDDEN
 10
505.9668161104766
 20
343.29650035383639
 30
0.0
 11
524.96681611047666
 21
343.29650035383639
 31
0.0
  0
LINE
  5
BAF
  8
HIDDEN
  6
HIDDEN
 10
505.9668161104766
 20
342.54650035383639
 30
0.0
 11
505.9668161104766
 21
352.54650035383639
 31
0.0
  0
LINE
  5
BB0
  8
HIDDEN
  6
HIDDEN
 10
521.96681611047666
 20
342.54650035383639
 30
0.0
 11
521.96681611047666
 21
352.54650035383639
 31
0.0
  0
LINE
  5
BB1
  8
HIDDEN
  6
HIDDEN
 10
524.96681611047666
 20
343.29650035383628
 30
0.0
 11
527.42055475453253
 21
347.54650035383639
 31
0.0
  0
LINE
  5
BB2
  8
HIDDEN
  6
HIDDEN
 10
524.96681611047666
 20
343.29650035383639
 30
0.0
 11
524.96681611047666
 21
351.79650035383639
 31
0.0
  0
LINE
  5
BB3
  8
HIDDEN
  6
HIDDEN
 10
524.96681611047666
 20
351.79650035383639
 30
0.0
 11
527.42055475453265
 21
347.54650035383628
 31
0.0
  0
LINE
  5
BB4
  8
CENTER
  6
CENTER
 10
533.46681611047666
 20
376.54650035383639
 30
0.0
 11
504.4668161104766
 21
376.54650035383639
 31
0.0
  0
LINE
  5
BB5
  8
HIDDEN
  6
HIDDEN
 10
499.9668161104766
 20
424.54650035383639
 30
0.0
 11
521.96681611047666
 21
424.54650035383639
 31
0.0
  0
LINE
  5
BB6
  8
HIDDEN
  6
HIDDEN
 10
499.9668161104766
 20
414.54650035383639
 30
0.0
 11
521.96681611047666
 21
414.54650035383639
 31
0.0
  0
ARC
  5
BB7
  8
0
 10
494.9668161104766
 20
405.04650035383639
 30
0.0
 40
1.0
 50
90.0
 51
180.0
  0
LINE
  5
BB8
  8
0
 10
494.9668161104766
 20
406.04650035383639
 30
0.0
 11
499.9668161104766
 21
406.04650035383639
 31
0.0
  0
ARC
  5
BB9
  8
0
  6
CONTINUOUS
 10
530.96681611047666
 20
393.54650035383639
 30
0.0
 40
3.5
 50
218.21321070173829
 51
261.78678929826191
  0
ARC
  5
BBA
  8
0
  6
CONTINUOUS
 10
530.96681611047666
 20
393.54650035383639
 30
0.0
 40
3.5
 50
278.21321070173809
 51
321.78678929826162
  0
LINE
  5
BBB
  8
CENTER
  6
CENTER
 10
530.96681611047666
 20
386.54650035383639
 30
0.0
 11
530.96681611047666
 21
400.54650035383639
 31
0.0
  0
LINE
  5
BBC
  8
0
  6
CONTINUOUS
 10
530.46681611047666
 20
388.57156316830333
 30
0.0
 11
530.46681611047666
 21
390.0823987386986
 31
0.0
  0
LINE
  5
BBD
  8
0
  6
CONTINUOUS
 10
531.46681611047666
 20
388.57156316830333
 30
0.0
 11
531.46681611047666
 21
390.0823987386986
 31
0.0
  0
LINE
  5
BBE
  8
0
  6
CONTINUOUS
 10
526.40839412557295
 20
395.60095624471069
 30
0.0
 11
527.71681611047666
 21
394.84553845951308
 31
0.0
  0
LINE
  5
BBF
  8
0
  6
CONTINUOUS
 10
527.71681611047666
 20
392.24746224815971
 30
0.0
 11
526.40839412557295
 21
391.49204446296199
 31
0.0
  0
LINE
  5
BC0
  8
0
  6
CONTINUOUS
 10
526.90839412557295
 20
396.46698164849522
 30
0.0
 11
528.21681611047666
 21
395.7115638632975
 31
0.0
  0
LINE
  5
BC1
  8
0
  6
CONTINUOUS
 10
528.21681611047666
 20
391.38143684437529
 30
0.0
 11
526.90839412557295
 21
390.62601905917768
 31
0.0
  0
ARC
  5
BC2
  8
0
  6
CONTINUOUS
 10
530.96681611047666
 20
393.54650035383639
 30
0.0
 40
3.5
 50
158.2132107017394
 51
201.78678929826219
  0
LINE
  5
BC3
  8
0
  6
CONTINUOUS
 10
535.02523809538025
 20
396.46698164849522
 30
0.0
 11
533.71681611047666
 21
395.7115638632975
 31
0.0
  0
ARC
  5
BC4
  8
0
  6
CONTINUOUS
 10
530.96681611047666
 20
393.54650035383639
 30
0.0
 40
3.5
 50
338.21321070173769
 51
21.786789298262239
  0
LINE
  5
BC5
  8
0
  6
CONTINUOUS
 10
533.71681611047666
 20
391.38143684437529
 30
0.0
 11
535.02523809538025
 21
390.62601905917768
 31
0.0
  0
CIRCLE
  5
BC6
  8
0
  6
CONTINUOUS
 10
530.96681611047666
 20
393.54650035383639
 30
0.0
 40
2.5
  0
POLYLINE
  5
BC7
  8
0
  6
CONTINUOUS
 66
     1
 10
0.0
 20
0.0
 30
0.0
 70
     1
  0
VERTEX
  5
17E6
  8
0
  6
CONTINUOUS
 10
531.83284151426108
 20
392.04650035383639
 30
0.0
  0
VERTEX
  5
17E7
  8
0
  6
CONTINUOUS
 10
532.6988669180455
 20
393.54650035383639
 30
0.0
  0
VERTEX
  5
17E8
  8
0
  6
CONTINUOUS
 10
531.83284151426108
 20
395.04650035383639
 30
0.0
  0
VERTEX
  5
17E9
  8
0
  6
CONTINUOUS
 10
530.10079070669224
 20
395.04650035383639
 30
0.0
  0
VERTEX
  5
17EA
  8
0
  6
CONTINUOUS
 10
529.23476530290782
 20
393.54650035383639
 30
0.0
  0
VERTEX
  5
17EB
  8
0
  6
CONTINUOUS
 10
530.10079070669224
 20
392.04650035383639
 30
0.0
  0
SEQEND
  5
17EC
  8
0
  6
CONTINUOUS
  0
LINE
  5
BCF
  8
0
  6
CONTINUOUS
 10
530.46681611047666
 20
397.01060196897419
 30
0.0
 11
530.46681611047666
 21
398.52143753936951
 31
0.0
  0
LINE
  5
BD0
  8
0
  6
CONTINUOUS
 10
531.46681611047666
 20
397.01060196897419
 30
0.0
 11
531.46681611047666
 21
398.52143753936951
 31
0.0
  0
ARC
  5
BD1
  8
0
  6
CONTINUOUS
 10
530.96681611047666
 20
393.54650035383639
 30
0.0
 40
3.5
 50
38.213210701738312
 51
81.786789298261638
  0
ARC
  5
BD2
  8
0
  6
CONTINUOUS
 10
530.96681611047666
 20
393.54650035383639
 30
0.0
 40
3.5
 50
98.213210701738376
 51
141.7867892982616
  0
LINE
  5
BD3
  8
HIDDEN
  6
HIDDEN
 10
505.9668161104766
 20
423.79650035383639
 30
0.0
 11
524.96681611047666
 21
423.79650035383639
 31
0.0
  0
LINE
  5
BD4
  8
HIDDEN
  6
HIDDEN
 10
505.9668161104766
 20
415.29650035383639
 30
0.0
 11
524.96681611047666
 21
415.29650035383639
 31
0.0
  0
LINE
  5
BD5
  8
HIDDEN
  6
HIDDEN
 10
505.9668161104766
 20
424.54650035383639
 30
0.0
 11
505.9668161104766
 21
414.54650035383639
 31
0.0
  0
LINE
  5
BD6
  8
HIDDEN
  6
HIDDEN
 10
524.96681611047666
 20
415.29650035383639
 30
0.0
 11
527.42055475453265
 21
419.54650035383651
 31
0.0
  0
LINE
  5
BD7
  8
HIDDEN
  6
HIDDEN
 10
524.96681611047666
 20
423.79650035383662
 30
0.0
 11
527.42055475453253
 21
419.54650035383639
 31
0.0
  0
LINE
  5
BD8
  8
HIDDEN
  6
HIDDEN
 10
521.96681611047666
 20
424.54650035383639
 30
0.0
 11
521.96681611047666
 21
414.54650035383639
 31
0.0
  0
LINE
  5
BD9
  8
HIDDEN
  6
HIDDEN
 10
524.96681611047666
 20
423.79650035383639
 30
0.0
 11
524.96681611047666
 21
415.29650035383639
 31
0.0
  0
LINE
  5
BDA
  8
DIM
  6
CONTINUOUS
 10
618.96681611047666
 20
335.04650035383639
 30
0.0
 11
618.96681611047666
 21
307.04650035383651
 31
0.0
  0
LINE
  5
BDB
  8
0
 10
623.46681611047666
 20
336.04650035383639
 30
0.0
 11
623.46681611047666
 21
325.04650035383651
 31
0.0
  0
SOLID
  5
BDC
  8
DIM
  6
CONTINUOUS
 10
626.46681611047666
 20
316.54650035383651
 30
0.0
 11
626.46681611047666
 21
315.54650035383651
 31
0.0
 12
623.46681611047666
 22
316.04650035383651
 32
0.0
 13
623.46681611047666
 23
316.04650035383651
 33
0.0
  0
LINE
  5
BDD
  8
0
 10
623.46681611047666
 20
325.04650035383651
 30
0.0
 11
624.46681611047666
 21
324.04650035383651
 31
0.0
  0
SOLID
  5
BDE
  8
DIM
  6
CONTINUOUS
 10
621.96681611047666
 20
308.54650035383651
 30
0.0
 11
621.96681611047666
 21
307.54650035383651
 31
0.0
 12
618.96681611047666
 22
308.04650035383651
 32
0.0
 13
618.96681611047666
 23
308.04650035383651
 33
0.0
  0
LINE
  5
BDF
  8
DIM
  6
CONTINUOUS
 10
623.46681611047666
 20
324.04650035383651
 30
0.0
 11
623.46681611047666
 21
315.04650035383651
 31
0.0
  0
LINE
  5
BE0
  8
0
  6
CONTINUOUS
 10
685.51681611047593
 20
262.42172681996078
 30
0.0
 11
685.51681611047593
 21
269.29586076915251
 31
0.0
  0
LINE
  5
BE1
  8
CENTER
  6
CENTER
 10
646.46681611047666
 20
247.85401854324579
 30
0.0
 11
646.46681611047666
 21
276.4217268199609
 31
0.0
  0
LINE
  5
BE2
  8
0
  6
CONTINUOUS
 10
635.51681611047593
 20
262.42172681996078
 30
0.0
 11
635.51681611047593
 21
269.29586076915251
 31
0.0
  0
LINE
  5
BE3
  8
0
  6
CONTINUOUS
 10
657.41681611047738
 20
262.42172681996078
 30
0.0
 11
657.41681611047738
 21
269.29586076915251
 31
0.0
  0
LINE
  5
BE4
  8
0
  6
CONTINUOUS
 10
640.46681611047666
 20
262.42172681996078
 30
0.0
 11
640.46681611047666
 21
269.3897268199616
 31
0.0
  0
LINE
  5
BE5
  8
0
  6
CONTINUOUS
 10
652.46681611047666
 20
262.42172681996078
 30
0.0
 11
652.46681611047666
 21
269.3897268199616
 31
0.0
  0
LINE
  5
BE6
  8
0
  6
CONTINUOUS
 10
657.41681611047738
 20
269.29586076915251
 30
0.0
 11
655.46681611047666
 21
270.4217268199609
 31
0.0
  0
LINE
  5
BE7
  8
0
  6
CONTINUOUS
 10
637.46681611047666
 20
270.4217268199609
 30
0.0
 11
655.46681611047666
 21
270.4217268199609
 31
0.0
  0
POLYLINE
  5
BE8
  8
0
  6
CONTINUOUS
 66
     1
 10
0.0
 20
0.0
 30
0.0
  0
VERTEX
  5
17ED
  8
0
  6
CONTINUOUS
 10
646.46681611047666
 20
270.4217268199609
 30
0.0
 42
0.0851703918331015
  0
VERTEX
  5
17EE
  8
0
  6
CONTINUOUS
 10
640.46681611047666
 20
269.3897268199616
 30
0.0
 42
0.3910851735909245
  0
VERTEX
  5
17EF
  8
0
  6
CONTINUOUS
 10
636.49181611047618
 20
269.85879379455758
 30
0.0
  0
SEQEND
  5
17F0
  8
0
  6
CONTINUOUS
  0
LINE
  5
BED
  8
0
  6
CONTINUOUS
 10
635.51681611047593
 20
269.29586076915251
 30
0.0
 11
637.46681611047666
 21
270.4217268199609
 31
0.0
  0
LINE
  5
BEE
  8
0
  6
CONTINUOUS
 10
640.46681611047666
 20
271.42172681996078
 30
0.0
 11
652.46681611047666
 21
271.42172681996101
 31
0.0
  0
LINE
  5
BEF
  8
0
  6
CONTINUOUS
 10
642.46681611047666
 20
273.42172681996078
 30
0.0
 11
650.46681611047666
 21
273.42172681996078
 31
0.0
  0
POLYLINE
  5
BF0
  8
0
  6
CONTINUOUS
 66
     1
 10
0.0
 20
0.0
 30
0.0
  0
VERTEX
  5
17F1
  8
0
  6
CONTINUOUS
 10
646.46681611047666
 20
270.4217268199609
 30
0.0
 42
-0.0851703918331015
  0
VERTEX
  5
17F2
  8
0
  6
CONTINUOUS
 10
652.46681611047666
 20
269.3897268199616
 30
0.0
 42
-0.3910851735909245
  0
VERTEX
  5
17F3
  8
0
  6
CONTINUOUS
 10
656.44181611047702
 20
269.85879379455758
 30
0.0
  0
SEQEND
  5
17F4
  8
0
  6
CONTINUOUS
  0
LINE
  5
BF5
  8
0
  6
CONTINUOUS
 62
     2
 10
641.66681611047727
 20
270.4217268199609
 30
0.0
 11
641.66681611047727
 21
272.62172681996162
 31
0.0
  0
LINE
  5
BF6
  8
0
  6
CONTINUOUS
 10
640.46681611047666
 20
270.4217268199609
 30
0.0
 11
640.46681611047666
 21
271.42172681996078
 31
0.0
  0
LINE
  5
BF7
  8
0
  6
CONTINUOUS
 10
640.46681611047666
 20
271.42172681996078
 30
0.0
 11
642.46681611047666
 21
273.42172681996078
 31
0.0
  0
LINE
  5
BF8
  8
0
  6
CONTINUOUS
 10
652.46681611047666
 20
270.4217268199609
 30
0.0
 11
652.46681611047666
 21
271.42172681996078
 31
0.0
  0
LINE
  5
BF9
  8
0
  6
CONTINUOUS
 62
     2
 10
651.26681611047593
 20
270.4217268199609
 30
0.0
 11
651.26681611047593
 21
272.62172681996162
 31
0.0
  0
LINE
  5
BFA
  8
0
  6
CONTINUOUS
 10
652.46681611047666
 20
271.42172681996078
 30
0.0
 11
650.46681611047666
 21
273.42172681996078
 31
0.0
  0
TEXT
  5
BFB
  8
DIM
  6
CONTINUOUS
 10
667.60967325333377
 20
301.54650035383651
 30
0.0
 40
3.0
  1
343
  7
ROMANSS
 72
     1
 11
671.46681611047666
 21
303.04650035383651
 31
0.0
 73
     2
  0
LINE
  5
BFC
  8
0
  6
CONTINUOUS
 10
685.51681611047593
 20
269.29586076915251
 30
0.0
 11
687.46681611047666
 21
270.4217268199609
 31
0.0
  0
TEXT
  5
BFD
  8
DIM
  6
CONTINUOUS
 10
667.89538753904799
 20
309.54650035383651
 30
0.0
 40
3.0
  1
105
  7
ROMANSS
 72
     1
 11
671.46681611047666
 21
311.04650035383651
 31
0.0
 73
     2
  0
TEXT
  5
BFE
  8
DIM
  6
CONTINUOUS
 10
667.75253039619099
 20
317.54650035383651
 30
0.0
 40
3.0
  1
%%c96
  7
ROMANSS
 72
     1
 11
671.46681611047666
 21
319.04650035383651
 31
0.0
 73
     2
  0
POLYLINE
  5
BFF
  8
0
  6
CONTINUOUS
 66
     1
 10
0.0
 20
0.0
 30
0.0
 70
     1
  0
VERTEX
  5
17F5
  8
0
  6
CONTINUOUS
 10
640.98198855317514
 20
370.04650035383639
 30
0.0
  0
VERTEX
  5
17F6
  8
0
  6
CONTINUOUS
 10
635.49716099587374
 20
360.54650035383639
 30
0.0
  0
VERTEX
  5
17F7
  8
0
  6
CONTINUOUS
 10
640.98198855317514
 20
351.04650035383639
 30
0.0
  0
VERTEX
  5
17F8
  8
0
  6
CONTINUOUS
 10
651.95164366777817
 20
351.04650035383639
 30
0.0
  0
VERTEX
  5
17F9
  8
0
  6
CONTINUOUS
 10
657.43647122507957
 20
360.54650035383639
 30
0.0
  0
VERTEX
  5
17FA
  8
0
  6
CONTINUOUS
 10
651.95164366777817
 20
370.04650035383639
 30
0.0
  0
SEQEND
  5
17FB
  8
0
  6
CONTINUOUS
  0
LINE
  5
C07
  8
CENTER
  6
CENTER
 10
630.96681611047666
 20
360.54650035383639
 30
0.0
 11
661.96681611047666
 21
360.54650035383639
 31
0.0
  0
ARC
  5
C08
  8
0
  6
CONTINUOUS
 62
     2
 10
646.46681611047666
 20
360.54650035383639
 30
0.0
 40
5.0999999999999988
 50
162.22254855360401
 51
111.81374650251929
  0
CIRCLE
  5
C09
  8
0
  6
CONTINUOUS
 10
646.46681611047666
 20
360.54650035383639
 30
0.0
 40
6.0
  0
CIRCLE
  5
C0A
  8
0
  6
CONTINUOUS
 10
646.46681611047666
 20
360.54650035383639
 30
0.0
 40
9.5
  0
LINE
  5
C0B
  8
CENTER
  6
CENTER
 10
646.46681611047666
 20
376.04650035383639
 30
0.0
 11
646.46681611047666
 21
345.04650035383639
 31
0.0
  0
POLYLINE
  5
C0C
  8
0
  6
CONTINUOUS
 66
     1
 10
0.0
 20
0.0
 30
0.0
 70
     1
  0
VERTEX
  5
17FC
  8
0
  6
CONTINUOUS
 10
644.73476530290839
 20
363.54650035383639
 30
0.0
  0
VERTEX
  5
17FD
  8
0
  6
CONTINUOUS
 10
643.00271449533852
 20
360.54650035383639
 30
0.0
  0
VERTEX
  5
17FE
  8
0
  6
CONTINUOUS
 10
644.73476530290839
 20
357.54650035383639
 30
0.0
  0
VERTEX
  5
17FF
  8
0
  6
CONTINUOUS
 10
648.19886691804481
 20
357.54650035383639
 30
0.0
  0
VERTEX
  5
1800
  8
0
  6
CONTINUOUS
 10
649.93091772561468
 20
360.54650035383639
 30
0.0
  0
VERTEX
  5
1801
  8
0
  6
CONTINUOUS
 10
648.19886691804481
 20
363.54650035383639
 30
0.0
  0
SEQEND
  5
1802
  8
0
  6
CONTINUOUS
  0
CIRCLE
  5
C14
  8
0
  6
CONTINUOUS
 10
671.46681611047666
 20
383.54650035383639
 30
0.0
 40
4.0
  0
POLYLINE
  5
C15
  8
0
  6
CONTINUOUS
 66
     1
 10
0.0
 20
0.0
 30
0.0
 70
     1
 40
1.0
 41
1.0
  0
VERTEX
  5
1803
  8
0
  6
CONTINUOUS
 10
671.96681611047666
 20
383.54650035383639
 30
0.0
 42
1.0
  0
VERTEX
  5
1804
  8
0
  6
CONTINUOUS
 10
670.96681611047666
 20
383.54650035383639
 30
0.0
 42
1.0
  0
SEQEND
  5
1805
  8
0
  6
CONTINUOUS
  0
LINE
  5
C19
  8
0
 10
499.96681611047671
 20
586.23577588536068
 30
0.0
 11
499.96681611047671
 21
491.73577588536091
 31
0.0
  0
LINE
  5
C1A
  8
0
 10
537.96681611047666
 20
586.48577588536079
 30
0.0
 11
537.96681611047666
 21
491.48577588536079
 31
0.0
  0
CIRCLE
  5
C1B
  8
0
  6
CONTINUOUS
 10
671.46681611047666
 20
574.98577588536068
 30
0.0
 40
17.5
  0
LINE
  5
C1C
  8
0
 10
618.96681611047666
 20
626.48577588536079
 30
0.0
 11
618.96681611047666
 21
491.48577588536068
 31
0.0
  0
LINE
  5
C1D
  8
CENTER
  6
CENTER
 10
671.46681611047666
 20
631.9462485879925
 30
0.0
 11
671.46681611047666
 21
488.48577588536068
 31
0.0
  0
LINE
  5
C1E
  8
0
 10
618.96681611047666
 20
495.48577588536079
 30
0.0
 11
537.96681611047666
 21
495.48577588536079
 31
0.0
  0
LINE
  5
C1F
  8
0
 62
     7
 10
618.96681611047666
 20
514.34955436998018
 30
0.0
 11
537.96681611047666
 21
514.34955436998018
 31
0.0
  0
LINE
  5
C20
  8
0
 62
     7
 10
618.96681611047666
 20
563.62199740074152
 30
0.0
 11
537.96681611047666
 21
563.62199740074152
 31
0.0
  0
LINE
  5
C21
  8
0
 10
618.96681611047666
 20
427.04650035383651
 30
0.0
 11
537.96681611047666
 21
427.04650035383651
 31
0.0
  0
LINE
  5
C22
  8
CENTER
  6
CENTER
 10
496.96681611047683
 20
502.98577588536091
 30
0.0
 11
618.96681611047666
 21
502.98577588536091
 31
0.0
  0
LINE
  5
C23
  8
0
 10
537.96681611047666
 20
431.04650035383639
 30
0.0
 11
499.9668161104766
 21
430.79650035383639
 31
0.0
  0
LINE
  5
C24
  8
0
 10
537.96681611047666
 20
491.48577588536079
 30
0.0
 11
499.96681611047671
 21
491.73577588536091
 31
0.0
  0
LINE
  5
C25
  8
0
 10
493.96681611047671
 20
560.48577588536079
 30
0.0
 11
493.96681611047671
 21
517.48577588536091
 31
0.0
  0
LINE
  5
C26
  8
HIDDEN
  6
HIDDEN
 10
499.96681611047688
 20
497.98577588536091
 30
0.0
 11
521.96681611047688
 21
497.98577588536079
 31
0.0
  0
LINE
  5
C27
  8
HIDDEN
  6
HIDDEN
 10
499.96681611047688
 20
507.98577588536079
 30
0.0
 11
521.96681611047688
 21
507.98577588536079
 31
0.0
  0
ARC
  5
C28
  8
0
 10
494.96681611047671
 20
517.48577588536091
 30
0.0
 40
1.0
 50
180.0
 51
270.0
  0
LINE
  5
C29
  8
0
 10
494.96681611047671
 20
516.48577588536079
 30
0.0
 11
499.96681611047671
 21
516.48577588536079
 31
0.0
  0
LINE
  5
C2A
  8
HIDDEN
  6
HIDDEN
 10
505.96681611047683
 20
497.98577588536091
 30
0.0
 11
505.96681611047683
 21
507.98577588536079
 31
0.0
  0
LINE
  5
C2B
  8
CENTER
  6
CENTER
 10
518.96681611047666
 20
505.47771669245373
 30
0.0
 11
518.96681611047677
 21
486.15900108960187
 31
0.0
  0
LINE
  5
C2C
  8
CENTER
  6
CENTER
 10
530.96681611047666
 20
505.46551200584253
 30
0.0
 11
530.96681611047666
 21
486.37101989613461
 31
0.0
  0
LINE
  5
C2D
  8
HIDDEN
  6
HIDDEN
 10
521.96681611047688
 20
497.98577588536079
 30
0.0
 11
521.96681611047688
 21
507.98577588536079
 31
0.0
  0
LINE
  5
C2E
  8
HIDDEN
  6
HIDDEN
 10
524.96681611047666
 20
498.73577588536062
 30
0.0
 11
527.42055475453265
 21
502.98577588536079
 31
0.0
  0
LINE
  5
C2F
  8
HIDDEN
  6
HIDDEN
 10
524.96681611047666
 20
498.73577588536068
 30
0.0
 11
524.96681611047666
 21
507.23577588536091
 31
0.0
  0
LINE
  5
C30
  8
HIDDEN
  6
HIDDEN
 10
505.96681611047683
 20
498.73577588536091
 30
0.0
 11
524.96681611047666
 21
498.73577588536068
 31
0.0
  0
LINE
  5
C31
  8
HIDDEN
  6
HIDDEN
 10
505.96681611047683
 20
507.23577588536091
 30
0.0
 11
524.96681611047666
 21
507.23577588536091
 31
0.0
  0
LINE
  5
C32
  8
HIDDEN
  6
HIDDEN
 10
524.96681611047666
 20
507.23577588536091
 30
0.0
 11
527.42055475453265
 21
502.98577588536079
 31
0.0
  0
ARC
  5
C33
  8
0
 10
494.96681611047671
 20
560.48577588536079
 30
0.0
 40
1.0
 50
90.0
 51
180.0
  0
LINE
  5
C34
  8
0
 10
494.96681611047671
 20
561.48577588536079
 30
0.0
 11
499.96681611047671
 21
561.48577588536079
 31
0.0
  0
LINE
  5
C35
  8
DIM
  6
CONTINUOUS
 10
622.60121346581252
 20
443.04650035383651
 30
0.0
 11
601.96681611047666
 21
443.04650035383651
 31
0.0
  0
LINE
  5
C36
  8
DIM
  6
CONTINUOUS
 10
602.96681611047666
 20
448.75899136174252
 30
0.0
 11
602.96681611047666
 21
435.1135341963755
 31
0.0
  0
LINE
  5
C37
  8
DIM
  6
CONTINUOUS
 10
653.24184027484853
 20
442.04650035383668
 30
0.0
 11
601.96681611047666
 21
442.04650035383662
 31
0.0
  0
TEXT
  5
C38
  8
DIM
  6
CONTINUOUS
 10
601.46681611047666
 20
436.7373752375114
 30
0.0
 40
3.0
  1
1
 50
90.0
  7
ROMANSS
 72
     1
 11
599.96681611047666
 21
437.09451809465418
 31
0.0
 73
     2
  0
SOLID
  5
C39
  8
DIM
  6
CONTINUOUS
 10
602.46681611047666
 20
439.04650035383651
 30
0.0
 11
603.46681611047666
 21
439.04650035383651
 31
0.0
 12
602.96681611047666
 22
442.04650035383662
 32
0.0
 13
602.96681611047666
 23
442.04650035383662
 33
0.0
  0
SOLID
  5
C3A
  8
DIM
  6
CONTINUOUS
 10
602.46681611047666
 20
446.04650035383662
 30
0.0
 11
603.46681611047666
 21
446.04650035383662
 31
0.0
 12
602.96681611047666
 22
443.04650035383651
 32
0.0
 13
602.96681611047666
 23
443.04650035383651
 33
0.0
  0
LINE
  5
C3B
  8
0
 10
623.46681611047666
 20
442.04650035383662
 30
0.0
 11
623.46681611047666
 21
431.04650035383639
 31
0.0
  0
SOLID
  5
C3C
  8
DIM
  6
CONTINUOUS
 10
662.46681611047632
 20
550.52192450991265
 30
0.0
 11
662.46681611047632
 21
549.52192450991276
 31
0.0
 12
659.46681611047632
 22
550.02192450991276
 32
0.0
 13
659.46681611047632
 23
550.02192450991276
 33
0.0
  0
TEXT
  5
C3D
  8
DIM
  6
CONTINUOUS
 10
671.91701320438426
 20
551.52192450991265
 30
0.0
 40
3.0
  1
27.5
  7
ROMANSS
 72
     1
 11
676.48844177581293
 21
553.02192450991265
 31
0.0
 73
     2
  0
SOLID
  5
C3E
  8
DIM
  6
CONTINUOUS
 10
683.96681611047666
 20
550.52192450991265
 30
0.0
 11
683.96681611047666
 21
549.52192450991276
 31
0.0
 12
686.96681611047666
 22
550.02192450991276
 32
0.0
 13
686.96681611047666
 23
550.02192450991276
 33
0.0
  0
LINE
  5
C3F
  8
CENTER
  6
CENTER
 10
620.46681611047666
 20
533.98577588536068
 30
0.0
 11
640.46681611047666
 21
533.98577588536068
 31
0.0
  0
LINE
  5
C40
  8
0
  6
CONTINUOUS
 10
657.41681611047738
 20
484.61164193616912
 30
0.0
 11
655.46681611047666
 21
483.48577588536068
 31
0.0
  0
LINE
  5
C41
  8
CENTER
  6
CENTER
 10
646.46681611047666
 20
506.05348416207579
 30
0.0
 11
646.46681611047666
 21
477.48577588536079
 31
0.0
  0
LINE
  5
C42
  8
0
  6
CONTINUOUS
 10
637.46681611047666
 20
483.48577588536068
 30
0.0
 11
655.46681611047666
 21
483.48577588536068
 31
0.0
  0
POLYLINE
  5
C43
  8
0
  6
CONTINUOUS
 66
     1
 10
0.0
 20
0.0
 30
0.0
  0
VERTEX
  5
1806
  8
0
  6
CONTINUOUS
 10
646.46681611047666
 20
483.48577588536068
 30
0.0
 42
-0.0851703918331015
  0
VERTEX
  5
1807
  8
0
  6
CONTINUOUS
 10
640.46681611047666
 20
484.51777588535998
 30
0.0
 42
-0.3910851735909245
  0
VERTEX
  5
1808
  8
0
  6
CONTINUOUS
 10
636.49181611047618
 20
484.04870891076399
 30
0.0
  0
SEQEND
  5
1809
  8
0
  6
CONTINUOUS
  0
LINE
  5
C48
  8
0
  6
CONTINUOUS
 10
635.51681611047593
 20
491.48577588536068
 30
0.0
 11
635.51681611047593
 21
484.61164193616912
 31
0.0
  0
LINE
  5
C49
  8
0
  6
CONTINUOUS
 10
635.51681611047593
 20
484.61164193616912
 30
0.0
 11
637.46681611047666
 21
483.48577588536068
 31
0.0
  0
LINE
  5
C4A
  8
0
  6
CONTINUOUS
 10
640.46681611047666
 20
491.48577588536068
 30
0.0
 11
640.46681611047666
 21
484.51777588535998
 31
0.0
  0
LINE
  5
C4B
  8
0
  6
CONTINUOUS
 10
652.46681611047666
 20
491.48577588536068
 30
0.0
 11
652.46681611047666
 21
484.51777588535998
 31
0.0
  0
LINE
  5
C4C
  8
0
  6
CONTINUOUS
 10
642.46681611047666
 20
480.48577588536068
 30
0.0
 11
650.46681611047666
 21
480.48577588536068
 31
0.0
  0
LINE
  5
C4D
  8
0
  6
CONTINUOUS
 10
640.46681611047666
 20
482.48577588536079
 30
0.0
 11
652.46681611047666
 21
482.48577588536068
 31
0.0
  0
POLYLINE
  5
C4E
  8
0
  6
CONTINUOUS
 66
     1
 10
0.0
 20
0.0
 30
0.0
  0
VERTEX
  5
180A
  8
0
  6
CONTINUOUS
 10
646.46681611047666
 20
483.48577588536068
 30
0.0
 42
0.0851703918331015
  0
VERTEX
  5
180B
  8
0
  6
CONTINUOUS
 10
652.46681611047666
 20
484.51777588535998
 30
0.0
 42
0.3910851735909245
  0
VERTEX
  5
180C
  8
0
  6
CONTINUOUS
 10
656.44181611047702
 20
484.04870891076399
 30
0.0
  0
SEQEND
  5
180D
  8
0
  6
CONTINUOUS
  0
LINE
  5
C53
  8
0
  6
CONTINUOUS
 10
640.46681611047666
 20
482.48577588536079
 30
0.0
 11
642.46681611047666
 21
480.48577588536068
 31
0.0
  0
LINE
  5
C54
  8
0
  6
CONTINUOUS
 10
640.46681611047666
 20
483.48577588536068
 30
0.0
 11
640.46681611047666
 21
482.48577588536079
 31
0.0
  0
LINE
  5
C55
  8
0
  6
CONTINUOUS
 62
     2
 10
641.66681611047727
 20
483.48577588536068
 30
0.0
 11
641.66681611047727
 21
481.28577588536001
 31
0.0
  0
LINE
  5
C56
  8
0
  6
CONTINUOUS
 10
652.46681611047666
 20
482.48577588536079
 30
0.0
 11
650.46681611047666
 21
480.48577588536068
 31
0.0
  0
LINE
  5
C57
  8
0
  6
CONTINUOUS
 10
652.46681611047666
 20
483.48577588536068
 30
0.0
 11
652.46681611047666
 21
482.48577588536079
 31
0.0
  0
LINE
  5
C58
  8
0
  6
CONTINUOUS
 62
     2
 10
651.26681611047593
 20
483.48577588536068
 30
0.0
 11
651.26681611047593
 21
481.28577588536001
 31
0.0
  0
LINE
  5
C59
  8
0
  6
CONTINUOUS
 10
657.41681611047738
 20
491.48577588536068
 30
0.0
 11
657.41681611047738
 21
484.61164193616912
 31
0.0
  0
LINE
  5
C5A
  8
0
  6
CONTINUOUS
 10
723.96681611047654
 20
589.03577588536007
 30
0.0
 11
730.84095005966822
 21
589.03577588536007
 31
0.0
  0
LINE
  5
C5B
  8
0
  6
CONTINUOUS
 10
730.84095005966822
 20
589.03577588536007
 30
0.0
 11
731.96681611047654
 21
590.98577588536079
 31
0.0
  0
CIRCLE
  5
C5C
  8
0
  6
CONTINUOUS
 10
630.46681611047666
 20
533.98577588536068
 30
0.0
 40
4.25
  0
ARC
  5
C5D
  8
0
  6
CONTINUOUS
 62
     2
 10
630.46681611047666
 20
533.98577588536068
 30
0.0
 40
5.0
 50
161.29065264439251
 51
115.2003954081225
  0
LINE
  5
C5E
  8
CENTER
  6
CENTER
 10
630.46681611047666
 20
543.98577588536079
 30
0.0
 11
630.46681611047666
 21
523.98577588536079
 31
0.0
  0
LINE
  5
C5F
  8
0
 10
618.96681611047666
 20
582.48577588536079
 30
0.0
 11
537.96681611047666
 21
582.48577588536079
 31
0.0
  0
LINE
  5
C60
  8
0
 10
537.96681611047666
 20
586.48577588536079
 30
0.0
 11
499.96681611047671
 21
586.23577588536068
 31
0.0
  0
LINE
  5
C61
  8
HIDDEN
  6
HIDDEN
 10
499.96681611047688
 20
579.98577588536068
 30
0.0
 11
521.96681611047688
 21
579.98577588536068
 31
0.0
  0
LINE
  5
C62
  8
HIDDEN
  6
HIDDEN
 10
499.96681611047688
 20
569.98577588536079
 30
0.0
 11
521.96681611047688
 21
569.98577588536079
 31
0.0
  0
LINE
  5
C63
  8
HIDDEN
  6
HIDDEN
 10
505.96681611047683
 20
570.73577588536079
 30
0.0
 11
524.96681611047666
 21
570.73577588536079
 31
0.0
  0
LINE
  5
C64
  8
HIDDEN
  6
HIDDEN
 10
505.96681611047683
 20
579.23577588536079
 30
0.0
 11
524.96681611047666
 21
579.23577588536079
 31
0.0
  0
LINE
  5
C65
  8
HIDDEN
  6
HIDDEN
 10
505.96681611047683
 20
579.98577588536068
 30
0.0
 11
505.96681611047683
 21
569.98577588536079
 31
0.0
  0
LINE
  5
C66
  8
HIDDEN
  6
HIDDEN
 10
524.96681611047666
 20
579.23577588536091
 30
0.0
 11
527.42055475453265
 21
574.98577588536068
 31
0.0
  0
LINE
  5
C67
  8
HIDDEN
  6
HIDDEN
 10
524.96681611047666
 20
570.73577588536079
 30
0.0
 11
527.42055475453265
 21
574.98577588536068
 31
0.0
  0
LINE
  5
C68
  8
HIDDEN
  6
HIDDEN
 10
524.96681611047666
 20
579.23577588536079
 30
0.0
 11
524.96681611047666
 21
570.73577588536079
 31
0.0
  0
LINE
  5
C69
  8
HIDDEN
  6
HIDDEN
 10
521.96681611047688
 20
579.98577588536068
 30
0.0
 11
521.96681611047688
 21
569.98577588536079
 31
0.0
  0
LINE
  5
C6A
  8
CENTER
  6
CENTER
 10
620.46681611047666
 20
615.98577588536079
 30
0.0
 11
640.46681611047666
 21
615.98577588536079
 31
0.0
  0
SOLID
  5
C6B
  8
DIM
  6
CONTINUOUS
 10
780.79828939725019
 20
571.99569789735972
 30
0.0
 11
781.79811293847195
 21
571.97691262603075
 31
0.0
 12
781.35455698184785
 22
574.98577588536034
 32
0.0
 13
781.35455698184785
 23
574.98577588536034
 33
0.0
  0
CIRCLE
  5
C6C
  8
0
  6
CONTINUOUS
 10
630.46681611047666
 20
615.98577588536079
 30
0.0
 40
4.25
  0
ARC
  5
C6D
  8
0
  6
CONTINUOUS
 62
     2
 10
630.46681611047666
 20
615.98577588536079
 30
0.0
 40
5.0
 50
161.29065264439421
 51
115.2003954081208
  0
LINE
  5
C6E
  8
CENTER
  6
CENTER
 10
630.46681611047666
 20
625.98577588536068
 30
0.0
 11
630.46681611047666
 21
605.98577588536079
 31
0.0
  0
ARC
  5
C6F
  8
0
  6
CONTINUOUS
 62
     2
 10
643.88965164420131
 20
602.56294035163614
 30
0.0
 40
4.0
 50
210.50278965468681
 51
157.4755877848952
  0
LINE
  5
C70
  8
CENTER
  6
CENTER
 10
638.232797394709
 20
608.21979460112857
 30
0.0
 11
649.54650589369362
 21
596.90608610214372
 31
0.0
  0
CIRCLE
  5
C71
  8
0
  6
CONTINUOUS
 10
643.88965164420131
 20
602.56294035163614
 30
0.0
 40
3.399999999999999
  0
SOLID
  5
C72
  8
DIM
  6
CONTINUOUS
 10
633.46681611047666
 20
634.98577588536079
 30
0.0
 11
633.46681611047666
 21
633.98577588536068
 31
0.0
 12
630.46681611047666
 22
634.48577588536068
 32
0.0
 13
630.46681611047666
 23
634.48577588536068
 33
0.0
  0
LINE
  5
C73
  8
DIM
  6
CONTINUOUS
 10
630.46681611047666
 20
626.98577588536079
 30
0.0
 11
630.46681611047666
 21
635.48577588536079
 31
0.0
  0
TEXT
  5
C74
  8
DIM
  6
CONTINUOUS
 10
669.03824468190521
 20
635.98577588536079
 30
0.0
 40
3.0
  1
82
  7
ROMANSS
 72
     1
 11
671.46681611047666
 21
637.48577588536068
 31
0.0
 73
     2
  0
TEXT
  5
C75
  8
DIM
  6
CONTINUOUS
 10
709.94553221244007
 20
473.31811107784728
 30
0.0
 40
3.0
  1
90%%p5%%d
 50
24.433080310037312
  7
ROMANSS
 72
     1
 11
715.17794768947374
 21
477.3428295633995
 31
0.0
 73
     2
  0
LINE
  5
C76
  8
DIM
  6
CONTINUOUS
 10
819.88968613777411
 20
401.08528603523439
 30
0.0
 11
802.28621838378263
 21
445.9634194941608
 31
0.0
  0
LINE
  5
C77
  8
0
 10
723.96681611047666
 20
431.04650035383639
 30
0.0
 11
723.96681611047666
 21
336.04650035383639
 31
0.0
  0
LINE
  5
C78
  8
0
 10
842.96681611047666
 20
430.79650035383639
 30
0.0
 11
842.96681611047666
 21
336.29650035383639
 31
0.0
  0
LINE
  5
C79
  8
0
 10
804.96681611047666
 20
431.04650035383639
 30
0.0
 11
804.96681611047666
 21
336.04650035383639
 31
0.0
  0
LINE
  5
C7A
  8
0
 10
848.96681611047666
 20
193.4217268199609
 30
0.0
 11
848.96681611047666
 21
236.4217268199607
 31
0.0
  0
LINE
  5
C7B
  8
0
 10
842.96681611047666
 20
167.6717268199609
 30
0.0
 11
842.96681611047666
 21
262.17172681996072
 31
0.0
  0
LINE
  5
C7C
  8
0
 10
804.96681611047666
 20
167.4217268199609
 30
0.0
 11
804.96681611047666
 21
262.42172681996072
 31
0.0
  0
CIRCLE
  5
C7D
  8
0
  6
CONTINUOUS
 10
712.46681611047666
 20
219.9217268199609
 30
0.0
 40
4.25
  0
ARC
  5
C7E
  8
0
  6
CONTINUOUS
 62
     2
 10
712.46681611047666
 20
219.9217268199609
 30
0.0
 40
5.0
 50
244.7996045918774
 51
198.7093473556057
  0
LINE
  5
C7F
  8
CENTER
  6
CENTER
 10
712.46681611047666
 20
209.9217268199609
 30
0.0
 11
712.46681611047666
 21
229.92172681996081
 31
0.0
  0
LINE
  5
C80
  8
0
 10
723.96681611047666
 20
127.4217268199609
 30
0.0
 11
723.96681611047666
 21
262.42172681996078
 31
0.0
  0
LINE
  5
C81
  8
0
 62
     7
 10
723.96681611047666
 20
190.28550530458011
 30
0.0
 11
804.96681611047666
 21
190.2855053045802
 31
0.0
  0
LINE
  5
C82
  8
0
 10
723.96681611047666
 20
171.4217268199609
 30
0.0
 11
804.96681611047666
 21
171.4217268199609
 31
0.0
  0
LINE
  5
C83
  8
CENTER
  6
CENTER
 10
702.46681611047666
 20
137.92172681996081
 30
0.0
 11
722.46681611047666
 21
137.92172681996081
 31
0.0
  0
CIRCLE
  5
C84
  8
0
  6
CONTINUOUS
 10
712.46681611047666
 20
137.92172681996081
 30
0.0
 40
4.25
  0
ARC
  5
C85
  8
0
  6
CONTINUOUS
 62
     2
 10
712.46681611047666
 20
137.92172681996081
 30
0.0
 40
5.0
 50
244.79960459187899
 51
198.7093473556057
  0
LINE
  5
C86
  8
CENTER
  6
CENTER
 10
712.46681611047666
 20
127.9217268199608
 30
0.0
 11
712.46681611047666
 21
147.92172681996081
 31
0.0
  0
LINE
  5
C87
  8
CENTER
  6
CENTER
 10
702.46681611047666
 20
219.9217268199609
 30
0.0
 11
722.46681611047666
 21
219.9217268199609
 31
0.0
  0
LINE
  5
C88
  8
CENTER
  6
CENTER
 10
693.38712632725969
 20
200.8420370367439
 30
0.0
 11
704.70083482624432
 21
212.1557455357287
 31
0.0
  0
CIRCLE
  5
C89
  8
0
  6
CONTINUOUS
 10
699.04398057675201
 20
206.4988912862363
 30
0.0
 40
3.399999999999999
  0
ARC
  5
C8A
  8
0
  6
CONTINUOUS
 62
     2
 10
699.04398057675201
 20
206.4988912862363
 30
0.0
 40
4.0
 50
202.5244122151048
 51
149.49721034531461
  0
LINE
  5
C8B
  8
0
 10
847.96681611047666
 20
192.4217268199609
 30
0.0
 11
842.96681611047666
 21
192.4217268199609
 31
0.0
  0
LINE
  5
C8C
  8
HIDDEN
  6
HIDDEN
 10
836.96681611047654
 20
173.9217268199609
 30
0.0
 11
836.96681611047654
 21
183.9217268199609
 31
0.0
  0
LINE
  5
C8D
  8
HIDDEN
  6
HIDDEN
 10
820.96681611047666
 20
173.9217268199609
 30
0.0
 11
820.96681611047666
 21
183.9217268199609
 31
0.0
  0
LINE
  5
C8E
  8
0
 10
804.96681611047666
 20
167.4217268199609
 30
0.0
 11
842.96681611047666
 21
167.6717268199609
 31
0.0
  0
LINE
  5
C8F
  8
HIDDEN
  6
HIDDEN
 10
842.96681611047666
 20
173.9217268199609
 30
0.0
 11
820.96681611047666
 21
173.9217268199609
 31
0.0
  0
LINE
  5
C90
  8
HIDDEN
  6
HIDDEN
 10
842.96681611047666
 20
183.9217268199609
 30
0.0
 11
820.96681611047666
 21
183.9217268199609
 31
0.0
  0
LINE
  5
C91
  8
HIDDEN
  6
HIDDEN
 10
836.96681611047654
 20
174.6717268199609
 30
0.0
 11
817.96681611047666
 21
174.6717268199609
 31
0.0
  0
LINE
  5
C92
  8
HIDDEN
  6
HIDDEN
 10
836.96681611047654
 20
183.1717268199609
 30
0.0
 11
817.96681611047666
 21
183.1717268199609
 31
0.0
  0
LINE
  5
C93
  8
HIDDEN
  6
HIDDEN
 10
817.96681611047666
 20
183.1717268199609
 30
0.0
 11
815.51307746642055
 21
178.9217268199609
 31
0.0
  0
LINE
  5
C94
  8
HIDDEN
  6
HIDDEN
 10
817.96681611047666
 20
174.67172681996081
 30
0.0
 11
815.51307746642078
 21
178.9217268199609
 31
0.0
  0
LINE
  5
C95
  8
HIDDEN
  6
HIDDEN
 10
817.96681611047666
 20
174.6717268199609
 30
0.0
 11
817.96681611047666
 21
183.1717268199609
 31
0.0
  0
ARC
  5
C96
  8
0
 10
847.96681611047666
 20
193.4217268199609
 30
0.0
 40
1.0
 50
270.0
 51
0.0
  0
LINE
  5
C97
  8
0
 10
723.96681611047666
 20
258.42172681996078
 30
0.0
 11
804.96681611047666
 21
258.42172681996078
 31
0.0
  0
LINE
  5
C98
  8
0
 62
     7
 10
723.96681611047666
 20
239.55794833534151
 30
0.0
 11
804.96681611047666
 21
239.55794833534151
 31
0.0
  0
LINE
  5
C99
  8
CENTER
  6
CENTER
 10
723.96681611047666
 20
250.9217268199609
 30
0.0
 11
845.96681611047688
 21
250.9217268199609
 31
0.0
  0
LINE
  5
C9A
  8
CENTER
  6
CENTER
 10
845.96681611047666
 20
347.54650035383639
 30
0.0
 11
723.96681611047666
 21
347.54650035383639
 31
0.0
  0
LINE
  5
C9B
  8
CENTER
  6
CENTER
 10
845.96681611047666
 20
419.54650035383639
 30
0.0
 11
723.96681611047666
 21
419.54650035383639
 31
0.0
  0
LINE
  5
C9C
  8
0
 62
     7
 10
723.96681611047666
 20
408.1827218692174
 30
0.0
 11
804.96681611047666
 21
408.18272186921712
 31
0.0
  0
LINE
  5
C9D
  8
0
 62
     7
 10
723.96681611047666
 20
358.91027883845572
 30
0.0
 11
804.96681611047666
 21
358.91027883845572
 31
0.0
  0
LINE
  5
C9E
  8
0
 10
723.96681611047666
 20
340.04650035383628
 30
0.0
 11
804.96681611047666
 21
340.04650035383628
 31
0.0
  0
LINE
  5
C9F
  8
DIM
  6
CONTINUOUS
 10
723.96681611047666
 20
335.04650035383639
 30
0.0
 11
723.96681611047666
 21
307.04650035383651
 31
0.0
  0
LINE
  5
CA0
  8
0
 10
719.46681611047666
 20
336.04650035383639
 30
0.0
 11
719.46681611047666
 21
325.04650035383639
 31
0.0
  0
LINE
  5
CA1
  8
0
  6
CONTINUOUS
 10
690.46681611047666
 20
262.42172681996078
 30
0.0
 11
690.46681611047666
 21
269.3897268199616
 31
0.0
  0
LINE
  5
CA2
  8
0
  6
CONTINUOUS
 10
702.46681611047666
 20
262.42172681996078
 30
0.0
 11
702.46681611047666
 21
269.3897268199616
 31
0.0
  0
LINE
  5
CA3
  8
0
  6
CONTINUOUS
 10
707.41681611047738
 20
262.42172681996078
 30
0.0
 11
707.41681611047738
 21
269.29586076915251
 31
0.0
  0
LINE
  5
CA4
  8
CENTER
  6
CENTER
 10
696.46681611047666
 20
247.85401854324579
 30
0.0
 11
696.46681611047666
 21
276.4217268199609
 31
0.0
  0
SOLID
  5
CA5
  8
DIM
  6
CONTINUOUS
 10
720.96681611047666
 20
308.54650035383651
 30
0.0
 11
720.96681611047666
 21
307.54650035383651
 31
0.0
 12
723.96681611047666
 22
308.04650035383651
 32
0.0
 13
723.96681611047666
 23
308.04650035383651
 33
0.0
  0
POLYLINE
  5
CA6
  8
0
  6
CONTINUOUS
 66
     1
 10
0.0
 20
0.0
 30
0.0
  0
VERTEX
  5
180E
  8
0
  6
CONTINUOUS
 10
696.46681611047666
 20
270.4217268199609
 30
0.0
 42
-0.0851703918331015
  0
VERTEX
  5
180F
  8
0
  6
CONTINUOUS
 10
702.46681611047666
 20
269.3897268199616
 30
0.0
 42
-0.3910851735909245
  0
VERTEX
  5
1810
  8
0
  6
CONTINUOUS
 10
706.44181611047702
 20
269.85879379455758
 30
0.0
  0
SEQEND
  5
1811
  8
0
  6
CONTINUOUS
  0
LINE
  5
CAB
  8
0
  6
CONTINUOUS
 10
707.41681611047738
 20
269.29586076915251
 30
0.0
 11
705.46681611047666
 21
270.4217268199609
 31
0.0
  0
LINE
  5
CAC
  8
0
  6
CONTINUOUS
 10
700.46681611047666
 20
273.42172681996078
 30
0.0
 11
692.46681611047666
 21
273.42172681996078
 31
0.0
  0
LINE
  5
CAD
  8
0
  6
CONTINUOUS
 10
702.46681611047666
 20
271.42172681996078
 30
0.0
 11
690.46681611047666
 21
271.42172681996101
 31
0.0
  0
LINE
  5
CAE
  8
0
  6
CONTINUOUS
 10
690.46681611047666
 20
271.42172681996078
 30
0.0
 11
692.46681611047666
 21
273.42172681996078
 31
0.0
  0
LINE
  5
CAF
  8
0
  6
CONTINUOUS
 62
     2
 10
691.66681611047727
 20
270.4217268199609
 30
0.0
 11
691.66681611047727
 21
272.62172681996162
 31
0.0
  0
LINE
  5
CB0
  8
0
  6
CONTINUOUS
 10
690.46681611047666
 20
270.4217268199609
 30
0.0
 11
690.46681611047666
 21
271.42172681996078
 31
0.0
  0
LINE
  5
CB1
  8
0
  6
CONTINUOUS
 10
702.46681611047666
 20
271.42172681996078
 30
0.0
 11
700.46681611047666
 21
273.42172681996078
 31
0.0
  0
LINE
  5
CB2
  8
0
  6
CONTINUOUS
 10
702.46681611047666
 20
270.4217268199609
 30
0.0
 11
702.46681611047666
 21
271.42172681996078
 31
0.0
  0
LINE
  5
CB3
  8
0
  6
CONTINUOUS
 62
     2
 10
701.26681611047593
 20
270.4217268199609
 30
0.0
 11
701.26681611047593
 21
272.62172681996162
 31
0.0
  0
LINE
  5
CB4
  8
DIM
  6
CONTINUOUS
 10
719.46681611047666
 20
324.04650035383639
 30
0.0
 11
719.46681611047666
 21
315.04650035383651
 31
0.0
  0
SOLID
  5
CB5
  8
DIM
  6
CONTINUOUS
 10
716.46681611047666
 20
316.54650035383651
 30
0.0
 11
716.46681611047666
 21
315.54650035383651
 31
0.0
 12
719.46681611047666
 22
316.04650035383651
 32
0.0
 13
719.46681611047666
 23
316.04650035383651
 33
0.0
  0
LINE
  5
CB6
  8
0
 10
719.46681611047666
 20
325.04650035383639
 30
0.0
 11
718.46681611047666
 21
324.04650035383639
 31
0.0
  0
ARC
  5
CB7
  8
0
  6
CONTINUOUS
 62
     2
 10
1028.109501052531
 20
360.54650035383639
 30
0.0
 40
5.0999999999999988
 50
162.22254855360401
 51
111.81374650251929
  0
CIRCLE
  5
CB8
  8
0
  6
CONTINUOUS
 10
1028.109501052531
 20
360.54650035383639
 30
0.0
 40
6.0
  0
LINE
  5
CB9
  8
CENTER
  6
CENTER
 10
1028.109501052531
 20
376.04650035383639
 30
0.0
 11
1028.109501052531
 21
345.04650035383639
 31
0.0
  0
POLYLINE
  5
CBA
  8
0
  6
CONTINUOUS
 66
     1
 10
0.0
 20
0.0
 30
0.0
 70
     1
  0
VERTEX
  5
1812
  8
0
  6
CONTINUOUS
 10
1026.377450244963
 20
363.54650035383639
 30
0.0
  0
VERTEX
  5
1813
  8
0
  6
CONTINUOUS
 10
1024.6453994373931
 20
360.54650035383639
 30
0.0
  0
VERTEX
  5
1814
  8
0
  6
CONTINUOUS
 10
1026.377450244963
 20
357.54650035383639
 30
0.0
  0
VERTEX
  5
1815
  8
0
  6
CONTINUOUS
 10
1029.8415518600989
 20
357.54650035383639
 30
0.0
  0
VERTEX
  5
1816
  8
0
  6
CONTINUOUS
 10
1031.5736026676691
 20
360.54650035383639
 30
0.0
  0
VERTEX
  5
1817
  8
0
  6
CONTINUOUS
 10
1029.8415518600989
 20
363.54650035383639
 30
0.0
  0
SEQEND
  5
1818
  8
0
  6
CONTINUOUS
  0
LINE
  5
CC2
  8
DIM
  6
CONTINUOUS
 10
848.96681611047666
 20
359.77010558902037
 30
0.0
 11
848.96681611047666
 21
299.04650035383651
 31
0.0
  0
LINE
  5
CC3
  8
DIM
  6
CONTINUOUS
 10
842.96681611047666
 20
335.29650035383639
 30
0.0
 11
842.96681611047666
 21
299.04650035383651
 31
0.0
  0
LINE
  5
CC4
  8
0
 10
847.96681611047666
 20
237.4217268199607
 30
0.0
 11
842.96681611047666
 21
237.4217268199607
 31
0.0
  0
LINE
  5
CC5
  8
CENTER
  6
CENTER
 10
811.96681611047654
 20
247.6792935060393
 30
0.0
 11
811.96681611047654
 21
267.53648280918702
 31
0.0
  0
LINE
  5
CC6
  8
CENTER
  6
CENTER
 10
823.96681611047666
 20
246.82924107138061
 30
0.0
 11
823.96681611047666
 21
266.93299277942288
 31
0.0
  0
LINE
  5
CC7
  8
0
 10
804.96681611047666
 20
262.42172681996072
 30
0.0
 11
842.96681611047666
 21
262.17172681996072
 31
0.0
  0
LINE
  5
CC8
  8
HIDDEN
  6
HIDDEN
 10
842.96681611047666
 20
245.92172681996081
 30
0.0
 11
820.96681611047666
 21
245.92172681996081
 31
0.0
  0
LINE
  5
CC9
  8
HIDDEN
  6
HIDDEN
 10
842.96681611047666
 20
255.9217268199607
 30
0.0
 11
820.96681611047666
 21
255.9217268199609
 31
0.0
  0
LINE
  5
CCA
  8
HIDDEN
  6
HIDDEN
 10
836.96681611047654
 20
246.6717268199607
 30
0.0
 11
817.96681611047666
 21
246.6717268199607
 31
0.0
  0
LINE
  5
CCB
  8
HIDDEN
  6
HIDDEN
 10
836.96681611047654
 20
255.1717268199607
 30
0.0
 11
817.96681611047666
 21
255.1717268199609
 31
0.0
  0
LINE
  5
CCC
  8
HIDDEN
  6
HIDDEN
 10
817.96681611047666
 20
255.1717268199609
 30
0.0
 11
817.96681611047666
 21
246.6717268199607
 31
0.0
  0
LINE
  5
CCD
  8
HIDDEN
  6
HIDDEN
 10
817.96681611047666
 20
255.17172681996101
 30
0.0
 11
815.51307746642078
 21
250.9217268199609
 31
0.0
  0
LINE
  5
CCE
  8
HIDDEN
  6
HIDDEN
 10
820.96681611047666
 20
255.9217268199609
 30
0.0
 11
820.96681611047666
 21
245.92172681996081
 31
0.0
  0
LINE
  5
CCF
  8
HIDDEN
  6
HIDDEN
 10
817.96681611047666
 20
246.6717268199607
 30
0.0
 11
815.51307746642055
 21
250.9217268199609
 31
0.0
  0
LINE
  5
CD0
  8
HIDDEN
  6
HIDDEN
 10
836.96681611047654
 20
255.9217268199607
 30
0.0
 11
836.96681611047654
 21
245.92172681996081
 31
0.0
  0
SOLID
  5
CD1
  8
DIM
  6
CONTINUOUS
 10
839.96681611047666
 20
300.54650035383651
 30
0.0
 11
839.96681611047666
 21
299.54650035383651
 31
0.0
 12
842.96681611047666
 22
300.04650035383651
 32
0.0
 13
842.96681611047666
 23
300.04650035383651
 33
0.0
  0
ARC
  5
CD2
  8
0
 10
847.96681611047666
 20
236.4217268199607
 30
0.0
 40
1.0
 50
0.0
 51
90.0
  0
SOLID
  5
CD3
  8
DIM
  6
CONTINUOUS
 10
851.96681611047666
 20
300.54650035383651
 30
0.0
 11
851.96681611047666
 21
299.54650035383651
 31
0.0
 12
848.96681611047666
 22
300.04650035383651
 32
0.0
 13
848.96681611047666
 23
300.04650035383651
 33
0.0
  0
TEXT
  5
CD4
  8
DIM
  6
CONTINUOUS
 10
854.22671454748058
 20
301.54650035383651
 30
0.0
 40
3.0
  1
6
  7
ROMANSS
 72
     1
 11
855.15528597605191
 21
303.04650035383651
 31
0.0
 73
     2
  0
LINE
  5
CD5
  8
0
 10
847.96681611047666
 20
406.04650035383639
 30
0.0
 11
842.96681611047666
 21
406.04650035383639
 31
0.0
  0
LINE
  5
CD6
  8
0
 10
847.96681611047666
 20
361.04650035383639
 30
0.0
 11
842.96681611047666
 21
361.04650035383639
 31
0.0
  0
CIRCLE
  5
CD7
  8
0
 10
811.96681611047654
 20
373.54650035383639
 30
0.0
 40
5.2999999999999989
  0
LINE
  5
CD8
  8
CENTER
  6
CENTER
 10
823.96681611047666
 20
405.04650035383639
 30
0.0
 11
823.96681611047666
 21
376.04650035383639
 31
0.0
  0
LINE
  5
CD9
  8
CENTER
  6
CENTER
 10
811.96681611047654
 20
380.54650035383639
 30
0.0
 11
811.96681611047654
 21
366.54650035383639
 31
0.0
  0
POLYLINE
  5
CDA
  8
0
  6
CONTINUOUS
 66
     1
 10
0.0
 20
0.0
 30
0.0
 70
     1
  0
VERTEX
  5
1819
  8
0
  6
CONTINUOUS
 10
811.10079070669235
 20
375.04650035383639
 30
0.0
  0
VERTEX
  5
181A
  8
0
  6
CONTINUOUS
 10
810.2347653029077
 20
373.54650035383639
 30
0.0
  0
VERTEX
  5
181B
  8
0
  6
CONTINUOUS
 10
811.10079070669235
 20
372.04650035383639
 30
0.0
  0
VERTEX
  5
181C
  8
0
  6
CONTINUOUS
 10
812.83284151426108
 20
372.04650035383639
 30
0.0
  0
VERTEX
  5
181D
  8
0
  6
CONTINUOUS
 10
813.6988669180455
 20
373.54650035383639
 30
0.0
  0
VERTEX
  5
181E
  8
0
  6
CONTINUOUS
 10
812.83284151426108
 20
375.04650035383639
 30
0.0
  0
SEQEND
  5
181F
  8
0
  6
CONTINUOUS
  0
CIRCLE
  5
CE2
  8
0
 10
811.96681611047654
 20
373.54650035383639
 30
0.0
 40
5.0
  0
ARC
  5
CE3
  8
0
  6
CONTINUOUS
 10
811.96681611047654
 20
373.54650035383639
 30
0.0
 40
3.5
 50
98.213210701738376
 51
141.7867892982616
  0
ARC
  5
CE4
  8
0
  6
CONTINUOUS
 10
811.96681611047654
 20
373.54650035383639
 30
0.0
 40
3.5
 50
218.21321070173829
 51
261.78678929826191
  0
CIRCLE
  5
CE5
  8
0
  6
CONTINUOUS
 10
811.96681611047654
 20
373.54650035383639
 30
0.0
 40
2.5
  0
LINE
  5
CE6
  8
CENTER
  6
CENTER
 10
804.96681611047666
 20
373.54650035383639
 30
0.0
 11
818.96681611047666
 21
373.54650035383639
 31
0.0
  0
LINE
  5
CE7
  8
0
 10
804.96681611047666
 20
336.04650035383639
 30
0.0
 11
842.96681611047666
 21
336.29650035383639
 31
0.0
  0
LINE
  5
CE8
  8
0
  6
CONTINUOUS
 10
809.21681611047654
 20
375.7115638632975
 30
0.0
 11
807.90839412557295
 21
376.46698164849522
 31
0.0
  0
ARC
  5
CE9
  8
0
  6
CONTINUOUS
 10
811.96681611047654
 20
373.54650035383639
 30
0.0
 40
3.5
 50
158.21321070173769
 51
201.78678929826219
  0
LINE
  5
CEA
  8
0
  6
CONTINUOUS
 10
808.71681611047666
 20
374.84553845951308
 30
0.0
 11
807.40839412557318
 21
375.6009562447108
 31
0.0
  0
LINE
  5
CEB
  8
0
  6
CONTINUOUS
 10
807.90839412557295
 20
370.62601905917762
 30
0.0
 11
809.21681611047654
 21
371.3814368443754
 31
0.0
  0
LINE
  5
CEC
  8
0
  6
CONTINUOUS
 10
807.40839412557318
 20
371.49204446296199
 30
0.0
 11
808.71681611047666
 21
372.24746224815971
 31
0.0
  0
LINE
  5
CED
  8
HIDDEN
  6
HIDDEN
 10
836.96681611047654
 20
351.79650035383639
 30
0.0
 11
817.96681611047666
 21
351.79650035383639
 31
0.0
  0
LINE
  5
CEE
  8
HIDDEN
  6
HIDDEN
 10
842.96681611047666
 20
352.54650035383639
 30
0.0
 11
820.96681611047666
 21
352.54650035383639
 31
0.0
  0
LINE
  5
CEF
  8
HIDDEN
  6
HIDDEN
 10
836.96681611047654
 20
343.29650035383639
 30
0.0
 11
817.96681611047666
 21
343.29650035383639
 31
0.0
  0
LINE
  5
CF0
  8
HIDDEN
  6
HIDDEN
 10
842.96681611047666
 20
342.54650035383639
 30
0.0
 11
820.96681611047666
 21
342.54650035383639
 31
0.0
  0
LINE
  5
CF1
  8
HIDDEN
  6
HIDDEN
 10
820.96681611047666
 20
342.54650035383639
 30
0.0
 11
820.96681611047666
 21
352.54650035383639
 31
0.0
  0
LINE
  5
CF2
  8
HIDDEN
  6
HIDDEN
 10
817.96681611047666
 20
343.29650035383639
 30
0.0
 11
817.96681611047666
 21
351.79650035383639
 31
0.0
  0
LINE
  5
CF3
  8
HIDDEN
  6
HIDDEN
 10
817.96681611047666
 20
343.29650035383628
 30
0.0
 11
815.51307746642078
 21
347.54650035383639
 31
0.0
  0
LINE
  5
CF4
  8
HIDDEN
  6
HIDDEN
 10
817.96681611047666
 20
351.79650035383639
 30
0.0
 11
815.51307746642055
 21
347.54650035383628
 31
0.0
  0
LINE
  5
CF5
  8
HIDDEN
  6
HIDDEN
 10
836.96681611047654
 20
342.54650035383639
 30
0.0
 11
836.96681611047654
 21
352.54650035383639
 31
0.0
  0
ARC
  5
CF6
  8
0
  6
CONTINUOUS
 10
811.96681611047654
 20
373.54650035383639
 30
0.0
 40
3.5
 50
38.213210701738312
 51
81.786789298261638
  0
ARC
  5
CF7
  8
0
  6
CONTINUOUS
 10
811.96681611047654
 20
373.54650035383639
 30
0.0
 40
3.5
 50
338.21321070173769
 51
21.786789298262239
  0
LINE
  5
CF8
  8
0
  6
CONTINUOUS
 10
811.46681611047666
 20
378.52143753936951
 30
0.0
 11
811.46681611047666
 21
377.01060196897419
 31
0.0
  0
LINE
  5
CF9
  8
0
  6
CONTINUOUS
 10
812.46681611047666
 20
378.52143753936951
 30
0.0
 11
812.46681611047666
 21
377.01060196897419
 31
0.0
  0
LINE
  5
CFA
  8
0
  6
CONTINUOUS
 10
814.71681611047666
 20
375.7115638632975
 30
0.0
 11
816.02523809538025
 21
376.46698164849522
 31
0.0
  0
LINE
  5
CFB
  8
0
  6
CONTINUOUS
 10
815.21681611047666
 20
374.84553845951308
 30
0.0
 11
816.52523809538025
 21
375.6009562447108
 31
0.0
  0
ARC
  5
CFC
  8
0
  6
CONTINUOUS
 10
811.96681611047654
 20
373.54650035383639
 30
0.0
 40
3.5
 50
278.21321070173809
 51
321.78678929826162
  0
LINE
  5
CFD
  8
0
  6
CONTINUOUS
 10
811.46681611047666
 20
370.08239873869871
 30
0.0
 11
811.46681611047666
 21
368.57156316830338
 31
0.0
  0
LINE
  5
CFE
  8
0
  6
CONTINUOUS
 10
812.46681611047666
 20
370.08239873869871
 30
0.0
 11
812.46681611047666
 21
368.57156316830338
 31
0.0
  0
LINE
  5
CFF
  8
0
  6
CONTINUOUS
 10
816.02523809538025
 20
370.62601905917762
 30
0.0
 11
814.71681611047666
 21
371.3814368443754
 31
0.0
  0
LINE
  5
D00
  8
0
  6
CONTINUOUS
 10
816.52523809538025
 20
371.49204446296199
 30
0.0
 11
815.21681611047666
 21
372.24746224815971
 31
0.0
  0
CIRCLE
  5
D01
  8
0
 10
823.96681611047666
 20
390.54650035383639
 30
0.0
 40
11.5
  0
ARC
  5
D02
  8
0
 62
     2
 10
823.96681611047666
 20
390.54650035383639
 30
0.0
 40
8.3000000000000007
 50
257.1896087413167
 51
209.60968586855631
  0
CIRCLE
  5
D03
  8
0
 10
823.96681611047666
 20
390.54650035383639
 30
0.0
 40
7.5
  0
CIRCLE
  5
D04
  8
0
 10
823.96681611047666
 20
390.54650035383639
 30
0.0
 40
5.5
  0
LINE
  5
D05
  8
CENTER
  6
CENTER
 10
809.46681611047666
 20
390.54650035383639
 30
0.0
 11
838.46681611047666
 21
390.54650035383639
 31
0.0
  0
SOLID
  5
D06
  8
DIM
  6
CONTINUOUS
 10
819.42421434525977
 20
400.90270451817059
 30
0.0
 11
820.3551579302889
 21
401.26786755229818
 31
0.0
 12
820.98517524015699
 22
398.29245528014729
 32
0.0
 13
820.98517524015699
 23
398.29245528014729
 33
0.0
  0
LINE
  5
D07
  8
HIDDEN
  6
HIDDEN
 10
836.96681611047654
 20
423.79650035383639
 30
0.0
 11
817.96681611047666
 21
423.79650035383639
 31
0.0
  0
LINE
  5
D08
  8
HIDDEN
  6
HIDDEN
 10
836.96681611047654
 20
415.29650035383639
 30
0.0
 11
817.96681611047666
 21
415.29650035383639
 31
0.0
  0
LINE
  5
D09
  8
HIDDEN
  6
HIDDEN
 10
842.96681611047666
 20
414.54650035383639
 30
0.0
 11
820.96681611047666
 21
414.54650035383639
 31
0.0
  0
LINE
  5
D0A
  8
HIDDEN
  6
HIDDEN
 10
842.96681611047666
 20
424.54650035383639
 30
0.0
 11
820.96681611047666
 21
424.54650035383639
 31
0.0
  0
LINE
  5
D0B
  8
HIDDEN
  6
HIDDEN
 10
817.96681611047666
 20
423.79650035383662
 30
0.0
 11
815.51307746642078
 21
419.54650035383639
 31
0.0
  0
LINE
  5
D0C
  8
HIDDEN
  6
HIDDEN
 10
817.96681611047666
 20
415.29650035383639
 30
0.0
 11
815.51307746642055
 21
419.54650035383651
 31
0.0
  0
LINE
  5
D0D
  8
HIDDEN
  6
HIDDEN
 10
817.96681611047666
 20
423.79650035383639
 30
0.0
 11
817.96681611047666
 21
415.29650035383639
 31
0.0
  0
LINE
  5
D0E
  8
HIDDEN
  6
HIDDEN
 10
820.96681611047666
 20
424.54650035383639
 30
0.0
 11
820.96681611047666
 21
414.54650035383639
 31
0.0
  0
LINE
  5
D0F
  8
HIDDEN
  6
HIDDEN
 10
836.96681611047654
 20
424.54650035383639
 30
0.0
 11
836.96681611047654
 21
414.54650035383639
 31
0.0
  0
LINE
  5
D10
  8
DIM
  6
CONTINUOUS
 10
856.96681611047666
 20
364.04650035383639
 30
0.0
 11
856.96681611047666
 21
403.04650035383639
 31
0.0
  0
LINE
  5
D11
  8
0
 10
848.96681611047666
 20
405.04650035383639
 30
0.0
 11
848.96681611047666
 21
362.04650035383639
 31
0.0
  0
LINE
  5
D12
  8
DIM
  6
CONTINUOUS
 10
848.96681611047666
 20
361.04650035383639
 30
0.0
 11
857.96681611047666
 21
361.04650035383639
 31
0.0
  0
ARC
  5
D13
  8
0
 10
847.96681611047666
 20
362.04650035383639
 30
0.0
 40
1.0
 50
270.0
 51
0.0
  0
SOLID
  5
D14
  8
DIM
  6
CONTINUOUS
 10
856.46681611047666
 20
364.04650035383639
 30
0.0
 11
857.46681611047654
 21
364.04650035383639
 31
0.0
 12
856.96681611047666
 22
361.04650035383639
 32
0.0
 13
856.96681611047666
 23
361.04650035383639
 33
0.0
  0
TEXT
  5
D15
  8
DIM
  6
CONTINUOUS
 10
855.46681611047666
 20
379.76078606812212
 30
0.0
 40
3.0
  1
%%c45
 50
90.0
  7
ROMANSS
 72
     1
 11
853.96681611047666
 21
383.54650035383639
 31
0.0
 73
     2
  0
LINE
  5
D16
  8
DIM
  6
CONTINUOUS
 10
848.96681611047666
 20
406.04650035383639
 30
0.0
 11
857.96681611047666
 21
406.04650035383639
 31
0.0
  0
ARC
  5
D17
  8
0
 10
847.96681611047666
 20
405.04650035383639
 30
0.0
 40
1.0
 50
0.0
 51
90.0
  0
SOLID
  5
D18
  8
DIM
  6
CONTINUOUS
 10
856.46681611047666
 20
403.04650035383639
 30
0.0
 11
857.46681611047654
 21
403.04650035383639
 31
0.0
 12
856.96681611047666
 22
406.04650035383639
 32
0.0
 13
856.96681611047666
 23
406.04650035383639
 33
0.0
  0
LINE
  5
D19
  8
0
 10
723.96681611047666
 20
626.48577588536057
 30
0.0
 11
723.96681611047666
 21
491.48577588536068
 31
0.0
  0
LINE
  5
D1A
  8
0
 10
804.96681611047666
 20
586.48577588536079
 30
0.0
 11
804.96681611047666
 21
491.48577588536079
 31
0.0
  0
LINE
  5
D1B
  8
0
 10
842.96681611047666
 20
586.23577588536068
 30
0.0
 11
842.96681611047666
 21
491.73577588536091
 31
0.0
  0
LINE
  5
D1C
  8
CENTER
  6
CENTER
 10
723.96681611047666
 20
502.98577588536079
 30
0.0
 11
845.96681611047688
 21
502.98577588536079
 31
0.0
  0
LINE
  5
D1D
  8
0
 62
     7
 10
723.96681611047666
 20
563.62199740074152
 30
0.0
 11
804.96681611047666
 21
563.62199740074152
 31
0.0
  0
LINE
  5
D1E
  8
0
 10
723.96681611047666
 20
495.48577588536079
 30
0.0
 11
804.96681611047666
 21
495.48577588536079
 31
0.0
  0
LINE
  5
D1F
  8
0
 62
     7
 10
723.96681611047666
 20
514.34955436998018
 30
0.0
 11
804.96681611047666
 21
514.34955436998018
 31
0.0
  0
LINE
  5
D20
  8
0
 10
723.96681611047666
 20
427.04650035383639
 30
0.0
 11
804.96681611047666
 21
427.04650035383639
 31
0.0
  0
LINE
  5
D21
  8
0
 10
719.46681611047666
 20
442.04650035383662
 30
0.0
 11
719.46681611047666
 21
431.04650035383639
 31
0.0
  0
LINE
  5
D22
  8
0
 10
718.46681611047666
 20
443.04650035383651
 30
0.0
 11
719.46681611047666
 21
442.04650035383662
 31
0.0
  0
LINE
  5
D23
  8
CENTER
  6
CENTER
 10
709.39910783376149
 20
599.98577588536068
 30
0.0
 11
737.96681611047654
 21
599.98577588536068
 31
0.0
  0
LINE
  5
D24
  8
0
  6
CONTINUOUS
 10
730.84095005966822
 20
610.93577588536152
 30
0.0
 11
731.96681611047654
 21
608.98577588536068
 31
0.0
  0
POLYLINE
  5
D25
  8
0
  6
CONTINUOUS
 66
     1
 10
0.0
 20
0.0
 30
0.0
  0
VERTEX
  5
1820
  8
0
  6
CONTINUOUS
 10
731.96681611047654
 20
599.98577588536068
 30
0.0
 42
0.0851703918331015
  0
VERTEX
  5
1821
  8
0
  6
CONTINUOUS
 10
730.9348161104773
 20
605.98577588536079
 30
0.0
 42
0.3910851735909245
  0
VERTEX
  5
1822
  8
0
  6
CONTINUOUS
 10
731.40388308507329
 20
609.96077588536104
 30
0.0
  0
SEQEND
  5
1823
  8
0
  6
CONTINUOUS
  0
LINE
  5
D2A
  8
0
  6
CONTINUOUS
 10
723.96681611047654
 20
605.98577588536079
 30
0.0
 11
730.9348161104773
 21
605.98577588536079
 31
0.0
  0
LINE
  5
D2B
  8
0
  6
CONTINUOUS
 10
723.96681611047654
 20
593.98577588536079
 30
0.0
 11
730.9348161104773
 21
593.98577588536079
 31
0.0
  0
LINE
  5
D2C
  8
0
  6
CONTINUOUS
 10
732.96681611047654
 20
605.98577588536079
 30
0.0
 11
732.96681611047666
 21
593.98577588536079
 31
0.0
  0
LINE
  5
D2D
  8
0
  6
CONTINUOUS
 10
734.96681611047654
 20
603.98577588536068
 30
0.0
 11
734.96681611047654
 21
595.98577588536068
 31
0.0
  0
LINE
  5
D2E
  8
0
  6
CONTINUOUS
 10
731.96681611047654
 20
593.98577588536079
 30
0.0
 11
732.96681611047654
 21
593.98577588536079
 31
0.0
  0
LINE
  5
D2F
  8
0
  6
CONTINUOUS
 62
     2
 10
731.96681611047666
 20
595.18577588536152
 30
0.0
 11
734.16681611047716
 21
595.18577588536152
 31
0.0
  0
LINE
  5
D30
  8
0
  6
CONTINUOUS
 10
732.96681611047654
 20
593.98577588536079
 30
0.0
 11
734.96681611047654
 21
595.98577588536068
 31
0.0
  0
LINE
  5
D31
  8
0
  6
CONTINUOUS
 62
     2
 10
731.96681611047666
 20
604.78577588535995
 30
0.0
 11
734.16681611047716
 21
604.78577588535995
 31
0.0
  0
LINE
  5
D32
  8
0
  6
CONTINUOUS
 10
731.96681611047654
 20
605.98577588536079
 30
0.0
 11
732.96681611047654
 21
605.98577588536079
 31
0.0
  0
LINE
  5
D33
  8
0
  6
CONTINUOUS
 10
732.96681611047654
 20
605.98577588536079
 30
0.0
 11
734.96681611047654
 21
603.98577588536068
 31
0.0
  0
LINE
  5
D34
  8
0
  6
CONTINUOUS
 10
723.96681611047654
 20
610.93577588536152
 30
0.0
 11
730.84095005966822
 21
610.93577588536152
 31
0.0
  0
LINE
  5
D35
  8
CENTER
  6
CENTER
 10
702.46681611047666
 20
533.98577588536068
 30
0.0
 11
722.46681611047666
 21
533.98577588536068
 31
0.0
  0
LINE
  5
D36
  8
CENTER
  6
CENTER
 10
693.38712632725969
 20
553.06546566857764
 30
0.0
 11
704.70083482624432
 21
541.75175716959302
 31
0.0
  0
CIRCLE
  5
D37
  8
0
  6
CONTINUOUS
 10
699.04398057675201
 20
547.40861141908533
 30
0.0
 40
3.399999999999999
  0
ARC
  5
D38
  8
0
  6
CONTINUOUS
 62
     2
 10
699.04398057675201
 20
547.40861141908533
 30
0.0
 40
4.0
 50
210.50278965468459
 51
157.4755877848952
  0
CIRCLE
  5
D39
  8
0
  6
CONTINUOUS
 10
712.46681611047666
 20
533.98577588536068
 30
0.0
 40
4.25
  0
ARC
  5
D3A
  8
0
  6
CONTINUOUS
 62
     2
 10
712.46681611047666
 20
533.98577588536068
 30
0.0
 40
5.0
 50
161.29065264439251
 51
115.2003954081225
  0
LINE
  5
D3B
  8
CENTER
  6
CENTER
 10
712.46681611047666
 20
543.98577588536079
 30
0.0
 11
712.46681611047666
 21
523.98577588536079
 31
0.0
  0
TEXT
  5
D3C
  8
DIM
  6
CONTINUOUS
 10
805.71235214973058
 20
447.46341949416092
 30
0.0
 40
3.0
  1
2-G3/8
  7
ROMANSS
 11
805.71235214973058
 21
448.96341949416092
 31
0.0
 73
     2
  0
LINE
  5
D3D
  8
DIM
  6
CONTINUOUS
 10
802.28621838378263
 20
445.9634194941608
 30
0.0
 11
821.08735214973046
 21
445.9634194941608
 31
0.0
  0
LINE
  5
D3E
  8
0
 10
804.96681611047666
 20
431.04650035383639
 30
0.0
 11
842.96681611047666
 21
430.79650035383639
 31
0.0
  0
LINE
  5
D3F
  8
0
 10
847.96681611047666
 20
561.48577588536079
 30
0.0
 11
842.96681611047666
 21
561.48577588536079
 31
0.0
  0
LINE
  5
D40
  8
0
 10
847.96681611047666
 20
516.48577588536079
 30
0.0
 11
842.96681611047666
 21
516.48577588536079
 31
0.0
  0
LINE
  5
D41
  8
0
 10
804.96681611047666
 20
491.48577588536079
 30
0.0
 11
842.96681611047666
 21
491.73577588536091
 31
0.0
  0
LINE
  5
D42
  8
HIDDEN
  6
HIDDEN
 10
836.96681611047654
 20
497.98577588536091
 30
0.0
 11
836.96681611047654
 21
507.98577588536079
 31
0.0
  0
LINE
  5
D43
  8
CENTER
  6
CENTER
 10
823.96681611047666
 20
505.99574668914943
 30
0.0
 11
823.96681611047677
 21
486.32304057774559
 31
0.0
  0
LINE
  5
D44
  8
HIDDEN
  6
HIDDEN
 10
817.96681611047666
 20
498.73577588536068
 30
0.0
 11
817.96681611047666
 21
507.23577588536091
 31
0.0
  0
LINE
  5
D45
  8
HIDDEN
  6
HIDDEN
 10
820.96681611047666
 20
497.98577588536079
 30
0.0
 11
820.96681611047666
 21
507.98577588536079
 31
0.0
  0
LINE
  5
D46
  8
HIDDEN
  6
HIDDEN
 10
817.96681611047666
 20
498.73577588536062
 30
0.0
 11
815.51307746642078
 21
502.98577588536079
 31
0.0
  0
LINE
  5
D47
  8
CENTER
  6
CENTER
 10
811.96681611047654
 20
505.81183045599113
 30
0.0
 11
811.96681611047654
 21
486.37101989613461
 31
0.0
  0
LINE
  5
D48
  8
HIDDEN
  6
HIDDEN
 10
842.96681611047666
 20
497.98577588536091
 30
0.0
 11
820.96681611047666
 21
497.98577588536079
 31
0.0
  0
LINE
  5
D49
  8
HIDDEN
  6
HIDDEN
 10
836.96681611047654
 20
498.73577588536091
 30
0.0
 11
817.96681611047666
 21
498.73577588536068
 31
0.0
  0
LINE
  5
D4A
  8
HIDDEN
  6
HIDDEN
 10
842.96681611047666
 20
507.98577588536079
 30
0.0
 11
820.96681611047666
 21
507.98577588536079
 31
0.0
  0
LINE
  5
D4B
  8
HIDDEN
  6
HIDDEN
 10
836.96681611047654
 20
507.23577588536091
 30
0.0
 11
817.96681611047666
 21
507.23577588536091
 31
0.0
  0
LINE
  5
D4C
  8
HIDDEN
  6
HIDDEN
 10
817.96681611047666
 20
507.23577588536091
 30
0.0
 11
815.51307746642055
 21
502.98577588536079
 31
0.0
  0
LINE
  5
D4D
  8
0
 10
848.96681611047666
 20
560.48577588536079
 30
0.0
 11
848.96681611047666
 21
517.48577588536091
 31
0.0
  0
ARC
  5
D4E
  8
0
 10
847.96681611047666
 20
517.48577588536091
 30
0.0
 40
1.0
 50
270.0
 51
0.0
  0
ARC
  5
D4F
  8
0
 10
847.96681611047666
 20
560.48577588536079
 30
0.0
 40
1.0
 50
0.0
 51
90.0
  0
LINE
  5
D50
  8
0
 10
723.96681611047666
 20
582.48577588536079
 30
0.0
 11
804.96681611047666
 21
582.48577588536079
 31
0.0
  0
TEXT
  5
D51
  8
DIM
  6
CONTINUOUS
 10
739.83569148083689
 20
637.22457869577579
 30
0.0
 40
3.0
  1
2x4-M10x15L
  7
ROMANSS
 11
739.83569148083689
 21
638.7245786957759
 31
0.0
 73
     2
  0
LINE
  5
D52
  8
DIM
  6
CONTINUOUS
 10
738.83569148083689
 20
635.7245786957759
 30
0.0
 11
766.96069148083689
 21
635.7245786957759
 31
0.0
  0
CIRCLE
  5
D53
  8
0
  6
CONTINUOUS
 10
712.46681611047666
 20
615.98577588536079
 30
0.0
 40
4.25
  0
ARC
  5
D54
  8
0
  6
CONTINUOUS
 62
     2
 10
712.46681611047666
 20
615.98577588536079
 30
0.0
 40
5.0
 50
161.29065264439421
 51
115.2003954081208
  0
LINE
  5
D55
  8
CENTER
  6
CENTER
 10
712.46681611047666
 20
625.98577588536068
 30
0.0
 11
712.46681611047666
 21
605.98577588536079
 31
0.0
  0
SOLID
  5
D56
  8
DIM
  6
CONTINUOUS
 10
674.45689409847762
 20
465.65430259858772
 30
0.0
 11
674.47567936980658
 21
464.6544790573659
 31
0.0
 12
671.466816110477
 22
465.09803501399
 32
0.0
 13
671.466816110477
 23
465.09803501399
 33
0.0
  0
LINE
  5
D57
  8
DIM
  6
CONTINUOUS
 10
718.32197468292145
 20
621.42286375434367
 30
0.0
 11
735.83569148083689
 21
635.7245786957759
 31
0.0
  0
LINE
  5
D58
  8
CENTER
  6
CENTER
 10
702.46681611047666
 20
615.98577588536079
 30
0.0
 11
722.46681611047666
 21
615.98577588536079
 31
0.0
  0
SOLID
  5
D59
  8
DIM
  6
CONTINUOUS
 10
718.63822666266515
 20
621.03558519140961
 30
0.0
 11
718.00572270317775
 21
621.81014231727772
 31
0.0
 12
715.99830330531745
 22
619.52535187588194
 32
0.0
 13
715.99830330531745
 23
619.52535187588194
 33
0.0
  0
SOLID
  5
D5A
  8
DIM
  6
CONTINUOUS
 10
709.46681611047666
 20
634.98577588536079
 30
0.0
 11
709.46681611047666
 21
633.98577588536068
 31
0.0
 12
712.46681611047666
 22
634.48577588536068
 32
0.0
 13
712.46681611047666
 23
634.48577588536068
 33
0.0
  0
LINE
  5
D5B
  8
DIM
  6
CONTINUOUS
 10
712.46681611047666
 20
626.98577588536079
 30
0.0
 11
712.46681611047666
 21
635.48577588536079
 31
0.0
  0
LINE
  5
D5C
  8
DIM
  6
CONTINUOUS
 10
735.83569148083689
 20
635.7245786957759
 30
0.0
 11
738.83569148083689
 21
635.7245786957759
 31
0.0
  0
LINE
  5
D5D
  8
0
 10
804.96681611047666
 20
586.48577588536079
 30
0.0
 11
842.96681611047666
 21
586.23577588536068
 31
0.0
  0
LINE
  5
D5E
  8
HIDDEN
  6
HIDDEN
 10
842.96681611047666
 20
579.98577588536068
 30
0.0
 11
820.96681611047666
 21
579.98577588536068
 31
0.0
  0
LINE
  5
D5F
  8
HIDDEN
  6
HIDDEN
 10
842.96681611047666
 20
569.98577588536079
 30
0.0
 11
820.96681611047666
 21
569.98577588536079
 31
0.0
  0
LINE
  5
D60
  8
HIDDEN
  6
HIDDEN
 10
836.96681611047654
 20
570.73577588536079
 30
0.0
 11
817.96681611047666
 21
570.73577588536079
 31
0.0
  0
LINE
  5
D61
  8
HIDDEN
  6
HIDDEN
 10
836.96681611047654
 20
579.23577588536079
 30
0.0
 11
817.96681611047666
 21
579.23577588536079
 31
0.0
  0
LINE
  5
D62
  8
HIDDEN
  6
HIDDEN
 10
817.96681611047666
 20
570.73577588536079
 30
0.0
 11
815.51307746642055
 21
574.98577588536068
 31
0.0
  0
LINE
  5
D63
  8
HIDDEN
  6
HIDDEN
 10
817.96681611047666
 20
579.23577588536079
 30
0.0
 11
817.96681611047666
 21
570.73577588536079
 31
0.0
  0
LINE
  5
D64
  8
HIDDEN
  6
HIDDEN
 10
817.96681611047666
 20
579.23577588536091
 30
0.0
 11
815.51307746642078
 21
574.98577588536068
 31
0.0
  0
LINE
  5
D65
  8
HIDDEN
  6
HIDDEN
 10
820.96681611047666
 20
579.98577588536068
 30
0.0
 11
820.96681611047666
 21
569.98577588536079
 31
0.0
  0
LINE
  5
D66
  8
HIDDEN
  6
HIDDEN
 10
836.96681611047654
 20
579.98577588536068
 30
0.0
 11
836.96681611047654
 21
569.98577588536079
 31
0.0
  0
LINE
  5
D67
  8
0
 10
304.1558262389575
 20
431.04650035383639
 30
0.0
 11
304.1558262389575
 21
336.04650035383639
 31
0.0
  0
ARC
  5
D68
  8
0
 10
427.65582623895727
 20
419.54650035383639
 30
0.0
 40
11.25
 50
0.0
 51
90.0
  0
ARC
  5
D69
  8
0
 10
427.65582623895727
 20
419.54650035383639
 30
0.0
 40
11.5
 50
0.0
 51
90.0
  0
CIRCLE
  5
D6A
  8
0
 10
427.65582623895727
 20
419.54650035383639
 30
0.0
 40
9.0
  0
LINE
  5
D6B
  8
0
 10
439.15582623895727
 20
431.04650035383639
 30
0.0
 11
439.15582623895727
 21
336.04650035383651
 31
0.0
  0
LINE
  5
D6C
  8
CENTER
  6
CENTER
 10
391.6558262389575
 20
434.04650035383639
 30
0.0
 11
391.6558262389575
 21
333.04650035383639
 31
0.0
  0
LINE
  5
D6D
  8
0
 10
401.65582623895727
 20
425.29650035383639
 30
0.0
 11
401.65582623895727
 21
405.17980800662042
 31
0.0
  0
LINE
  5
D6E
  8
0
 10
390.35582623895749
 20
425.29650035383639
 30
0.0
 11
390.35582623895749
 21
407.88597446483573
 31
0.0
  0
LINE
  5
D6F
  8
0
 10
392.9558262389574
 20
425.29650035383639
 30
0.0
 11
392.9558262389574
 21
407.88597446483573
 31
0.0
  0
LINE
  5
D70
  8
0
 10
381.6558262389575
 20
425.29650035383639
 30
0.0
 11
381.6558262389575
 21
405.17980800662042
 31
0.0
  0
ARC
  5
D71
  8
0
 10
367.31505005531892
 20
425.29650035383639
 30
0.0
 40
1.5
 50
90.0
 51
206.25121393499961
  0
LINE
  5
D72
  8
CENTER
  6
CENTER
 10
427.65582623895727
 20
430.04650035383639
 30
0.0
 11
427.65582623895727
 21
409.04650035383639
 31
0.0
  0
ARC
  5
D73
  8
0
 10
415.9966024225962
 20
425.29650035383639
 30
0.0
 40
1.5
 50
333.74878606499152
 51
90.0
  0
ARC
  5
D74
  8
0
 10
355.6558262389575
 20
419.54650035383639
 30
0.0
 40
11.25
 50
90.0
 51
180.0
  0
ARC
  5
D75
  8
0
 10
355.6558262389575
 20
419.54650035383639
 30
0.0
 40
11.5
 50
90.0
 51
180.0
  0
CIRCLE
  5
D76
  8
0
 10
355.6558262389575
 20
419.54650035383639
 30
0.0
 40
9.0
  0
LINE
  5
D77
  8
CENTER
  6
CENTER
 10
355.6558262389575
 20
447.68232951183222
 30
0.0
 11
355.6558262389575
 21
321.04650035383639
 31
0.0
  0
LINE
  5
D78
  8
CENTER
  6
CENTER
 10
442.1090432762968
 20
376.54650035383639
 30
0.0
 11
426.10624982536268
 21
376.54650035383639
 31
0.0
  0
LINE
  5
D79
  8
CENTER
  6
CENTER
 10
442.5958438914991
 20
393.54650035383639
 30
0.0
 11
426.58722363038231
 21
393.54650035383639
 31
0.0
  0
ARC
  5
D7A
  8
0
 10
427.65582623895727
 20
347.54650035383639
 30
0.0
 40
11.25
 50
270.0
 51
0.0
  0
ARC
  5
D7B
  8
0
 10
427.65582623895727
 20
347.54650035383639
 30
0.0
 40
11.5
 50
270.0
 51
0.0
  0
LINE
  5
D7C
  8
CENTER
  6
CENTER
 10
454.15582623895739
 20
360.54650035383639
 30
0.0
 11
418.94240221758088
 21
360.54650035383639
 31
0.0
  0
LINE
  5
D7D
  8
0
 10
439.15582623895727
 20
336.04650035383651
 30
0.0
 11
304.1558262389575
 21
336.04650035383639
 31
0.0
  0
LINE
  5
D7E
  8
CENTER
  6
CENTER
 10
442.15582623895739
 20
383.54650035383639
 30
0.0
 11
341.1558262389575
 21
383.54650035383628
 31
0.0
  0
LINE
  5
D7F
  8
0
 10
307.6558262389575
 20
336.04650035383639
 30
0.0
 11
307.6558262389575
 21
325.04650035383639
 31
0.0
  0
LINE
  5
D80
  8
0
 10
403.6558262389575
 20
336.04650035383639
 30
0.0
 11
403.65582623895739
 21
325.04650035383651
 31
0.0
  0
LINE
  5
D81
  8
0
 10
403.65582623895739
 20
325.04650035383639
 30
0.0
 11
307.6558262389575
 21
325.04650035383639
 31
0.0
  0
LINE
  5
D82
  8
0
 10
402.65582623895727
 20
324.04650035383651
 30
0.0
 11
308.6558262389575
 21
324.04650035383639
 31
0.0
  0
LINE
  5
D83
  8
0
 10
307.6558262389575
 20
325.04650035383639
 30
0.0
 11
308.6558262389575
 21
324.04650035383639
 31
0.0
  0
LINE
  5
D84
  8
0
 10
403.65582623895739
 20
325.04650035383651
 30
0.0
 11
402.65582623895727
 21
324.04650035383651
 31
0.0
  0
LINE
  5
D85
  8
0
 10
367.31505005531892
 20
340.29650035383639
 30
0.0
 11
388.85582623895749
 21
340.29650035383639
 31
0.0
  0
ARC
  5
D86
  8
0
 10
391.6558262389575
 20
383.54650035383639
 30
0.0
 40
35.5
 50
229.9885419755561
 51
251.4071774505733
  0
LINE
  5
D87
  8
0
 10
365.92300540614372
 20
354.98525239627628
 30
0.0
 11
375.92361160184839
 21
364.98585859198101
 31
0.0
  0
ARC
  5
D88
  8
0
 10
391.6558262389575
 20
383.54650035383639
 30
0.0
 40
23.0
 50
186.56242786863399
 51
216.7867892982616
  0
ARC
  5
D89
  8
0
 10
372.03452430532218
 20
368.87494588850711
 30
0.0
 40
1.5
 50
315.00000000000301
 51
36.786789298261297
  0
ARC
  5
D8A
  8
0
 10
391.6558262389575
 20
383.54650035383639
 30
0.0
 40
35.5
 50
108.5928225494267
 51
130.01145802444381
  0
LINE
  5
D8B
  8
0
 10
365.92300540614372
 20
412.10774831139639
 30
0.0
 11
375.92361160184839
 21
402.10714211569172
 31
0.0
  0
ARC
  5
D8C
  8
0
 10
391.6558262389575
 20
383.54650035383639
 30
0.0
 40
23.0
 50
143.21321070173809
 51
173.4375721313659
  0
ARC
  5
D8D
  8
0
 10
372.03452430532241
 20
398.21805481916567
 30
0.0
 40
1.5
 50
323.21321070173508
 51
44.999999999998458
  0
CIRCLE
  5
D8E
  8
0
 10
391.6558262389575
 20
383.54650035383639
 30
0.0
 40
22.5
  0
LINE
  5
D8F
  8
0
 10
427.65582623895727
 20
336.29650035383639
 30
0.0
 11
355.6558262389575
 21
336.29650035383639
 31
0.0
  0
LINE
  5
D90
  8
0
 10
348.4058262389575
 20
359.20572417019758
 30
0.0
 11
348.4058262389575
 21
380.74650035383638
 31
0.0
  0
LINE
  5
D91
  8
0
 10
344.4058262389575
 20
419.54650035383639
 30
0.0
 11
344.4058262389575
 21
347.54650035383639
 31
0.0
  0
LINE
  5
D92
  8
0
 10
344.1558262389575
 20
419.54650035383639
 30
0.0
 11
344.1558262389575
 21
347.54650035383639
 31
0.0
  0
CIRCLE
  5
D93
  8
0
 10
355.6558262389575
 20
347.54650035383639
 30
0.0
 40
9.0
  0
LINE
  5
D94
  8
CENTER
  6
CENTER
 10
366.1558262389575
 20
347.54650035383639
 30
0.0
 11
345.1558262389575
 21
347.54650035383639
 31
0.0
  0
POLYLINE
  5
D95
  8
0
  6
CONTINUOUS
 66
     1
 10
0.0
 20
0.0
 30
0.0
 70
     1
  0
VERTEX
  5
1824
  8
0
  6
CONTINUOUS
 10
358.54257758490559
 20
352.54650035383639
 30
0.0
  0
VERTEX
  5
1825
  8
0
  6
CONTINUOUS
 10
361.42932893085373
 20
347.54650035383639
 30
0.0
  0
VERTEX
  5
1826
  8
0
  6
CONTINUOUS
 10
358.54257758490559
 20
342.54650035383639
 30
0.0
  0
VERTEX
  5
1827
  8
0
  6
CONTINUOUS
 10
352.7690748930093
 20
342.54650035383639
 30
0.0
  0
VERTEX
  5
1828
  8
0
  6
CONTINUOUS
 10
349.88232354706139
 20
347.54650035383639
 30
0.0
  0
VERTEX
  5
1829
  8
0
  6
CONTINUOUS
 10
352.7690748930093
 20
352.54650035383639
 30
0.0
  0
SEQEND
  5
182A
  8
0
  6
CONTINUOUS
  0
ARC
  5
D9D
  8
0
 10
355.6558262389575
 20
347.54650035383639
 30
0.0
 40
11.25
 50
180.0
 51
270.0
  0
ARC
  5
D9E
  8
0
 10
355.6558262389575
 20
347.54650035383639
 30
0.0
 40
11.5
 50
180.0
 51
270.0
  0
ARC
  5
D9F
  8
0
 10
355.6558262389575
 20
347.54650035383639
 30
0.0
 40
11.5
 50
333.74878606508207
 51
29.381501724351651
  0
ARC
  5
DA0
  8
0
 10
367.31505005531892
 20
341.79650035383639
 30
0.0
 40
1.5
 50
153.74878606500999
 51
270.0
  0
ARC
  5
DA1
  8
0
 10
366.98366557792349
 20
353.92459222449651
 30
0.0
 40
1.5
 50
135.0
 51
209.38150172435169
  0
ARC
  5
DA2
  8
0
 10
355.6558262389575
 20
347.54650035383639
 30
0.0
 40
11.5
 50
60.618498275648491
 51
116.2512139349554
  0
LINE
  5
DA3
  8
0
 10
349.9058262389575
 20
373.54650035383639
 30
0.0
 11
370.02251858617348
 21
373.54650035383639
 31
0.0
  0
ARC
  5
DA4
  8
0
 10
349.9058262389575
 20
359.20572417019758
 30
0.0
 40
1.5
 50
180.0
 51
296.2512139349559
  0
ARC
  5
DA5
  8
0
 10
349.9058262389575
 20
372.04650035383639
 30
0.0
 40
1.5
 50
90.0
 51
180.0
  0
LINE
  5
DA6
  8
0
 10
363.0945782813975
 20
357.81367952102249
 30
0.0
 11
373.09518447710212
 21
367.81428571672723
 31
0.0
  0
ARC
  5
DA7
  8
0
 10
391.6558262389575
 20
383.54650035383639
 30
0.0
 40
35.5
 50
198.5928225494265
 51
220.0114580244437
  0
ARC
  5
DA8
  8
0
 10
365.23172827636841
 20
361.36504307836663
 30
0.0
 40
1.0
 50
220.01145802444381
 51
315.0
  0
ARC
  5
DA9
  8
0
 10
362.03391810961767
 20
358.87433969280238
 30
0.0
 40
1.5
 50
240.6184982756493
 51
315.00000000000301
  0
ARC
  5
DAA
  8
0
 10
369.47436896348768
 20
357.12240239124731
 30
0.0
 40
1.0
 50
135.0
 51
229.98854197555809
  0
ARC
  5
DAB
  8
0
 10
358.95643786547248
 20
372.54650035383639
 30
0.0
 40
1.0
 50
90.0
 51
198.59282254942551
  0
ARC
  5
DAC
  8
0
 10
370.02251858617348
 20
372.04650035383639
 30
0.0
 40
1.5
 50
27.994561732254301
 51
90.0
  0
LINE
  5
DAD
  8
0
 10
348.4058262389575
 20
407.88727653747509
 30
0.0
 11
348.4058262389575
 21
386.34650035383629
 31
0.0
  0
ARC
  5
DAE
  8
0
 10
391.6558262389575
 20
383.54650035383639
 30
0.0
 40
35.5
 50
139.98854197555599
 51
161.4071774505733
  0
LINE
  5
DAF
  8
0
 10
363.0945782813975
 20
409.27932118665018
 30
0.0
 11
373.09518447710212
 21
399.2787149909455
 31
0.0
  0
LINE
  5
DB0
  8
0
 10
349.9058262389575
 20
393.54650035383639
 30
0.0
 11
370.02251858617348
 21
393.54650035383639
 31
0.0
  0
LINE
  5
DB1
  8
0
 10
349.9058262389575
 20
384.8465003538364
 30
0.0
 11
367.31635212795828
 21
384.8465003538364
 31
0.0
  0
LINE
  5
DB2
  8
0
 10
349.9058262389575
 20
382.2465003538365
 30
0.0
 11
367.31635212795828
 21
382.2465003538365
 31
0.0
  0
ARC
  5
DB3
  8
0
 10
349.9058262389575
 20
380.74650035383638
 30
0.0
 40
1.5
 50
90.0
 51
180.0
  0
ARC
  5
DB4
  8
0
 10
349.9058262389575
 20
386.34650035383629
 30
0.0
 40
1.5
 50
180.0
 51
270.0
  0
ARC
  5
DB5
  8
0
 10
349.9058262389575
 20
395.04650035383639
 30
0.0
 40
1.5
 50
180.0
 51
270.0
  0
ARC
  5
DB6
  8
0
 10
367.31635212795828
 20
380.74650035383638
 30
0.0
 40
1.5
 50
6.5624278686345097
 51
90.0
  0
ARC
  5
DB7
  8
0
 10
367.31635212795828
 20
386.34650035383629
 30
0.0
 40
1.5
 50
270.0
 51
353.43757213136541
  0
ARC
  5
DB8
  8
0
 10
358.95643786547248
 20
394.54650035383639
 30
0.0
 40
1.0
 50
161.40717745057441
 51
270.0
  0
ARC
  5
DB9
  8
0
 10
370.02251858617348
 20
395.04650035383639
 30
0.0
 40
1.5
 50
270.0
 51
332.00543826774572
  0
LINE
  5
DBA
  8
CENTER
  6
CENTER
 10
366.1558262389575
 20
419.54650035383639
 30
0.0
 11
345.1558262389575
 21
419.54650035383639
 31
0.0
  0
POLYLINE
  5
DBB
  8
0
  6
CONTINUOUS
 66
     1
 10
0.0
 20
0.0
 30
0.0
 70
     1
  0
VERTEX
  5
182B
  8
0
  6
CONTINUOUS
 10
358.54257758490559
 20
424.54650035383639
 30
0.0
  0
VERTEX
  5
182C
  8
0
  6
CONTINUOUS
 10
361.42932893085373
 20
419.54650035383639
 30
0.0
  0
VERTEX
  5
182D
  8
0
  6
CONTINUOUS
 10
358.54257758490559
 20
414.54650035383639
 30
0.0
  0
VERTEX
  5
182E
  8
0
  6
CONTINUOUS
 10
352.7690748930093
 20
414.54650035383639
 30
0.0
  0
VERTEX
  5
182F
  8
0
  6
CONTINUOUS
 10
349.88232354706139
 20
419.54650035383639
 30
0.0
  0
VERTEX
  5
1830
  8
0
  6
CONTINUOUS
 10
352.7690748930093
 20
424.54650035383628
 30
0.0
  0
SEQEND
  5
1831
  8
0
  6
CONTINUOUS
  0
ARC
  5
DC3
  8
0
 10
355.6558262389575
 20
419.54650035383639
 30
0.0
 40
11.5
 50
243.74878606504441
 51
299.38150172435149
  0
ARC
  5
DC4
  8
0
 10
349.9058262389575
 20
407.88727653747509
 30
0.0
 40
1.5
 50
63.748786065043092
 51
180.0
  0
ARC
  5
DC5
  8
0
 10
366.98366557792349
 20
413.16840848317628
 30
0.0
 40
1.5
 50
150.61849827564831
 51
225.00000000000151
  0
ARC
  5
DC6
  8
0
 10
365.23172827636841
 20
405.7279576293061
 30
0.0
 40
1.0
 50
45.0
 51
139.98854197555389
  0
ARC
  5
DC7
  8
0
 10
362.03391810961767
 20
408.21866101487041
 30
0.0
 40
1.5
 50
44.999999999998458
 51
119.3815017243527
  0
ARC
  5
DC8
  8
0
 10
369.47436896348768
 20
409.97059831642548
 30
0.0
 40
1.0
 50
130.0114580244435
 51
225.0
  0
ARC
  5
DC9
  8
0
 10
355.6558262389575
 20
419.54650035383639
 30
0.0
 40
11.5
 50
330.61849827564839
 51
26.25121393492735
  0
LINE
  5
DCA
  8
0
 10
434.90582623895739
 20
359.20572417019758
 30
0.0
 11
434.90582623895739
 21
380.74650035383638
 31
0.0
  0
ARC
  5
DCB
  8
0
 10
391.6558262389575
 20
383.54650035383639
 30
0.0
 40
23.0
 50
323.21321070173809
 51
353.43757213136593
  0
ARC
  5
DCC
  8
0
 10
391.6558262389575
 20
383.54650035383639
 30
0.0
 40
35.5
 50
288.59282254942661
 51
310.0114580244437
  0
ARC
  5
DCD
  8
0
 10
406.32738070428661
 20
363.92519842020118
 30
0.0
 40
1.5
 50
45.0
 51
126.78678929826
  0
LINE
  5
DCE
  8
0
 10
415.9966024225962
 20
340.29650035383639
 30
0.0
 11
394.4558262389574
 21
340.29650035383639
 31
0.0
  0
LINE
  5
DCF
  8
0
 10
392.9558262389574
 20
341.79650035383639
 30
0.0
 11
392.9558262389574
 21
359.20702624283717
 31
0.0
  0
LINE
  5
DD0
  8
0
 10
390.35582623895749
 20
341.79650035383639
 30
0.0
 11
390.35582623895749
 21
359.20702624283717
 31
0.0
  0
LINE
  5
DD1
  8
0
 10
401.65582623895727
 20
341.79650035383639
 30
0.0
 11
401.65582623895727
 21
361.91319270105231
 31
0.0
  0
LINE
  5
DD2
  8
0
 10
381.6558262389575
 20
341.79650035383639
 30
0.0
 11
381.6558262389575
 21
361.91319270105231
 31
0.0
  0
ARC
  5
DD3
  8
0
 10
388.85582623895749
 20
341.79650035383639
 30
0.0
 40
1.5
 50
270.0
 51
0.0
  0
ARC
  5
DD4
  8
0
 10
380.15582623895739
 20
341.79650035383639
 30
0.0
 40
1.5
 50
270.0
 51
0.0
  0
ARC
  5
DD5
  8
0
 10
380.6558262389575
 20
350.84711198035149
 30
0.0
 40
1.0
 50
251.4071774505743
 51
0.0
  0
ARC
  5
DD6
  8
0
 10
394.4558262389574
 20
341.79650035383639
 30
0.0
 40
1.5
 50
180.0
 51
270.0
  0
ARC
  5
DD7
  8
0
 10
403.15582623895727
 20
341.79650035383639
 30
0.0
 40
1.5
 50
180.0
 51
270.0
  0
ARC
  5
DD8
  8
0
 10
402.65582623895727
 20
350.84711198035149
 30
0.0
 40
1.0
 50
180.0
 51
288.59282254942548
  0
ARC
  5
DD9
  8
0
 10
388.85582623895749
 20
359.20702624283717
 30
0.0
 40
1.5
 50
0.0
 51
83.437572131365485
  0
ARC
  5
DDA
  8
0
 10
391.6558262389575
 20
383.54650035383639
 30
0.0
 40
23.0
 50
233.21321070173809
 51
263.43757213136581
  0
ARC
  5
DDB
  8
0
 10
380.15582623895739
 20
361.91319270105231
 30
0.0
 40
1.5
 50
0.0
 51
62.005438267747621
  0
ARC
  5
DDC
  8
0
 10
376.98427177362811
 20
363.92519842020118
 30
0.0
 40
1.5
 50
53.213210701737388
 51
135.00000000000151
  0
ARC
  5
DDD
  8
0
 10
391.6558262389575
 20
383.54650035383639
 30
0.0
 40
23.0
 50
276.56242786863407
 51
306.78678929826168
  0
ARC
  5
DDE
  8
0
 10
394.4558262389574
 20
359.20702624283717
 30
0.0
 40
1.5
 50
96.562427868634515
 51
180.0
  0
ARC
  5
DDF
  8
0
 10
403.15582623895727
 20
361.91319270105231
 30
0.0
 40
1.5
 50
117.99456173225229
 51
180.0
  0
CIRCLE
  5
DE0
  8
0
 10
427.65582623895727
 20
347.54650035383639
 30
0.0
 40
9.0
  0
LINE
  5
DE1
  8
0
 10
417.38864707177112
 20
354.98525239627628
 30
0.0
 11
407.3880408760665
 21
364.98585859198101
 31
0.0
  0
LINE
  5
DE2
  8
CENTER
  6
CENTER
 10
427.65582623895727
 20
358.04650035383639
 30
0.0
 11
427.65582623895727
 21
337.04650035383639
 31
0.0
  0
LINE
  5
DE3
  8
CENTER
  6
CENTER
 10
438.15582623895739
 20
347.54650035383639
 30
0.0
 11
417.15582623895739
 21
347.54650035383639
 31
0.0
  0
POLYLINE
  5
DE4
  8
0
  6
CONTINUOUS
 66
     1
 10
0.0
 20
0.0
 30
0.0
 70
     1
  0
VERTEX
  5
1832
  8
0
  6
CONTINUOUS
 10
430.54257758490547
 20
352.54650035383639
 30
0.0
  0
VERTEX
  5
1833
  8
0
  6
CONTINUOUS
 10
433.42932893085361
 20
347.54650035383639
 30
0.0
  0
VERTEX
  5
1834
  8
0
  6
CONTINUOUS
 10
430.54257758490547
 20
342.54650035383639
 30
0.0
  0
VERTEX
  5
1835
  8
0
  6
CONTINUOUS
 10
424.7690748930093
 20
342.54650035383639
 30
0.0
  0
VERTEX
  5
1836
  8
0
  6
CONTINUOUS
 10
421.88232354706122
 20
347.54650035383639
 30
0.0
  0
VERTEX
  5
1837
  8
0
  6
CONTINUOUS
 10
424.7690748930093
 20
352.54650035383639
 30
0.0
  0
SEQEND
  5
1838
  8
0
  6
CONTINUOUS
  0
ARC
  5
DEC
  8
0
 10
427.65582623895727
 20
347.54650035383639
 30
0.0
 40
11.5
 50
150.61849827564831
 51
206.25121393492719
  0
ARC
  5
DED
  8
0
 10
415.9966024225962
 20
341.79650035383639
 30
0.0
 40
1.5
 50
270.0
 51
26.25121393499963
  0
ARC
  5
DEE
  8
0
 10
416.32798689999129
 20
353.92459222449651
 30
0.0
 40
1.5
 50
330.61849827564822
 51
45.0
  0
ARC
  5
DEF
  8
0
 10
427.65582623895727
 20
347.54650035383639
 30
0.0
 40
11.5
 50
63.748786065044527
 51
119.38150172435149
  0
LINE
  5
DF0
  8
0
 10
417.60557370726309
 20
364.04650035383651
 30
0.0
 11
433.40582623895727
 21
364.04650035383651
 31
0.0
  0
LINE
  5
DF1
  8
0
 10
420.21707419651739
 20
357.81367952102249
 30
0.0
 11
410.21646800081271
 21
367.81428571672723
 31
0.0
  0
ARC
  5
DF2
  8
0
 10
421.27773436829727
 20
358.87433969280238
 30
0.0
 40
1.5
 50
224.99999999999841
 51
299.38150172435058
  0
ARC
  5
DF3
  8
0
 10
413.8372835144271
 20
357.12240239124731
 30
0.0
 40
1.0
 50
310.01145802444182
 51
45.0
  0
ARC
  5
DF4
  8
0
 10
417.60557370726309
 20
362.54650035383651
 30
0.0
 40
1.5
 50
90.0
 51
225.00000000000301
  0
ARC
  5
DF5
  8
0
 10
411.27712817259243
 20
368.87494588850689
 30
0.0
 40
1.5
 50
143.2132107017386
 51
224.99999999999841
  0
ARC
  5
DF6
  8
0
 10
433.40582623895727
 20
359.20572417019758
 30
0.0
 40
1.5
 50
243.74878606504501
 51
0.0
  0
ARC
  5
DF7
  8
0
 10
433.40582623895727
 20
362.54650035383651
 30
0.0
 40
1.5
 50
0.0
 51
90.0
  0
ARC
  5
DF8
  8
0
 10
391.6558262389575
 20
383.54650035383639
 30
0.0
 40
35.5
 50
49.98854197555611
 51
71.407177450573386
  0
ARC
  5
DF9
  8
0
 10
406.32738070428661
 20
403.1678022874716
 30
0.0
 40
1.5
 50
233.21321070173991
 51
314.99999999999841
  0
ARC
  5
DFA
  8
0
 10
376.98427177362811
 20
403.1678022874716
 30
0.0
 40
1.5
 50
225.00000000000151
 51
306.78678929825992
  0
ARC
  5
DFB
  8
0
 10
388.85582623895749
 20
407.88597446483573
 30
0.0
 40
1.5
 50
276.56242786863447
 51
0.0
  0
ARC
  5
DFC
  8
0
 10
391.6558262389575
 20
383.54650035383639
 30
0.0
 40
23.0
 50
96.562427868634174
 51
126.7867892982617
  0
ARC
  5
DFD
  8
0
 10
380.15582623895739
 20
405.17980800662042
 30
0.0
 40
1.5
 50
297.99456173225229
 51
0.0
  0
ARC
  5
DFE
  8
0
 10
380.6558262389575
 20
416.24588872732119
 30
0.0
 40
1.0
 50
0.0
 51
108.5928225494286
  0
ARC
  5
DFF
  8
0
 10
391.6558262389575
 20
383.54650035383639
 30
0.0
 40
23.0
 50
53.213210701738248
 51
83.437572131365826
  0
ARC
  5
E00
  8
0
 10
394.4558262389574
 20
407.88597446483573
 30
0.0
 40
1.5
 50
180.0
 51
263.43757213136541
  0
ARC
  5
E01
  8
0
 10
403.15582623895727
 20
405.17980800662042
 30
0.0
 40
1.5
 50
180.0
 51
242.00543826774759
  0
ARC
  5
E02
  8
0
 10
402.65582623895727
 20
416.24588872732119
 30
0.0
 40
1.0
 50
71.407177450574423
 51
180.0
  0
ARC
  5
E03
  8
0
 10
433.40582623895727
 20
402.46269884093118
 30
0.0
 40
1.5
 50
270.0
 51
0.0
  0
LINE
  5
E04
  8
0
 10
434.90582623895739
 20
407.88727653747509
 30
0.0
 11
434.90582623895739
 21
386.34650035383629
 31
0.0
  0
ARC
  5
E05
  8
0
 10
415.10557370726332
 20
402.46269884093118
 30
0.0
 40
1.5
 50
171.50526946671781
 51
270.0
  0
LINE
  5
E06
  8
0
 10
420.21707419651739
 20
409.27932118665018
 30
0.0
 11
410.21646800081271
 21
399.2787149909455
 31
0.0
  0
LINE
  5
E07
  8
0
 10
414.76047997153472
 20
390.19665224798598
 30
0.0
 11
433.40582623895727
 21
390.19665224798598
 31
0.0
  0
LINE
  5
E08
  8
0
 10
415.10557370726332
 20
400.96269884093118
 30
0.0
 11
433.40582623895727
 21
400.96269884093118
 31
0.0
  0
LINE
  5
E09
  8
0
 10
433.40582623895727
 20
382.2465003538365
 30
0.0
 11
415.99530034995672
 21
382.2465003538365
 31
0.0
  0
LINE
  5
E0A
  8
0
 10
433.40582623895727
 20
384.8465003538364
 30
0.0
 11
415.99530034995672
 21
384.8465003538364
 31
0.0
  0
ARC
  5
E0B
  8
0
 10
414.76047997153472
 20
391.69665224798592
 30
0.0
 40
1.5
 50
199.43026151964591
 51
270.0
  0
ARC
  5
E0C
  8
0
 10
391.6558262389575
 20
383.54650035383639
 30
0.0
 40
23.0
 50
6.5624278686340274
 51
36.78678929826156
  0
ARC
  5
E0D
  8
0
 10
415.99530034995672
 20
380.74650035383638
 30
0.0
 40
1.5
 50
90.0
 51
173.4375721313655
  0
ARC
  5
E0E
  8
0
 10
415.99530034995672
 20
386.34650035383629
 30
0.0
 40
1.5
 50
186.5624278686345
 51
270.0
  0
ARC
  5
E0F
  8
0
 10
411.27712817259271
 20
398.21805481916567
 30
0.0
 40
1.5
 50
135.00000000000151
 51
216.78678929826
  0
ARC
  5
E10
  8
0
 10
433.40582623895727
 20
391.69665224798592
 30
0.0
 40
1.5
 50
270.0
 51
0.0
  0
ARC
  5
E11
  8
0
 10
433.40582623895727
 20
380.74650035383638
 30
0.0
 40
1.5
 50
0.0
 51
90.0
  0
ARC
  5
E12
  8
0
 10
433.40582623895727
 20
386.34650035383629
 30
0.0
 40
1.5
 50
270.0
 51
0.0
  0
LINE
  5
E13
  8
CENTER
  6
CENTER
 10
438.15582623895739
 20
419.54650035383639
 30
0.0
 11
417.15582623895739
 21
419.54650035383639
 31
0.0
  0
POLYLINE
  5
E14
  8
0
  6
CONTINUOUS
 66
     1
 10
0.0
 20
0.0
 30
0.0
 70
     1
  0
VERTEX
  5
1839
  8
0
  6
CONTINUOUS
 10
430.54257758490547
 20
424.54650035383639
 30
0.0
  0
VERTEX
  5
183A
  8
0
  6
CONTINUOUS
 10
433.42932893085361
 20
419.54650035383639
 30
0.0
  0
VERTEX
  5
183B
  8
0
  6
CONTINUOUS
 10
430.54257758490547
 20
414.54650035383639
 30
0.0
  0
VERTEX
  5
183C
  8
0
  6
CONTINUOUS
 10
424.7690748930093
 20
414.54650035383639
 30
0.0
  0
VERTEX
  5
183D
  8
0
  6
CONTINUOUS
 10
421.88232354706122
 20
419.54650035383639
 30
0.0
  0
VERTEX
  5
183E
  8
0
  6
CONTINUOUS
 10
424.7690748930093
 20
424.54650035383628
 30
0.0
  0
SEQEND
  5
183F
  8
0
  6
CONTINUOUS
  0
ARC
  5
E1C
  8
0
 10
427.65582623895727
 20
419.54650035383639
 30
0.0
 40
11.5
 50
240.61849827564839
 51
296.2512139349555
  0
ARC
  5
E1D
  8
0
 10
416.32798689999129
 20
413.16840848317628
 30
0.0
 40
1.5
 50
314.99999999999841
 51
29.3815017243517
  0
LINE
  5
E1E
  8
0
 10
417.38864707177112
 20
412.10774831139639
 30
0.0
 11
407.3880408760665
 21
402.10714211569172
 31
0.0
  0
ARC
  5
E1F
  8
0
 10
421.27773436829727
 20
408.21866101487041
 30
0.0
 40
1.5
 50
60.618498275649117
 51
135.00000000000151
  0
ARC
  5
E20
  8
0
 10
413.8372835144271
 20
409.97059831642548
 30
0.0
 40
1.0
 50
315.0
 51
49.98854197555648
  0
ARC
  5
E21
  8
0
 10
427.65582623895727
 20
419.54650035383639
 30
0.0
 40
11.5
 50
153.74878606506371
 51
209.38150172435141
  0
ARC
  5
E22
  8
0
 10
433.40582623895727
 20
407.88727653747509
 30
0.0
 40
1.5
 50
0.0
 51
116.2512139349549
  0
LINE
  5
E23
  8
0
 10
438.90582623895739
 20
419.54650035383639
 30
0.0
 11
438.90582623895739
 21
347.54650035383639
 31
0.0
  0
LINE
  5
E24
  8
0
  6
CONTINUOUS
 10
447.15582623895727
 20
354.54650035383639
 30
0.0
 11
447.15582623895727
 21
366.54650035383639
 31
0.0
  0
LINE
  5
E25
  8
0
  6
CONTINUOUS
 10
448.15582623895727
 20
354.54650035383639
 30
0.0
 11
450.15582623895739
 21
356.54650035383639
 31
0.0
  0
LINE
  5
E26
  8
0
  6
CONTINUOUS
 10
448.15582623895727
 20
354.54650035383639
 30
0.0
 11
448.15582623895727
 21
366.54650035383639
 31
0.0
  0
ARC
  5
E27
  8
0
  6
CONTINUOUS
 10
436.89360401673389
 20
355.79650035383639
 30
0.0
 40
10.338070658410899
 50
332.64729508745978
 51
27.352704912540158
  0
LINE
  5
E28
  8
0
  6
CONTINUOUS
 10
446.0758262389574
 20
351.04650035383639
 30
0.0
 11
439.15582623895727
 21
351.04650035383639
 31
0.0
  0
LINE
  5
E29
  8
0
  6
CONTINUOUS
 10
447.15582623895727
 20
354.54650035383639
 30
0.0
 11
448.15582623895727
 21
354.54650035383639
 31
0.0
  0
ARC
  5
E2A
  8
0
  6
CONTINUOUS
 10
436.89360401673389
 20
365.29650035383639
 30
0.0
 40
10.338070658410899
 50
332.64729508745978
 51
27.352704912540158
  0
LINE
  5
E2B
  8
0
  6
CONTINUOUS
 10
439.15582623895727
 20
360.54650035383639
 30
0.0
 11
446.0758262389574
 21
360.54650035383639
 31
0.0
  0
LINE
  5
E2C
  8
0
  6
CONTINUOUS
 10
439.15582623895727
 20
360.54650035383639
 30
0.0
 11
446.0758262389574
 21
360.54650035383639
 31
0.0
  0
LINE
  5
E2D
  8
0
  6
CONTINUOUS
 62
     2
 10
447.15582623895727
 20
355.74650035383712
 30
0.0
 11
449.35582623895812
 21
355.74650035383712
 31
0.0
  0
LINE
  5
E2E
  8
0
  6
CONTINUOUS
 62
     2
 10
447.15582623895727
 20
365.34650035383572
 30
0.0
 11
449.35582623895812
 21
365.34650035383572
 31
0.0
  0
LINE
  5
E2F
  8
0
  6
CONTINUOUS
 10
447.15582623895727
 20
366.54650035383639
 30
0.0
 11
448.15582623895727
 21
366.54650035383639
 31
0.0
  0
LINE
  5
E30
  8
0
  6
CONTINUOUS
 10
448.15582623895727
 20
366.54650035383639
 30
0.0
 11
450.15582623895739
 21
364.54650035383639
 31
0.0
  0
LINE
  5
E31
  8
0
  6
CONTINUOUS
 10
450.15582623895739
 20
356.54650035383639
 30
0.0
 11
450.15582623895739
 21
364.54650035383639
 31
0.0
  0
LINE
  5
E32
  8
0
  6
CONTINUOUS
 10
446.0758262389574
 20
370.04650035383639
 30
0.0
 11
439.15582623895727
 21
370.04650035383639
 31
0.0
  0
LINE
  5
E33
  8
0
 10
439.15582623895727
 20
431.04650035383639
 30
0.0
 11
304.1558262389575
 21
431.04650035383639
 31
0.0
  0
LINE
  5
E34
  8
0
 10
427.65582623895727
 20
430.79650035383639
 30
0.0
 11
355.6558262389575
 21
430.79650035383639
 31
0.0
  0
LINE
  5
E35
  8
0
 10
367.31505005531892
 20
426.79650035383639
 30
0.0
 11
388.85582623895749
 21
426.79650035383639
 31
0.0
  0
LINE
  5
E36
  8
0
 10
403.65582623895739
 20
442.04650035383639
 30
0.0
 11
307.6558262389575
 21
442.04650035383662
 31
0.0
  0
LINE
  5
E37
  8
0
 10
402.65582623895727
 20
443.04650035383651
 30
0.0
 11
308.6558262389575
 21
443.04650035383651
 31
0.0
  0
LINE
  5
E38
  8
0
 10
307.6558262389575
 20
442.04650035383662
 30
0.0
 11
307.6558262389575
 21
431.04650035383639
 31
0.0
  0
LINE
  5
E39
  8
0
 10
308.6558262389575
 20
443.04650035383651
 30
0.0
 11
307.6558262389575
 21
442.04650035383662
 31
0.0
  0
LINE
  5
E3A
  8
0
 10
415.9966024225962
 20
426.79650035383639
 30
0.0
 11
394.4558262389574
 21
426.79650035383639
 31
0.0
  0
ARC
  5
E3B
  8
0
 10
388.85582623895749
 20
425.29650035383639
 30
0.0
 40
1.5
 50
0.0
 51
90.0
  0
ARC
  5
E3C
  8
0
 10
380.15582623895739
 20
425.29650035383639
 30
0.0
 40
1.5
 50
0.0
 51
90.0
  0
LINE
  5
E3D
  8
0
 10
403.65582623895739
 20
442.04650035383662
 30
0.0
 11
403.6558262389575
 21
431.04650035383639
 31
0.0
  0
ARC
  5
E3E
  8
0
 10
394.4558262389574
 20
425.29650035383639
 30
0.0
 40
1.5
 50
90.0
 51
180.0
  0
ARC
  5
E3F
  8
0
 10
403.15582623895727
 20
425.29650035383639
 30
0.0
 40
1.5
 50
90.0
 51
180.0
  0
LINE
  5
E40
  8
0
 10
402.65582623895727
 20
443.04650035383651
 30
0.0
 11
403.65582623895739
 21
442.04650035383662
 31
0.0
  0
LINE
  5
E41
  8
DIM
  6
CONTINUOUS
 10
1062.609501052531
 20
324.04650035383639
 30
0.0
 11
1062.609501052531
 21
443.04650035383651
 31
0.0
  0
SOLID
  5
E42
  8
DIM
  6
CONTINUOUS
 10
929.18804593951575
 20
427.35426471456589
 30
0.0
 11
928.26313779488328
 21
426.97407407292309
 31
0.0
 12
929.86616379212785
 22
424.38944495984748
 32
0.0
 13
929.86616379212785
 23
424.38944495984748
 33
0.0
  0
LINE
  5
E43
  8
0
 10
1054.609501052531
 20
431.04650035383639
 30
0.0
 11
1054.609501052531
 21
336.04650035383639
 31
0.0
  0
LINE
  5
E44
  8
0
 10
919.60950105253175
 20
431.04650035383639
 30
0.0
 11
919.60950105253175
 21
336.04650035383651
 31
0.0
  0
ARC
  5
E45
  8
0
 10
1003.109501052531
 20
419.54650035383639
 30
0.0
 40
11.25
 50
0.0
 51
90.0
  0
ARC
  5
E46
  8
0
 10
1003.109501052531
 20
419.54650035383639
 30
0.0
 40
11.5
 50
0.0
 51
90.0
  0
ARC
  5
E47
  8
0
 10
991.45027723617022
 20
425.29650035383639
 30
0.0
 40
1.5
 50
333.74878606499061
 51
90.0
  0
CIRCLE
  5
E48
  8
0
 10
1003.109501052531
 20
419.54650035383639
 30
0.0
 40
9.0
  0
LINE
  5
E49
  8
CENTER
  6
CENTER
 10
1003.109501052531
 20
446.26886316859162
 30
0.0
 11
1003.109501052531
 21
321.04650035383639
 31
0.0
  0
ARC
  5
E4A
  8
0
 10
942.76872486889272
 20
425.29650035383639
 30
0.0
 40
1.5
 50
90.0
 51
206.251213935019
  0
LINE
  5
E4B
  8
0
 10
957.10950105253175
 20
425.29650035383639
 30
0.0
 11
957.10950105253175
 21
405.17980800662042
 31
0.0
  0
LINE
  5
E4C
  8
0
 10
968.4095010525316
 20
425.29650035383639
 30
0.0
 11
968.4095010525316
 21
407.88597446483573
 31
0.0
  0
LINE
  5
E4D
  8
0
 10
965.80950105253157
 20
425.29650035383639
 30
0.0
 11
965.80950105253157
 21
407.88597446483573
 31
0.0
  0
LINE
  5
E4E
  8
0
 10
977.10950105253164
 20
425.29650035383639
 30
0.0
 11
977.10950105253164
 21
405.17980800662042
 31
0.0
  0
ARC
  5
E4F
  8
0
 10
931.10950105253175
 20
419.54650035383639
 30
0.0
 40
11.25
 50
90.0
 51
180.0
  0
ARC
  5
E50
  8
0
 10
931.10950105253175
 20
419.54650035383639
 30
0.0
 40
11.5
 50
90.0
 51
180.0
  0
LINE
  5
E51
  8
CENTER
  6
CENTER
 10
931.10950105253175
 20
430.04650035383639
 30
0.0
 11
931.10950105253175
 21
409.04650035383639
 31
0.0
  0
CIRCLE
  5
E52
  8
0
 10
931.10950105253175
 20
419.54650035383639
 30
0.0
 40
9.0
  0
LINE
  5
E53
  8
CENTER
  6
CENTER
 10
967.10950105253164
 20
434.04650035383639
 30
0.0
 11
967.10950105253164
 21
333.04650035383639
 31
0.0
  0
LINE
  5
E54
  8
DIM
  6
CONTINUOUS
 10
919.60950105253175
 20
300.04650035383639
 30
0.0
 11
1054.609501052531
 21
300.04650035383651
 31
0.0
  0
LINE
  5
E55
  8
DIM
  6
CONTINUOUS
 10
919.60950105253175
 20
308.04650035383651
 30
0.0
 11
1014.609501052531
 21
308.04650035383651
 31
0.0
  0
LINE
  5
E56
  8
0
 10
919.60950105253175
 20
336.04650035383651
 30
0.0
 11
1054.609501052531
 21
336.04650035383639
 31
0.0
  0
ARC
  5
E57
  8
0
 10
931.10950105253175
 20
419.54650035383639
 30
0.0
 40
11.5
 50
330.61849827564839
 51
26.251213934945589
  0
ARC
  5
E58
  8
0
 10
941.15975358422588
 20
404.54650035383628
 30
0.0
 40
1.5
 50
270.0
 51
45.0
  0
LINE
  5
E59
  8
0
 10
938.54825309497153
 20
409.27932118665018
 30
0.0
 11
948.54885929067632
 21
399.2787149909455
 31
0.0
  0
LINE
  5
E5A
  8
0
 10
941.37668021971785
 20
412.10774831139639
 30
0.0
 11
951.37728641542242
 21
402.10714211569172
 31
0.0
  0
LINE
  5
E5B
  8
0
 10
925.35950105253164
 20
382.2465003538365
 30
0.0
 11
942.77002694153225
 21
382.2465003538365
 31
0.0
  0
LINE
  5
E5C
  8
0
 10
925.35950105253164
 20
384.8465003538364
 30
0.0
 11
942.77002694153225
 21
384.8465003538364
 31
0.0
  0
LINE
  5
E5D
  8
CENTER
  6
CENTER
 10
916.60950105253164
 20
383.54650035383639
 30
0.0
 11
1057.455303331473
 21
383.54650035383639
 31
0.0
  0
LINE
  5
E5E
  8
0
 10
938.54825309497153
 20
357.81367952102249
 30
0.0
 11
948.54885929067632
 21
367.81428571672723
 31
0.0
  0
LINE
  5
E5F
  8
0
 10
941.37668021971785
 20
354.98525239627628
 30
0.0
 11
951.37728641542242
 21
364.98585859198101
 31
0.0
  0
ARC
  5
E60
  8
0
 10
942.76872486889272
 20
341.79650035383639
 30
0.0
 40
1.5
 50
153.7487860649945
 51
270.0
  0
ARC
  5
E61
  8
0
 10
931.10950105253175
 20
347.54650035383639
 30
0.0
 40
11.5
 50
333.7487860650632
 51
29.381501724351519
  0
LINE
  5
E62
  8
0
 10
944.00484731995425
 20
376.89634845968692
 30
0.0
 11
925.35950105253164
 21
376.89634845968692
 31
0.0
  0
LINE
  5
E63
  8
0
 10
943.65975358422565
 20
366.1303018667416
 30
0.0
 11
925.35950105253164
 21
366.1303018667416
 31
0.0
  0
LINE
  5
E64
  8
0
 10
931.10950105253175
 20
336.29650035383639
 30
0.0
 11
1003.109501052531
 21
336.29650035383639
 31
0.0
  0
LINE
  5
E65
  8
DIM
  6
CONTINUOUS
 10
919.60950105253175
 20
335.04650035383651
 30
0.0
 11
919.60950105253175
 21
299.04650035383651
 31
0.0
  0
SOLID
  5
E66
  8
DIM
  6
CONTINUOUS
 10
922.60950105253164
 20
300.54650035383651
 30
0.0
 11
922.60950105253164
 21
299.54650035383651
 31
0.0
 12
919.60950105253175
 22
300.04650035383651
 32
0.0
 13
919.60950105253175
 23
300.04650035383651
 33
0.0
  0
SOLID
  5
E67
  8
DIM
  6
CONTINUOUS
 10
922.60950105253164
 20
308.54650035383651
 30
0.0
 11
922.60950105253164
 21
307.54650035383651
 31
0.0
 12
919.60950105253175
 22
308.04650035383651
 32
0.0
 13
919.60950105253175
 23
308.04650035383651
 33
0.0
  0
POLYLINE
  5
E68
  8
DIM
  6
CONTINUOUS
 66
     1
 10
0.0
 20
0.0
 30
0.0
 70
     1
  0
VERTEX
  5
1840
  8
DIM
  6
CONTINUOUS
 10
896.69648573820336
 20
380.48554218186132
 30
0.0
  0
VERTEX
  5
1841
  8
DIM
  6
CONTINUOUS
 10
896.69648573820336
 20
378.3855474020429
 30
0.0
  0
VERTEX
  5
1842
  8
DIM
  6
CONTINUOUS
 10
898.72674274756605
 20
378.3855474020429
 30
0.0
  0
VERTEX
  5
1843
  8
DIM
  6
CONTINUOUS
 10
898.72674274756605
 20
380.48554218186132
 30
0.0
  0
SEQEND
  5
1844
  8
DIM
  6
CONTINUOUS
  0
LINE
  5
E6E
  8
DIM
  6
CONTINUOUS
 10
900.60950105253153
 20
347.54650035383639
 30
0.0
 11
900.60950105253153
 21
419.54650035383639
 31
0.0
  0
LINE
  5
E6F
  8
0
 10
923.85950105253153
 20
359.20572417019758
 30
0.0
 11
923.85950105253153
 21
380.74650035383638
 31
0.0
  0
LINE
  5
E70
  8
0
 10
919.85950105253164
 20
419.54650035383639
 30
0.0
 11
919.85950105253164
 21
347.54650035383639
 31
0.0
  0
LINE
  5
E71
  8
DIM
  6
CONTINUOUS
 10
919.60950105253175
 20
347.54650035383639
 30
0.0
 11
899.60950105253164
 21
347.54650035383639
 31
0.0
  0
LINE
  5
E72
  8
0
  6
CONTINUOUS
 10
910.60950105253175
 20
366.54650035383639
 30
0.0
 11
908.60950105253153
 21
364.54650035383639
 31
0.0
  0
LINE
  5
E73
  8
0
  6
CONTINUOUS
 10
910.60950105253175
 20
354.54650035383639
 30
0.0
 11
908.60950105253153
 21
356.54650035383639
 31
0.0
  0
LINE
  5
E74
  8
0
  6
CONTINUOUS
 62
     2
 10
911.60950105253175
 20
365.34650035383572
 30
0.0
 11
909.40950105253091
 21
365.34650035383572
 31
0.0
  0
LINE
  5
E75
  8
0
  6
CONTINUOUS
 62
     2
 10
911.60950105253175
 20
355.74650035383712
 30
0.0
 11
909.40950105253091
 21
355.74650035383712
 31
0.0
  0
LINE
  5
E76
  8
CENTER
  6
CENTER
 10
904.60950105253164
 20
360.54650035383639
 30
0.0
 11
939.82292507390787
 21
360.54650035383639
 31
0.0
  0
SOLID
  5
E77
  8
DIM
  6
CONTINUOUS
 10
900.10950105253164
 20
350.54650035383639
 30
0.0
 11
901.10950105253164
 21
350.54650035383639
 31
0.0
 12
900.60950105253153
 22
347.54650035383639
 32
0.0
 13
900.60950105253153
 23
347.54650035383639
 33
0.0
  0
LINE
  5
E78
  8
0
  6
CONTINUOUS
 10
908.60950105253153
 20
356.54650035383639
 30
0.0
 11
908.60950105253153
 21
364.54650035383639
 31
0.0
  0
ARC
  5
E79
  8
0
  6
CONTINUOUS
 10
921.87172327475503
 20
355.79650035383639
 30
0.0
 40
10.338070658410899
 50
152.64729508745981
 51
207.3527049125401
  0
LINE
  5
E7A
  8
0
  6
CONTINUOUS
 10
910.60950105253175
 20
354.54650035383639
 30
0.0
 11
910.60950105253175
 21
366.54650035383639
 31
0.0
  0
LINE
  5
E7B
  8
0
  6
CONTINUOUS
 10
911.60950105253175
 20
354.54650035383639
 30
0.0
 11
911.60950105253175
 21
366.54650035383639
 31
0.0
  0
LINE
  5
E7C
  8
CENTER
  6
CENTER
 10
931.10950105253175
 20
358.04650035383639
 30
0.0
 11
931.10950105253175
 21
337.04650035383639
 31
0.0
  0
CIRCLE
  5
E7D
  8
0
 10
931.10950105253175
 20
347.54650035383639
 30
0.0
 40
9.0
  0
ARC
  5
E7E
  8
0
 10
931.10950105253175
 20
347.54650035383639
 30
0.0
 40
11.25
 50
180.0
 51
270.0
  0
ARC
  5
E7F
  8
0
 10
931.10950105253175
 20
347.54650035383639
 30
0.0
 40
11.5
 50
180.0
 51
270.0
  0
POLYLINE
  5
E80
  8
0
  6
CONTINUOUS
 66
     1
 10
0.0
 20
0.0
 30
0.0
 70
     1
  0
VERTEX
  5
1845
  8
0
  6
CONTINUOUS
 10
928.22274970658339
 20
352.54650035383639
 30
0.0
  0
VERTEX
  5
1846
  8
0
  6
CONTINUOUS
 10
925.33599836063524
 20
347.54650035383639
 30
0.0
  0
VERTEX
  5
1847
  8
0
  6
CONTINUOUS
 10
928.22274970658339
 20
342.54650035383639
 30
0.0
  0
VERTEX
  5
1848
  8
0
  6
CONTINUOUS
 10
933.99625239847944
 20
342.54650035383639
 30
0.0
  0
VERTEX
  5
1849
  8
0
  6
CONTINUOUS
 10
936.8830037444277
 20
347.54650035383639
 30
0.0
  0
VERTEX
  5
184A
  8
0
  6
CONTINUOUS
 10
933.99625239847944
 20
352.54650035383639
 30
0.0
  0
SEQEND
  5
184B
  8
0
  6
CONTINUOUS
  0
LINE
  5
E88
  8
CENTER
  6
CENTER
 10
920.60950105253164
 20
347.54650035383639
 30
0.0
 11
941.60950105253164
 21
347.54650035383639
 31
0.0
  0
LINE
  5
E89
  8
0
  6
CONTINUOUS
 10
912.68950105253145
 20
351.04650035383639
 30
0.0
 11
919.60950105253175
 21
351.04650035383639
 31
0.0
  0
LINE
  5
E8A
  8
0
  6
CONTINUOUS
 10
911.60950105253175
 20
354.54650035383639
 30
0.0
 11
910.60950105253175
 21
354.54650035383639
 31
0.0
  0
ARC
  5
E8B
  8
0
 10
942.43734039149774
 20
353.92459222449651
 30
0.0
 40
1.5
 50
134.9999999999969
 51
209.3815017243528
  0
LINE
  5
E8C
  8
CENTER
  6
CENTER
 10
916.56336753816447
 20
373.54650035383639
 30
0.0
 11
939.10620904383325
 21
373.54650035383639
 31
0.0
  0
ARC
  5
E8D
  8
0
 10
931.10950105253175
 20
347.54650035383639
 30
0.0
 40
11.5
 50
60.618498275648491
 51
116.2512139349564
  0
ARC
  5
E8E
  8
0
  6
CONTINUOUS
 10
921.87172327475503
 20
365.29650035383639
 30
0.0
 40
10.338070658410899
 50
152.64729508745981
 51
207.3527049125401
  0
LINE
  5
E8F
  8
0
  6
CONTINUOUS
 10
919.60950105253175
 20
360.54650035383639
 30
0.0
 11
912.68950105253145
 21
360.54650035383639
 31
0.0
  0
LINE
  5
E90
  8
0
  6
CONTINUOUS
 10
919.60950105253175
 20
360.54650035383639
 30
0.0
 11
912.68950105253145
 21
360.54650035383639
 31
0.0
  0
LINE
  5
E91
  8
0
  6
CONTINUOUS
 10
911.60950105253175
 20
366.54650035383639
 30
0.0
 11
910.60950105253175
 21
366.54650035383639
 31
0.0
  0
ARC
  5
E92
  8
0
 10
925.35950105253164
 20
364.6303018667416
 30
0.0
 40
1.5
 50
90.0
 51
180.0
  0
ARC
  5
E93
  8
0
 10
925.35950105253164
 20
359.20572417019758
 30
0.0
 40
1.5
 50
180.0
 51
296.25121393495112
  0
LINE
  5
E94
  8
0
  6
CONTINUOUS
 10
912.68950105253145
 20
370.04650035383639
 30
0.0
 11
919.60950105253175
 21
370.04650035383639
 31
0.0
  0
ARC
  5
E95
  8
0
 10
925.35950105253164
 20
375.39634845968692
 30
0.0
 40
1.5
 50
90.0
 51
180.0
  0
ARC
  5
E96
  8
0
 10
937.48759292319176
 20
358.87433969280238
 30
0.0
 40
1.5
 50
240.6184982756493
 51
314.99999999999687
  0
LINE
  5
E97
  8
DIM
  6
CONTINUOUS
 10
919.60950105253175
 20
419.54650035383639
 30
0.0
 11
899.60950105253164
 21
419.54650035383639
 31
0.0
  0
TEXT
  5
E98
  8
DIM
  6
CONTINUOUS
 10
899.10950105253175
 20
381.11792892526489
 30
0.0
 40
3.0
  1
72
 50
90.0
  7
ROMANSS
 72
     1
 11
897.60950105253164
 21
383.54650035383639
 31
0.0
 73
     2
  0
SOLID
  5
E99
  8
DIM
  6
CONTINUOUS
 10
900.10950105253164
 20
416.54650035383639
 30
0.0
 11
901.10950105253164
 21
416.54650035383639
 31
0.0
 12
900.60950105253153
 22
419.54650035383639
 32
0.0
 13
900.60950105253153
 23
419.54650035383639
 33
0.0
  0
LINE
  5
E9A
  8
0
 10
923.85950105253153
 20
407.88727653747509
 30
0.0
 11
923.85950105253153
 21
386.34650035383629
 31
0.0
  0
LINE
  5
E9B
  8
CENTER
  6
CENTER
 10
916.38954007600057
 20
390.54650035383639
 30
0.0
 11
939.96257702232811
 21
390.54650035383639
 31
0.0
  0
ARC
  5
E9C
  8
0
 10
925.35950105253164
 20
380.74650035383638
 30
0.0
 40
1.5
 50
90.0
 51
180.0
  0
ARC
  5
E9D
  8
0
 10
925.35950105253164
 20
386.34650035383629
 30
0.0
 40
1.5
 50
180.0
 51
270.0
  0
ARC
  5
E9E
  8
0
 10
931.10950105253175
 20
419.54650035383639
 30
0.0
 40
11.5
 50
243.7487860650437
 51
299.38150172435149
  0
LINE
  5
E9F
  8
0
 10
941.15975358422588
 20
403.04650035383628
 30
0.0
 11
925.35950105253164
 21
403.04650035383628
 31
0.0
  0
POLYLINE
  5
EA0
  8
0
  6
CONTINUOUS
 66
     1
 10
0.0
 20
0.0
 30
0.0
 70
     1
  0
VERTEX
  5
184C
  8
0
  6
CONTINUOUS
 10
928.22274970658339
 20
424.54650035383639
 30
0.0
  0
VERTEX
  5
184D
  8
0
  6
CONTINUOUS
 10
925.33599836063524
 20
419.54650035383639
 30
0.0
  0
VERTEX
  5
184E
  8
0
  6
CONTINUOUS
 10
928.22274970658339
 20
414.54650035383639
 30
0.0
  0
VERTEX
  5
184F
  8
0
  6
CONTINUOUS
 10
933.99625239847944
 20
414.54650035383639
 30
0.0
  0
VERTEX
  5
1850
  8
0
  6
CONTINUOUS
 10
936.8830037444277
 20
419.54650035383639
 30
0.0
  0
VERTEX
  5
1851
  8
0
  6
CONTINUOUS
 10
933.99625239847944
 20
424.54650035383628
 30
0.0
  0
SEQEND
  5
1852
  8
0
  6
CONTINUOUS
  0
LINE
  5
EA8
  8
CENTER
  6
CENTER
 10
920.60950105253164
 20
419.54650035383639
 30
0.0
 11
941.60950105253164
 21
419.54650035383639
 31
0.0
  0
ARC
  5
EA9
  8
0
 10
925.35950105253164
 20
407.88727653747509
 30
0.0
 40
1.5
 50
63.748786065048918
 51
180.0
  0
ARC
  5
EAA
  8
0
 10
925.35950105253164
 20
404.54650035383628
 30
0.0
 40
1.5
 50
180.0
 51
270.0
  0
ARC
  5
EAB
  8
0
 10
942.43734039149774
 20
413.16840848317628
 30
0.0
 40
1.5
 50
150.6184982756472
 51
225.00000000000301
  0
ARC
  5
EAC
  8
0
 10
937.48759292319176
 20
408.21866101487041
 30
0.0
 40
1.5
 50
45.0
 51
119.3815017243527
  0
LINE
  5
EAD
  8
DIM
  6
CONTINUOUS
 10
1054.609501052531
 20
335.04650035383639
 30
0.0
 11
1054.609501052531
 21
299.04650035383651
 31
0.0
  0
LINE
  5
EAE
  8
DIM
  6
CONTINUOUS
 10
1014.609501052531
 20
346.54650035383639
 30
0.0
 11
1014.609501052531
 21
317.26360027106313
 31
0.0
  0
LINE
  5
EAF
  8
0
 10
1051.109501052531
 20
336.04650035383639
 30
0.0
 11
1051.109501052531
 21
325.04650035383639
 31
0.0
  0
LINE
  5
EB0
  8
0
 10
955.10950105253141
 20
336.04650035383639
 30
0.0
 11
955.10950105253153
 21
325.04650035383651
 31
0.0
  0
LINE
  5
EB1
  8
DIM
  6
CONTINUOUS
 10
967.10950105253164
 20
316.04650035383651
 30
0.0
 11
1054.609501052531
 21
316.04650035383651
 31
0.0
  0
LINE
  5
EB2
  8
0
 10
955.10950105253153
 20
325.04650035383639
 30
0.0
 11
1051.109501052531
 21
325.04650035383639
 31
0.0
  0
LINE
  5
EB3
  8
0
 10
956.10950105253175
 20
324.04650035383651
 30
0.0
 11
1050.109501052531
 21
324.04650035383639
 31
0.0
  0
LINE
  5
EB4
  8
0
 10
955.10950105253153
 20
325.04650035383651
 30
0.0
 11
956.10950105253175
 21
324.04650035383651
 31
0.0
  0
LINE
  5
EB5
  8
DIM
  6
CONTINUOUS
 10
967.10950105253164
 20
332.04650035383639
 30
0.0
 11
967.10950105253164
 21
315.04650035383651
 31
0.0
  0
TEXT
  5
EB6
  8
DIM
  6
CONTINUOUS
 10
964.6809296239602
 20
309.54650035383651
 30
0.0
 40
3.0
  1
95
  7
ROMANSS
 72
     1
 11
967.10950105253164
 21
311.04650035383651
 31
0.0
 73
     2
  0
SOLID
  5
EB7
  8
DIM
  6
CONTINUOUS
 10
970.10950105253164
 20
316.54650035383651
 30
0.0
 11
970.10950105253164
 21
315.54650035383651
 31
0.0
 12
967.10950105253164
 22
316.04650035383651
 32
0.0
 13
967.10950105253164
 23
316.04650035383651
 33
0.0
  0
POLYLINE
  5
EB8
  8
DIM
  6
CONTINUOUS
 66
     1
 10
0.0
 20
0.0
 30
0.0
 70
     1
  0
VERTEX
  5
1853
  8
DIM
  6
CONTINUOUS
 10
964.08256373952588
 20
311.9640174337822
 30
0.0
  0
VERTEX
  5
1854
  8
DIM
  6
CONTINUOUS
 10
964.08256373952588
 20
309.73708911977769
 30
0.0
  0
VERTEX
  5
1855
  8
DIM
  6
CONTINUOUS
 10
961.97618019995809
 20
309.73708911977769
 30
0.0
  0
VERTEX
  5
1856
  8
DIM
  6
CONTINUOUS
 10
961.97618019995809
 20
311.9640174337822
 30
0.0
  0
SEQEND
  5
1857
  8
DIM
  6
CONTINUOUS
  0
TEXT
  5
EBE
  8
DIM
  6
CONTINUOUS
 10
983.53807248110309
 20
301.54650035383651
 30
0.0
 40
3.0
  1
135
  7
ROMANSS
 72
     1
 11
987.10950105253164
 21
303.04650035383651
 31
0.0
 73
     2
  0
TEXT
  5
EBF
  8
DIM
  6
CONTINUOUS
 10
982.75235819538875
 20
317.54650035383651
 30
0.0
 40
3.0
  1
36
  7
ROMANSS
 72
     1
 11
985.10950105253164
 21
319.04650035383651
 31
0.0
 73
     2
  0
SOLID
  5
EC0
  8
DIM
  6
CONTINUOUS
 10
1000.109501052531
 20
316.54650035383651
 30
0.0
 11
1000.109501052531
 21
315.54650035383651
 31
0.0
 12
1003.109501052531
 22
316.04650035383651
 32
0.0
 13
1003.109501052531
 23
316.04650035383651
 33
0.0
  0
SOLID
  5
EC1
  8
DIM
  6
CONTINUOUS
 10
1006.109501052531
 20
316.54650035383651
 30
0.0
 11
1006.109501052531
 21
315.54650035383651
 31
0.0
 12
1003.109501052531
 22
316.04650035383651
 32
0.0
 13
1003.109501052531
 23
316.04650035383651
 33
0.0
  0
LINE
  5
EC2
  8
DIM
  6
CONTINUOUS
 10
1003.109501052531
 20
320.04650035383639
 30
0.0
 11
1003.109501052531
 21
315.04650035383651
 31
0.0
  0
LINE
  5
EC3
  8
DIM
  6
CONTINUOUS
 10
1003.109501052531
 20
320.04650035383639
 30
0.0
 11
1003.109501052531
 21
315.04650035383651
 31
0.0
  0
LINE
  5
EC4
  8
DIM
  6
CONTINUOUS
 10
1014.609501052531
 20
314.82937623113042
 30
0.0
 11
1014.609501052531
 21
307.04650035383651
 31
0.0
  0
SOLID
  5
EC5
  8
DIM
  6
CONTINUOUS
 10
1011.609501052531
 20
308.54650035383651
 30
0.0
 11
1011.609501052531
 21
307.54650035383651
 31
0.0
 12
1014.609501052531
 22
308.04650035383651
 32
0.0
 13
1014.609501052531
 23
308.04650035383651
 33
0.0
  0
TEXT
  5
EC6
  8
DIM
  6
CONTINUOUS
 10
1024.573786766817
 20
317.54650035383651
 30
0.0
 40
3.0
  1
51.5
  7
ROMANSS
 72
     1
 11
1028.859501052531
 21
319.04650035383651
 31
0.0
 73
     2
  0
SOLID
  5
EC7
  8
DIM
  6
CONTINUOUS
 10
1051.609501052531
 20
300.54650035383651
 30
0.0
 11
1051.609501052531
 21
299.54650035383651
 31
0.0
 12
1054.609501052531
 22
300.04650035383651
 32
0.0
 13
1054.609501052531
 23
300.04650035383651
 33
0.0
  0
LINE
  5
EC8
  8
DIM
  6
CONTINUOUS
 10
1051.109501052531
 20
324.04650035383639
 30
0.0
 11
1071.609501052531
 21
324.04650035383639
 31
0.0
  0
SOLID
  5
EC9
  8
DIM
  6
CONTINUOUS
 10
1051.609501052531
 20
316.54650035383651
 30
0.0
 11
1051.609501052531
 21
315.54650035383651
 31
0.0
 12
1054.609501052531
 22
316.04650035383651
 32
0.0
 13
1054.609501052531
 23
316.04650035383651
 33
0.0
  0
LINE
  5
ECA
  8
0
 10
1051.109501052531
 20
325.04650035383639
 30
0.0
 11
1050.109501052531
 21
324.04650035383639
 31
0.0
  0
TEXT
  5
ECB
  8
DIM
  6
CONTINUOUS
 10
1061.109501052531
 20
327.90364321097923
 30
0.0
 40
3.0
  1
12
 50
90.0
  7
ROMANSS
 72
     1
 11
1059.609501052531
 21
330.04650035383639
 31
0.0
 73
     2
  0
SOLID
  5
ECC
  8
DIM
  6
CONTINUOUS
 10
1062.109501052531
 20
327.04650035383639
 30
0.0
 11
1063.109501052531
 21
327.04650035383639
 31
0.0
 12
1062.609501052531
 22
324.04650035383639
 32
0.0
 13
1062.609501052531
 23
324.04650035383639
 33
0.0
  0
SOLID
  5
ECD
  8
DIM
  6
CONTINUOUS
 10
1070.109501052531
 20
327.04650035383639
 30
0.0
 11
1071.109501052531
 21
327.04650035383639
 31
0.0
 12
1070.609501052531
 22
324.04650035383639
 32
0.0
 13
1070.609501052531
 23
324.04650035383639
 33
0.0
  0
LINE
  5
ECE
  8
CENTER
  6
CENTER
 10
992.60950105253153
 20
419.54650035383639
 30
0.0
 11
1013.609501052531
 21
419.54650035383639
 31
0.0
  0
POLYLINE
  5
ECF
  8
0
  6
CONTINUOUS
 66
     1
 10
0.0
 20
0.0
 30
0.0
 70
     1
  0
VERTEX
  5
1858
  8
0
  6
CONTINUOUS
 10
1000.222749706583
 20
424.54650035383639
 30
0.0
  0
VERTEX
  5
1859
  8
0
  6
CONTINUOUS
 10
997.33599836063536
 20
419.54650035383639
 30
0.0
  0
VERTEX
  5
185A
  8
0
  6
CONTINUOUS
 10
1000.222749706583
 20
414.54650035383639
 30
0.0
  0
VERTEX
  5
185B
  8
0
  6
CONTINUOUS
 10
1005.996252398479
 20
414.54650035383639
 30
0.0
  0
VERTEX
  5
185C
  8
0
  6
CONTINUOUS
 10
1008.883003744427
 20
419.54650035383639
 30
0.0
  0
VERTEX
  5
185D
  8
0
  6
CONTINUOUS
 10
1005.996252398479
 20
424.54650035383628
 30
0.0
  0
SEQEND
  5
185E
  8
0
  6
CONTINUOUS
  0
ARC
  5
ED7
  8
0
 10
1008.859501052531
 20
407.88727653747509
 30
0.0
 40
1.5
 50
0.0
 51
116.2512139349608
  0
LINE
  5
ED8
  8
0
 10
1008.859501052531
 20
393.54650035383639
 30
0.0
 11
988.7428087053155
 21
393.54650035383639
 31
0.0
  0
LINE
  5
ED9
  8
0
 10
1008.859501052531
 20
384.8465003538364
 30
0.0
 11
991.4489751635308
 21
384.8465003538364
 31
0.0
  0
LINE
  5
EDA
  8
0
 10
1008.859501052531
 20
382.2465003538365
 30
0.0
 11
991.4489751635308
 21
382.2465003538365
 31
0.0
  0
ARC
  5
EDB
  8
0
 10
1008.859501052531
 20
359.20572417019758
 30
0.0
 40
1.5
 50
243.74878606503921
 51
0.0
  0
LINE
  5
EDC
  8
0
 10
1008.859501052531
 20
373.54650035383639
 30
0.0
 11
988.7428087053155
 21
373.54650035383639
 31
0.0
  0
LINE
  5
EDD
  8
CENTER
  6
CENTER
 10
992.60950105253153
 20
347.54650035383639
 30
0.0
 11
1013.609501052531
 21
347.54650035383639
 31
0.0
  0
POLYLINE
  5
EDE
  8
0
  6
CONTINUOUS
 66
     1
 10
0.0
 20
0.0
 30
0.0
 70
     1
  0
VERTEX
  5
185F
  8
0
  6
CONTINUOUS
 10
1000.222749706583
 20
352.54650035383639
 30
0.0
  0
VERTEX
  5
1860
  8
0
  6
CONTINUOUS
 10
997.33599836063536
 20
347.54650035383639
 30
0.0
  0
VERTEX
  5
1861
  8
0
  6
CONTINUOUS
 10
1000.222749706583
 20
342.54650035383639
 30
0.0
  0
VERTEX
  5
1862
  8
0
  6
CONTINUOUS
 10
1005.996252398479
 20
342.54650035383639
 30
0.0
  0
VERTEX
  5
1863
  8
0
  6
CONTINUOUS
 10
1008.883003744427
 20
347.54650035383639
 30
0.0
  0
VERTEX
  5
1864
  8
0
  6
CONTINUOUS
 10
1005.996252398479
 20
352.54650035383639
 30
0.0
  0
SEQEND
  5
1865
  8
0
  6
CONTINUOUS
  0
CIRCLE
  5
EE6
  8
0
 10
1003.109501052531
 20
347.54650035383639
 30
0.0
 40
9.0
  0
ARC
  5
EE7
  8
0
 10
1003.109501052531
 20
347.54650035383639
 30
0.0
 40
11.25
 50
270.0
 51
0.0
  0
ARC
  5
EE8
  8
0
 10
1003.109501052531
 20
347.54650035383639
 30
0.0
 40
11.5
 50
270.0
 51
0.0
  0
ARC
  5
EE9
  8
0
 10
967.10950105253164
 20
383.54650035383639
 30
0.0
 40
23.0
 50
323.21321070173809
 51
353.43757213136593
  0
ARC
  5
EEA
  8
0
 10
967.10950105253164
 20
383.54650035383639
 30
0.0
 40
23.0
 50
186.56242786863399
 51
216.7867892982616
  0
CIRCLE
  5
EEB
  8
0
 10
967.10950105253164
 20
383.54650035383639
 30
0.0
 40
22.5
  0
LINE
  5
EEC
  8
0
 10
991.45027723617022
 20
340.29650035383639
 30
0.0
 11
969.90950105253148
 21
340.29650035383639
 31
0.0
  0
ARC
  5
EED
  8
0
 10
967.10950105253164
 20
383.54650035383639
 30
0.0
 40
23.0
 50
276.56242786863402
 51
306.7867892982614
  0
ARC
  5
EEE
  8
0
 10
967.10950105253164
 20
383.54650035383639
 30
0.0
 40
35.5
 50
229.98854197555599
 51
251.4071774505731
  0
LINE
  5
EEF
  8
0
 10
965.80950105253157
 20
341.79650035383639
 30
0.0
 11
965.80950105253157
 21
359.20702624283717
 31
0.0
  0
LINE
  5
EF0
  8
0
 10
968.4095010525316
 20
341.79650035383639
 30
0.0
 11
968.4095010525316
 21
359.20702624283717
 31
0.0
  0
LINE
  5
EF1
  8
0
 10
957.10950105253175
 20
341.79650035383639
 30
0.0
 11
957.10950105253175
 21
361.91319270105231
 31
0.0
  0
LINE
  5
EF2
  8
0
 10
942.76872486889272
 20
340.29650035383639
 30
0.0
 11
964.30950105253157
 21
340.29650035383639
 31
0.0
  0
ARC
  5
EF3
  8
0
 10
955.60950105253164
 20
341.79650035383639
 30
0.0
 40
1.5
 50
270.0
 51
0.0
  0
ARC
  5
EF4
  8
0
 10
956.10950105253175
 20
350.84711198035149
 30
0.0
 40
1.0
 50
251.40717745056821
 51
0.0
  0
ARC
  5
EF5
  8
0
 10
964.30950105253157
 20
341.79650035383639
 30
0.0
 40
1.5
 50
270.0
 51
0.0
  0
ARC
  5
EF6
  8
0
 10
969.90950105253148
 20
341.79650035383639
 30
0.0
 40
1.5
 50
180.0
 51
270.0
  0
ARC
  5
EF7
  8
0
 10
967.10950105253164
 20
383.54650035383639
 30
0.0
 40
23.0
 50
233.21321070173849
 51
263.43757213136541
  0
ARC
  5
EF8
  8
0
 10
943.65975358422565
 20
364.6303018667416
 30
0.0
 40
1.5
 50
351.50526946671789
 51
90.0
  0
ARC
  5
EF9
  8
0
 10
944.92804377706193
 20
357.12240239124731
 30
0.0
 40
1.0
 50
135.0000000000046
 51
229.988541975549
  0
ARC
  5
EFA
  8
0
 10
955.60950105253164
 20
361.91319270105231
 30
0.0
 40
1.5
 50
0.0
 51
62.005438267749533
  0
ARC
  5
EFB
  8
0
 10
952.4379465872023
 20
363.92519842020118
 30
0.0
 40
1.5
 50
53.213210701743471
 51
134.9999999999969
  0
ARC
  5
EFC
  8
0
 10
947.48819911889655
 20
368.87494588850689
 30
0.0
 40
1.5
 50
314.99999999999687
 51
36.786789298259997
  0
ARC
  5
EFD
  8
0
 10
944.00484731995425
 20
375.39634845968692
 30
0.0
 40
1.5
 50
19.43026151964596
 51
90.0
  0
ARC
  5
EFE
  8
0
 10
964.30950105253157
 20
359.20702624283717
 30
0.0
 40
1.5
 50
0.0
 51
83.437572131365485
  0
ARC
  5
EFF
  8
0
 10
969.90950105253148
 20
359.20702624283717
 30
0.0
 40
1.5
 50
96.562427868634515
 51
180.0
  0
LINE
  5
F00
  8
0
 10
992.84232188534543
 20
354.98525239627628
 30
0.0
 11
982.84171568964064
 21
364.98585859198101
 31
0.0
  0
LINE
  5
F01
  8
0
 10
977.10950105253164
 20
341.79650035383639
 30
0.0
 11
977.10950105253164
 21
361.91319270105231
 31
0.0
  0
ARC
  5
F02
  8
0
 10
967.10950105253164
 20
383.54650035383639
 30
0.0
 40
35.5
 50
288.59282254942627
 51
310.01145802444398
  0
ARC
  5
F03
  8
0
 10
991.45027723617022
 20
341.79650035383639
 30
0.0
 40
1.5
 50
270.0
 51
26.25121393499963
  0
ARC
  5
F04
  8
0
 10
1003.109501052531
 20
347.54650035383639
 30
0.0
 40
11.5
 50
150.61849827564839
 51
206.25121393492719
  0
ARC
  5
F05
  8
0
 10
978.60950105253175
 20
341.79650035383639
 30
0.0
 40
1.5
 50
180.0
 51
270.0
  0
ARC
  5
F06
  8
0
 10
978.10950105253164
 20
350.84711198035149
 30
0.0
 40
1.0
 50
180.0
 51
288.59282254941729
  0
ARC
  5
F07
  8
0
 10
991.78166171356565
 20
353.92459222449651
 30
0.0
 40
1.5
 50
330.6184982756472
 51
45.000000000003062
  0
LINE
  5
F08
  8
0
 10
995.67074901009164
 20
357.81367952102249
 30
0.0
 11
985.67014281438685
 21
367.81428571672723
 31
0.0
  0
ARC
  5
F09
  8
0
 10
981.78105551786098
 20
363.92519842020118
 30
0.0
 40
1.5
 50
45.0
 51
126.786789298266
  0
ARC
  5
F0A
  8
0
 10
978.60950105253175
 20
361.91319270105231
 30
0.0
 40
1.5
 50
117.9945617322601
 51
180.0
  0
ARC
  5
F0B
  8
0
 10
989.29095832800135
 20
357.12240239124731
 30
0.0
 40
1.0
 50
310.01145802444182
 51
45.000000000004597
  0
ARC
  5
F0C
  8
0
 10
988.7428087053155
 20
372.04650035383639
 30
0.0
 40
1.5
 50
90.0
 51
152.0054382677495
  0
ARC
  5
F0D
  8
0
 10
986.73080298616685
 20
368.87494588850711
 30
0.0
 40
1.5
 50
143.21321070174
 51
225.00000000000301
  0
ARC
  5
F0E
  8
0
 10
967.10950105253164
 20
383.54650035383639
 30
0.0
 40
35.5
 50
319.98854197555619
 51
341.40717745057339
  0
ARC
  5
F0F
  8
0
 10
1003.109501052531
 20
347.54650035383639
 30
0.0
 40
11.5
 50
63.748786065044783
 51
119.38150172435149
  0
ARC
  5
F10
  8
0
 10
993.53359901512067
 20
361.36504307836663
 30
0.0
 40
1.0
 50
225.0
 51
319.98854197555391
  0
ARC
  5
F11
  8
0
 10
996.73140918187141
 20
358.87433969280238
 30
0.0
 40
1.5
 50
224.9999999999969
 51
299.38150172435058
  0
ARC
  5
F12
  8
0
 10
999.80888942601655
 20
372.54650035383639
 30
0.0
 40
1.0
 50
341.40717745056821
 51
90.0
  0
ARC
  5
F13
  8
0
 10
967.10950105253164
 20
383.54650035383639
 30
0.0
 40
23.0
 50
53.213210701738348
 51
83.437572131365954
  0
ARC
  5
F14
  8
0
 10
952.4379465872023
 20
403.1678022874716
 30
0.0
 40
1.5
 50
225.00000000000301
 51
306.78678929825389
  0
ARC
  5
F15
  8
0
 10
967.10950105253164
 20
383.54650035383639
 30
0.0
 40
23.0
 50
143.21321070173869
 51
173.4375721313659
  0
ARC
  5
F16
  8
0
 10
942.77002694153225
 20
386.34650035383629
 30
0.0
 40
1.5
 50
270.0
 51
353.43757213136541
  0
ARC
  5
F17
  8
0
 10
942.77002694153225
 20
380.74650035383638
 30
0.0
 40
1.5
 50
6.5624278686345097
 51
90.0
  0
ARC
  5
F18
  8
0
 10
947.48819911889632
 20
398.21805481916567
 30
0.0
 40
1.5
 50
323.21321070173991
 51
45.0
  0
ARC
  5
F19
  8
0
 10
967.10950105253164
 20
383.54650035383639
 30
0.0
 40
23.0
 50
96.562427868634586
 51
126.7867892982616
  0
ARC
  5
F1A
  8
0
 10
967.10950105253164
 20
383.54650035383639
 30
0.0
 40
35.5
 50
108.5928225494268
 51
130.0114580244439
  0
ARC
  5
F1B
  8
0
 10
944.92804377706193
 20
409.97059831642548
 30
0.0
 40
1.0
 50
130.011458024446
 51
225.0
  0
ARC
  5
F1C
  8
0
 10
955.60950105253164
 20
405.17980800662042
 30
0.0
 40
1.5
 50
297.99456173225042
 51
0.0
  0
ARC
  5
F1D
  8
0
 10
956.10950105253175
 20
416.24588872732119
 30
0.0
 40
1.0
 50
0.0
 51
108.59282254943381
  0
ARC
  5
F1E
  8
0
 10
964.30950105253157
 20
407.88597446483573
 30
0.0
 40
1.5
 50
276.56242786863447
 51
0.0
  0
ARC
  5
F1F
  8
0
 10
969.90950105253148
 20
407.88597446483573
 30
0.0
 40
1.5
 50
180.0
 51
263.43757213136541
  0
ARC
  5
F20
  8
0
 10
967.10950105253164
 20
383.54650035383639
 30
0.0
 40
35.5
 50
18.592822549426781
 51
40.011458024443961
  0
ARC
  5
F21
  8
0
 10
981.78105551786098
 20
403.1678022874716
 30
0.0
 40
1.5
 50
233.2132107017365
 51
314.99999999999687
  0
LINE
  5
F22
  8
0
 10
995.67074901009164
 20
409.27932118665018
 30
0.0
 11
985.67014281438685
 21
399.2787149909455
 31
0.0
  0
ARC
  5
F23
  8
0
 10
967.10950105253164
 20
383.54650035383639
 30
0.0
 40
23.0
 50
6.5624278686340274
 51
36.786789298262043
  0
ARC
  5
F24
  8
0
 10
991.4489751635308
 20
386.34650035383629
 30
0.0
 40
1.5
 50
186.5624278686345
 51
270.0
  0
ARC
  5
F25
  8
0
 10
991.4489751635308
 20
380.74650035383638
 30
0.0
 40
1.5
 50
90.0
 51
173.4375721313655
  0
ARC
  5
F26
  8
0
 10
986.73080298616685
 20
398.21805481916567
 30
0.0
 40
1.5
 50
135.00000000000611
 51
216.7867892982635
  0
ARC
  5
F27
  8
0
 10
988.7428087053155
 20
395.04650035383639
 30
0.0
 40
1.5
 50
207.99456173225039
 51
270.0
  0
ARC
  5
F28
  8
0
 10
999.80888942601655
 20
394.54650035383639
 30
0.0
 40
1.0
 50
270.0
 51
18.59282254942557
  0
ARC
  5
F29
  8
0
 10
1003.109501052531
 20
419.54650035383639
 30
0.0
 40
11.5
 50
153.74878606506371
 51
209.38150172435141
  0
LINE
  5
F2A
  8
0
 10
992.84232188534543
 20
412.10774831139639
 30
0.0
 11
982.84171568964064
 21
402.10714211569172
 31
0.0
  0
ARC
  5
F2B
  8
0
 10
967.10950105253164
 20
383.54650035383639
 30
0.0
 40
35.5
 50
49.988541975556039
 51
71.40717745057357
  0
ARC
  5
F2C
  8
0
 10
978.60950105253175
 20
405.17980800662042
 30
0.0
 40
1.5
 50
180.0
 51
242.00543826773981
  0
ARC
  5
F2D
  8
0
 10
989.29095832800135
 20
409.97059831642548
 30
0.0
 40
1.0
 50
314.99999999999068
 51
49.988541975563173
  0
ARC
  5
F2E
  8
0
 10
978.10950105253164
 20
416.24588872732119
 30
0.0
 40
1.0
 50
71.407177450580605
 51
180.0
  0
ARC
  5
F2F
  8
0
 10
991.78166171356565
 20
413.16840848317628
 30
0.0
 40
1.5
 50
314.99999999999687
 51
29.38150172435277
  0
ARC
  5
F30
  8
0
 10
1003.109501052531
 20
419.54650035383639
 30
0.0
 40
11.5
 50
240.61849827564839
 51
296.25121393495488
  0
ARC
  5
F31
  8
0
 10
993.53359901512067
 20
405.7279576293061
 30
0.0
 40
1.0
 50
40.011458024446
 51
135.0000000000046
  0
ARC
  5
F32
  8
0
 10
996.73140918187141
 20
408.21866101487041
 30
0.0
 40
1.5
 50
60.618498275647219
 51
135.00000000000611
  0
LINE
  5
F33
  8
0
 10
1010.359501052531
 20
359.20572417019758
 30
0.0
 11
1010.359501052531
 21
380.74650035383638
 31
0.0
  0
LINE
  5
F34
  8
0
 10
1014.359501052531
 20
419.54650035383639
 30
0.0
 11
1014.359501052531
 21
347.54650035383639
 31
0.0
  0
LINE
  5
F35
  8
0
 10
1014.609501052531
 20
419.54650035383639
 30
0.0
 11
1014.609501052531
 21
347.54650035383639
 31
0.0
  0
ARC
  5
F36
  8
0
 10
1008.859501052531
 20
372.04650035383639
 30
0.0
 40
1.5
 50
0.0
 51
90.0
  0
LINE
  5
F37
  8
DIM
  6
CONTINUOUS
 10
1055.609501052531
 20
336.04650035383639
 30
0.0
 11
1063.609501052531
 21
336.04650035383639
 31
0.0
  0
SOLID
  5
F38
  8
DIM
  6
CONTINUOUS
 10
1062.109501052531
 20
333.04650035383639
 30
0.0
 11
1063.109501052531
 21
333.04650035383639
 31
0.0
 12
1062.609501052531
 22
336.04650035383639
 32
0.0
 13
1062.609501052531
 23
336.04650035383639
 33
0.0
  0
LINE
  5
F39
  8
0
 10
1010.359501052531
 20
407.88727653747509
 30
0.0
 11
1010.359501052531
 21
386.34650035383629
 31
0.0
  0
ARC
  5
F3A
  8
0
 10
1008.859501052531
 20
380.74650035383638
 30
0.0
 40
1.5
 50
0.0
 51
90.0
  0
ARC
  5
F3B
  8
0
 10
1008.859501052531
 20
386.34650035383629
 30
0.0
 40
1.5
 50
270.0
 51
0.0
  0
ARC
  5
F3C
  8
0
 10
1008.859501052531
 20
395.04650035383639
 30
0.0
 40
1.5
 50
270.0
 51
0.0
  0
TEXT
  5
F3D
  8
DIM
  6
CONTINUOUS
 10
1061.109501052531
 20
381.6315606939753
 30
0.0
 40
3.0
  1
95
 50
90.0
  7
ROMANSS
 72
     1
 11
1059.609501052531
 21
384.06013212254669
 31
0.0
 73
     2
  0
TEXT
  5
F3E
  8
DIM
  6
CONTINUOUS
 10
1069.109501052531
 20
380.29503952568831
 30
0.0
 40
3.0
  1
119
 50
90.0
  7
ROMANSS
 72
     1
 11
1067.609501052531
 21
383.50932523997398
 31
0.0
 73
     2
  0
LINE
  5
F3F
  8
0
 10
919.60950105253175
 20
431.04650035383639
 30
0.0
 11
1054.609501052531
 21
431.04650035383639
 31
0.0
  0
LINE
  5
F40
  8
0
 10
931.10950105253175
 20
430.79650035383639
 30
0.0
 11
1003.109501052531
 21
430.79650035383639
 31
0.0
  0
TEXT
  5
F41
  8
DIM
  6
CONTINUOUS
 10
890.80934849771268
 20
447.61606128748622
 30
0.0
 40
3.0
  1
2x4-M10x15L
  7
ROMANSS
 72
     2
 11
920.52363421199857
 21
449.11606128748622
 31
0.0
 73
     2
  0
LINE
  5
F42
  8
DIM
  6
CONTINUOUS
 10
920.93527022148407
 20
446.11606128748622
 30
0.0
 11
893.39863421199857
 21
446.11606128748622
 31
0.0
  0
LINE
  5
F43
  8
DIM
  6
CONTINUOUS
 10
928.72559186719946
 20
427.16416939374449
 30
0.0
 11
920.93527022148407
 21
446.11606128748622
 31
0.0
  0
LINE
  5
F44
  8
0
 10
955.10950105253153
 20
442.04650035383639
 30
0.0
 11
1051.109501052531
 21
442.04650035383662
 31
0.0
  0
LINE
  5
F45
  8
0
 10
956.10950105253175
 20
443.04650035383651
 30
0.0
 11
1050.109501052531
 21
443.04650035383651
 31
0.0
  0
LINE
  5
F46
  8
0
 10
991.45027723617022
 20
426.79650035383639
 30
0.0
 11
969.90950105253148
 21
426.79650035383639
 31
0.0
  0
LINE
  5
F47
  8
0
 10
942.76872486889272
 20
426.79650035383639
 30
0.0
 11
964.30950105253157
 21
426.79650035383639
 31
0.0
  0
LINE
  5
F48
  8
0
 10
955.10950105253153
 20
442.04650035383662
 30
0.0
 11
955.10950105253141
 21
431.04650035383639
 31
0.0
  0
ARC
  5
F49
  8
0
 10
955.60950105253164
 20
425.29650035383639
 30
0.0
 40
1.5
 50
0.0
 51
90.0
  0
LINE
  5
F4A
  8
0
 10
956.10950105253175
 20
443.04650035383651
 30
0.0
 11
955.10950105253153
 21
442.04650035383662
 31
0.0
  0
ARC
  5
F4B
  8
0
 10
964.30950105253157
 20
425.29650035383639
 30
0.0
 40
1.5
 50
0.0
 51
90.0
  0
ARC
  5
F4C
  8
0
 10
969.90950105253148
 20
425.29650035383639
 30
0.0
 40
1.5
 50
90.0
 51
180.0
  0
ARC
  5
F4D
  8
0
 10
978.60950105253175
 20
425.29650035383639
 30
0.0
 40
1.5
 50
90.0
 51
180.0
  0
LINE
  5
F4E
  8
DIM
  6
CONTINUOUS
 10
1055.609501052531
 20
431.04650035383639
 30
0.0
 11
1063.609501052531
 21
431.04650035383639
 31
0.0
  0
LINE
  5
F4F
  8
0
 10
1051.109501052531
 20
442.04650035383662
 30
0.0
 11
1051.109501052531
 21
431.04650035383639
 31
0.0
  0
LINE
  5
F50
  8
0
 10
1050.109501052531
 20
443.04650035383651
 30
0.0
 11
1051.109501052531
 21
442.04650035383662
 31
0.0
  0
TEXT
  5
F51
  8
DIM
  6
CONTINUOUS
 10
1061.109501052531
 20
434.83604450234782
 30
0.0
 40
3.0
  1
12
 50
90.0
  7
ROMANSS
 72
     1
 11
1059.609501052531
 21
436.97890164520493
 31
0.0
 73
     2
  0
SOLID
  5
F52
  8
DIM
  6
CONTINUOUS
 10
1062.109501052531
 20
434.04650035383639
 30
0.0
 11
1063.109501052531
 21
434.04650035383639
 31
0.0
 12
1062.609501052531
 22
431.04650035383639
 32
0.0
 13
1062.609501052531
 23
431.04650035383639
 33
0.0
  0
SOLID
  5
F53
  8
DIM
  6
CONTINUOUS
 10
1062.109501052531
 20
440.04650035383639
 30
0.0
 11
1063.109501052531
 21
440.04650035383639
 31
0.0
 12
1062.609501052531
 22
443.04650035383651
 32
0.0
 13
1062.609501052531
 23
443.04650035383651
 33
0.0
  0
CIRCLE
  5
F54
  8
0
  6
CONTINUOUS
 10
671.46681611047666
 20
217.9217268199609
 30
0.0
 40
6.5
  0
CIRCLE
  5
F55
  8
0
  6
CONTINUOUS
 10
671.46681611047666
 20
217.9217268199609
 30
0.0
 40
5.9226327944572761
  0
POLYLINE
  5
F56
  8
0
  6
CONTINUOUS
 66
     1
 10
0.0
 20
0.0
 30
0.0
 70
     1
  0
VERTEX
  5
1866
  8
0
  6
CONTINUOUS
 10
669.73476530290839
 20
214.92172681996081
 30
0.0
  0
VERTEX
  5
1867
  8
0
  6
CONTINUOUS
 10
668.00271449533852
 20
217.9217268199609
 30
0.0
  0
VERTEX
  5
1868
  8
0
  6
CONTINUOUS
 10
669.73476530290839
 20
220.92172681996081
 30
0.0
  0
VERTEX
  5
1869
  8
0
  6
CONTINUOUS
 10
673.19886691804481
 20
220.92172681996081
 30
0.0
  0
VERTEX
  5
186A
  8
0
  6
CONTINUOUS
 10
674.93091772561468
 20
217.9217268199609
 30
0.0
  0
VERTEX
  5
186B
  8
0
  6
CONTINUOUS
 10
673.19886691804481
 20
214.92172681996081
 30
0.0
  0
SEQEND
  5
186C
  8
0
  6
CONTINUOUS
  0
CIRCLE
  5
F5E
  8
0
  6
CONTINUOUS
 10
632.46681611047666
 20
178.9217268199609
 30
0.0
 40
6.5
  0
CIRCLE
  5
F5F
  8
0
  6
CONTINUOUS
 10
632.46681611047666
 20
178.9217268199609
 30
0.0
 40
5.9226327944572761
  0
POLYLINE
  5
F60
  8
0
  6
CONTINUOUS
 66
     1
 10
0.0
 20
0.0
 30
0.0
 70
     1
  0
VERTEX
  5
186D
  8
0
  6
CONTINUOUS
 10
630.7347653029085
 20
175.9217268199609
 30
0.0
  0
VERTEX
  5
186E
  8
0
  6
CONTINUOUS
 10
629.00271449533852
 20
178.9217268199609
 30
0.0
  0
VERTEX
  5
186F
  8
0
  6
CONTINUOUS
 10
630.7347653029085
 20
181.9217268199609
 30
0.0
  0
VERTEX
  5
1870
  8
0
  6
CONTINUOUS
 10
634.19886691804481
 20
181.9217268199609
 30
0.0
  0
VERTEX
  5
1871
  8
0
  6
CONTINUOUS
 10
635.93091772561479
 20
178.9217268199609
 30
0.0
  0
VERTEX
  5
1872
  8
0
  6
CONTINUOUS
 10
634.19886691804481
 20
175.9217268199609
 30
0.0
  0
SEQEND
  5
1873
  8
0
  6
CONTINUOUS
  0
CIRCLE
  5
F68
  8
0
  6
CONTINUOUS
 10
671.46681611047666
 20
139.92172681996081
 30
0.0
 40
6.5
  0
CIRCLE
  5
F69
  8
0
  6
CONTINUOUS
 10
671.46681611047666
 20
139.92172681996081
 30
0.0
 40
5.9226327944572761
  0
POLYLINE
  5
F6A
  8
0
  6
CONTINUOUS
 66
     1
 10
0.0
 20
0.0
 30
0.0
 70
     1
  0
VERTEX
  5
1874
  8
0
  6
CONTINUOUS
 10
669.73476530290839
 20
136.92172681996081
 30
0.0
  0
VERTEX
  5
1875
  8
0
  6
CONTINUOUS
 10
668.00271449533852
 20
139.92172681996081
 30
0.0
  0
VERTEX
  5
1876
  8
0
  6
CONTINUOUS
 10
669.73476530290839
 20
142.92172681996081
 30
0.0
  0
VERTEX
  5
1877
  8
0
  6
CONTINUOUS
 10
673.19886691804481
 20
142.92172681996081
 30
0.0
  0
VERTEX
  5
1878
  8
0
  6
CONTINUOUS
 10
674.93091772561468
 20
139.92172681996081
 30
0.0
  0
VERTEX
  5
1879
  8
0
  6
CONTINUOUS
 10
673.19886691804481
 20
136.92172681996081
 30
0.0
  0
SEQEND
  5
187A
  8
0
  6
CONTINUOUS
  0
CIRCLE
  5
F72
  8
0
  6
CONTINUOUS
 10
710.46681611047666
 20
178.9217268199609
 30
0.0
 40
6.5
  0
CIRCLE
  5
F73
  8
0
  6
CONTINUOUS
 10
710.46681611047666
 20
178.9217268199609
 30
0.0
 40
5.9226327944572761
  0
POLYLINE
  5
F74
  8
0
  6
CONTINUOUS
 66
     1
 10
0.0
 20
0.0
 30
0.0
 70
     1
  0
VERTEX
  5
187B
  8
0
  6
CONTINUOUS
 10
708.7347653029085
 20
175.92172681996081
 30
0.0
  0
VERTEX
  5
187C
  8
0
  6
CONTINUOUS
 10
707.00271449533852
 20
178.9217268199609
 30
0.0
  0
VERTEX
  5
187D
  8
0
  6
CONTINUOUS
 10
708.7347653029085
 20
181.9217268199609
 30
0.0
  0
VERTEX
  5
187E
  8
0
  6
CONTINUOUS
 10
712.1988669180447
 20
181.9217268199609
 30
0.0
  0
VERTEX
  5
187F
  8
0
  6
CONTINUOUS
 10
713.93091772561479
 20
178.9217268199609
 30
0.0
  0
VERTEX
  5
1880
  8
0
  6
CONTINUOUS
 10
712.1988669180447
 20
175.92172681996081
 30
0.0
  0
SEQEND
  5
1881
  8
0
  6
CONTINUOUS
  0
CIRCLE
  5
F7C
  8
0
  6
CONTINUOUS
 10
671.46681611047666
 20
535.98577588536079
 30
0.0
 40
6.5
  0
CIRCLE
  5
F7D
  8
0
  6
CONTINUOUS
 10
671.46681611047666
 20
535.98577588536079
 30
0.0
 40
5.9226327944572761
  0
POLYLINE
  5
F7E
  8
0
  6
CONTINUOUS
 66
     1
 10
0.0
 20
0.0
 30
0.0
 70
     1
  0
VERTEX
  5
1882
  8
0
  6
CONTINUOUS
 10
669.73476530290839
 20
538.98577588536068
 30
0.0
  0
VERTEX
  5
1883
  8
0
  6
CONTINUOUS
 10
668.00271449533852
 20
535.98577588536079
 30
0.0
  0
VERTEX
  5
1884
  8
0
  6
CONTINUOUS
 10
669.73476530290839
 20
532.98577588536079
 30
0.0
  0
VERTEX
  5
1885
  8
0
  6
CONTINUOUS
 10
673.19886691804481
 20
532.98577588536079
 30
0.0
  0
VERTEX
  5
1886
  8
0
  6
CONTINUOUS
 10
674.93091772561468
 20
535.98577588536079
 30
0.0
  0
VERTEX
  5
1887
  8
0
  6
CONTINUOUS
 10
673.19886691804481
 20
538.98577588536068
 30
0.0
  0
SEQEND
  5
1888
  8
0
  6
CONTINUOUS
  0
CIRCLE
  5
F86
  8
0
  6
CONTINUOUS
 10
671.46681611047666
 20
613.98577588536079
 30
0.0
 40
6.5
  0
CIRCLE
  5
F87
  8
0
  6
CONTINUOUS
 10
671.46681611047666
 20
613.98577588536079
 30
0.0
 40
5.9226327944572761
  0
POLYLINE
  5
F88
  8
0
  6
CONTINUOUS
 66
     1
 10
0.0
 20
0.0
 30
0.0
 70
     1
  0
VERTEX
  5
1889
  8
0
  6
CONTINUOUS
 10
669.73476530290839
 20
616.98577588536068
 30
0.0
  0
VERTEX
  5
188A
  8
0
  6
CONTINUOUS
 10
668.00271449533852
 20
613.98577588536079
 30
0.0
  0
VERTEX
  5
188B
  8
0
  6
CONTINUOUS
 10
669.73476530290839
 20
610.98577588536079
 30
0.0
  0
VERTEX
  5
188C
  8
0
  6
CONTINUOUS
 10
673.19886691804481
 20
610.98577588536079
 30
0.0
  0
VERTEX
  5
188D
  8
0
  6
CONTINUOUS
 10
674.93091772561468
 20
613.98577588536079
 30
0.0
  0
VERTEX
  5
188E
  8
0
  6
CONTINUOUS
 10
673.19886691804481
 20
616.98577588536068
 30
0.0
  0
SEQEND
  5
188F
  8
0
  6
CONTINUOUS
  0
CIRCLE
  5
F90
  8
0
  6
CONTINUOUS
 10
632.46681611047666
 20
574.98577588536068
 30
0.0
 40
6.5
  0
CIRCLE
  5
F91
  8
0
  6
CONTINUOUS
 10
632.46681611047666
 20
574.98577588536068
 30
0.0
 40
5.9226327944572761
  0
POLYLINE
  5
F92
  8
0
  6
CONTINUOUS
 66
     1
 10
0.0
 20
0.0
 30
0.0
 70
     1
  0
VERTEX
  5
1890
  8
0
  6
CONTINUOUS
 10
630.7347653029085
 20
577.98577588536079
 30
0.0
  0
VERTEX
  5
1891
  8
0
  6
CONTINUOUS
 10
629.00271449533852
 20
574.98577588536068
 30
0.0
  0
VERTEX
  5
1892
  8
0
  6
CONTINUOUS
 10
630.7347653029085
 20
571.98577588536068
 30
0.0
  0
VERTEX
  5
1893
  8
0
  6
CONTINUOUS
 10
634.19886691804481
 20
571.98577588536068
 30
0.0
  0
VERTEX
  5
1894
  8
0
  6
CONTINUOUS
 10
635.93091772561479
 20
574.98577588536068
 30
0.0
  0
VERTEX
  5
1895
  8
0
  6
CONTINUOUS
 10
634.19886691804481
 20
577.98577588536079
 30
0.0
  0
SEQEND
  5
1896
  8
0
  6
CONTINUOUS
  0
CIRCLE
  5
F9A
  8
0
  6
CONTINUOUS
 10
710.46681611047666
 20
574.98577588536068
 30
0.0
 40
6.5
  0
CIRCLE
  5
F9B
  8
0
  6
CONTINUOUS
 10
710.46681611047666
 20
574.98577588536068
 30
0.0
 40
5.9226327944572761
  0
POLYLINE
  5
F9C
  8
0
  6
CONTINUOUS
 66
     1
 10
0.0
 20
0.0
 30
0.0
 70
     1
  0
VERTEX
  5
1897
  8
0
  6
CONTINUOUS
 10
708.7347653029085
 20
577.98577588536079
 30
0.0
  0
VERTEX
  5
1898
  8
0
  6
CONTINUOUS
 10
707.00271449533852
 20
574.98577588536068
 30
0.0
  0
VERTEX
  5
1899
  8
0
  6
CONTINUOUS
 10
708.7347653029085
 20
571.98577588536068
 30
0.0
  0
VERTEX
  5
189A
  8
0
  6
CONTINUOUS
 10
712.1988669180447
 20
571.98577588536068
 30
0.0
  0
VERTEX
  5
189B
  8
0
  6
CONTINUOUS
 10
713.93091772561479
 20
574.98577588536068
 30
0.0
  0
VERTEX
  5
189C
  8
0
  6
CONTINUOUS
 10
712.1988669180447
 20
577.98577588536079
 30
0.0
  0
SEQEND
  5
189D
  8
0
  6
CONTINUOUS
  0
CIRCLE
  5
FA4
  8
0
  6
CONTINUOUS
 10
355.6558262389575
 20
419.54650035383639
 30
0.0
 40
4.25
  0
ARC
  5
FA5
  8
0
  6
CONTINUOUS
 62
     2
 10
355.6558262389575
 20
419.54650035383639
 30
0.0
 40
5.0000000000000053
 50
165.00000000000551
 51
104.9999999999944
  0
CIRCLE
  5
FA6
  8
0
  6
CONTINUOUS
 10
427.65582623895727
 20
419.54650035383639
 30
0.0
 40
4.25
  0
ARC
  5
FA7
  8
0
  6
CONTINUOUS
 62
     2
 10
427.65582623895727
 20
419.54650035383639
 30
0.0
 40
5.0000000000000053
 50
165.00000000000551
 51
104.9999999999944
  0
CIRCLE
  5
FA8
  8
0
  6
CONTINUOUS
 10
427.65582623895727
 20
347.54650035383639
 30
0.0
 40
4.25
  0
ARC
  5
FA9
  8
0
  6
CONTINUOUS
 62
     2
 10
427.65582623895727
 20
347.54650035383639
 30
0.0
 40
5.0000000000000053
 50
165.00000000000551
 51
104.9999999999944
  0
CIRCLE
  5
FAA
  8
0
  6
CONTINUOUS
 10
355.6558262389575
 20
347.54650035383639
 30
0.0
 40
4.25
  0
ARC
  5
FAB
  8
0
  6
CONTINUOUS
 62
     2
 10
355.6558262389575
 20
347.54650035383639
 30
0.0
 40
5.0000000000000053
 50
165.00000000000551
 51
104.9999999999944
  0
CIRCLE
  5
FAC
  8
0
  6
CONTINUOUS
 10
931.10950105253175
 20
419.54650035383639
 30
0.0
 40
4.25
  0
ARC
  5
FAD
  8
0
  6
CONTINUOUS
 62
     2
 10
931.10950105253175
 20
419.54650035383639
 30
0.0
 40
5.0000000000000053
 50
75.000000000005556
 51
14.999999999994451
  0
CIRCLE
  5
FAE
  8
0
  6
CONTINUOUS
 10
1003.109501052531
 20
419.54650035383639
 30
0.0
 40
4.25
  0
ARC
  5
FAF
  8
0
  6
CONTINUOUS
 62
     2
 10
1003.109501052531
 20
419.54650035383639
 30
0.0
 40
5.0000000000000053
 50
75.000000000005556
 51
14.999999999994451
  0
CIRCLE
  5
FB0
  8
0
  6
CONTINUOUS
 10
1003.109501052531
 20
347.54650035383639
 30
0.0
 40
4.25
  0
ARC
  5
FB1
  8
0
  6
CONTINUOUS
 62
     2
 10
1003.109501052531
 20
347.54650035383639
 30
0.0
 40
5.0000000000000053
 50
75.000000000005556
 51
14.999999999994451
  0
CIRCLE
  5
FB2
  8
0
  6
CONTINUOUS
 10
931.10950105253175
 20
347.54650035383639
 30
0.0
 40
4.25
  0
ARC
  5
FB3
  8
0
  6
CONTINUOUS
 62
     2
 10
931.10950105253175
 20
347.54650035383639
 30
0.0
 40
5.0000000000000053
 50
75.000000000005556
 51
14.999999999994451
  0
SOLID
  5
FB4
  8
DIM
  6
CONTINUOUS
 10
696.96681611047654
 20
568.98577588536079
 30
0.0
 11
695.96681611047654
 21
568.98577588536079
 31
0.0
 12
696.46681611047654
 22
571.98577588536068
 32
0.0
 13
696.46681611047654
 23
571.98577588536068
 33
0.0
  0
SOLID
  5
FB5
  8
DIM
  6
CONTINUOUS
 10
696.96681611047666
 20
580.98577588536079
 30
0.0
 11
695.96681611047666
 21
580.98577588536079
 31
0.0
 12
696.46681611047666
 22
577.98577588536079
 32
0.0
 13
696.46681611047666
 23
577.98577588536079
 33
0.0
  0
LINE
  5
FB6
  8
DIM
  6
CONTINUOUS
 10
696.46681611047654
 20
566.45458859788016
 30
0.0
 11
696.46681611047654
 21
586.95626658660535
 31
0.0
  0
LINE
  5
FB7
  8
0
 10
686.96681611047666
 20
577.98577588536079
 30
0.0
 11
686.96681611047666
 21
571.98577588536068
 31
0.0
  0
LINE
  5
FB8
  8
DIM
  6
CONTINUOUS
 10
688.35569334734464
 20
577.98577588536079
 30
0.0
 11
697.46681611047654
 21
577.98577588536079
 31
0.0
  0
LINE
  5
FB9
  8
0
 10
686.96681611047666
 20
577.98577588536079
 30
0.0
 11
683.08576614909884
 21
577.98577588536079
 31
0.0
  0
LINE
  5
FBA
  8
0
 10
686.96681611047666
 20
571.98577588536068
 30
0.0
 11
683.08576614909884
 21
571.98577588536068
 31
0.0
  0
LINE
  5
FBB
  8
DIM
  6
CONTINUOUS
 10
688.33202824763305
 20
571.98577588536091
 30
0.0
 11
697.46681611047654
 21
571.98577588536068
 31
0.0
  0
TEXT
  5
FBC
  8
DIM
  6
CONTINUOUS
 10
694.96681611047643
 20
584.93220445678935
 30
0.0
 40
3.0
  1
6
 50
90.0
  7
ROMANSS
 72
     1
 11
693.46681611047643
 21
585.86077588536068
 31
0.0
 73
     2
  0
ARC
  5
FBD
  8
0
  6
CONTINUOUS
 10
671.46681611047666
 20
574.98577588536068
 30
0.0
 40
12.00000000000005
 50
14.477512185929861
 51
345.52248781407008
  0
CIRCLE
  5
FBE
  8
0
  6
CONTINUOUS
 10
671.46681611047654
 20
178.92172681996081
 30
0.0
 40
17.5
  0
LINE
  5
FBF
  8
0
 10
686.96681611047654
 20
181.92172681996081
 30
0.0
 11
686.96681611047654
 21
175.92172681996081
 31
0.0
  0
LINE
  5
FC0
  8
0
 10
686.96681611047654
 20
181.92172681996081
 30
0.0
 11
683.08576614909884
 21
181.92172681996081
 31
0.0
  0
LINE
  5
FC1
  8
0
 10
686.96681611047654
 20
175.92172681996081
 30
0.0
 11
683.08576614909884
 21
175.92172681996081
 31
0.0
  0
ARC
  5
FC2
  8
0
  6
CONTINUOUS
 10
671.46681611047654
 20
178.92172681996081
 30
0.0
 40
12.00000000000005
 50
14.477512185929861
 51
345.52248781407008
  0
LINE
  5
FC3
  8
HIDDEN
  6
HIDDEN
 10
659.46681611047666
 20
442.04650035383639
 30
0.0
 11
659.46681611047666
 21
325.04650035383639
 31
0.0
  0
LINE
  5
FC4
  8
HIDDEN
  6
HIDDEN
 10
683.08576614909884
 20
442.04650035383639
 30
0.0
 11
683.08576614909884
 21
325.04650035383639
 31
0.0
  0
LINE
  5
FC5
  8
HIDDEN
  6
HIDDEN
 10
686.96681611047666
 20
442.04650035383639
 30
0.0
 11
686.96681611047666
 21
325.04650035383639
 31
0.0
  0
LINE
  5
FC6
  8
DIM
  6
CONTINUOUS
 10
664.52641042454127
 20
565.19645676120115
 30
0.0
 11
685.67755949092759
 21
595.02977738006985
 31
0.0
  0
SOLID
  5
FC7
  8
DIM
  6
CONTINUOUS
 10
666.66940014286502
 20
567.35460297199381
 30
0.0
 11
665.85362354918504
 21
567.93297011248853
 31
0.0
 12
664.52641042454127
 22
565.19645676120115
 32
0.0
 13
664.52641042454127
 23
565.19645676120115
 33
0.0
  0
SOLID
  5
FC8
  8
DIM
  6
CONTINUOUS
 10
676.26423207808818
 20
582.61694879872834
 30
0.0
 11
677.08000867176816
 21
582.03858165823362
 31
0.0
 12
678.40722179641193
 22
584.7750950095209
 32
0.0
 13
678.40722179641193
 23
584.7750950095209
 33
0.0
  0
LINE
  5
FC9
  8
DIM
  6
CONTINUOUS
 10
683.51994606850758
 20
562.29829945327174
 30
0.0
 11
656.54080165221922
 21
590.69733440365155
 31
0.0
  0
SOLID
  5
FCA
  8
DIM
  6
CONTINUOUS
 10
681.09119589192835
 20
564.12892027140037
 30
0.0
 11
681.81619454519057
 21
564.81767055471641
 31
0.0
 12
683.51994606850758
 22
562.29829945327174
 32
0.0
 13
683.51994606850758
 23
562.29829945327174
 33
0.0
  0
SOLID
  5
FCB
  8
DIM
  6
CONTINUOUS
 10
661.84243632902633
 20
585.84263149932008
 30
0.0
 11
661.11743767576399
 21
585.15388121600404
 31
0.0
 12
659.4136861524471
 22
587.67325231744894
 32
0.0
 13
659.4136861524471
 23
587.67325231744894
 33
0.0
  0
TEXT
  5
FCC
  8
DIM
  6
CONTINUOUS
 10
687.18112334690625
 20
596.67557418285014
 30
0.0
 40
3.0
  1
%%c24H7
  7
ROMANSS
 11
687.18112334690625
 21
598.17557418285014
 31
0.0
 73
     2
  0
LINE
  5
FCD
  8
DIM
  6
CONTINUOUS
 10
685.67755949092759
 20
595.02977738006985
 30
0.0
 11
700.6684749393321
 21
595.02977738006985
 31
0.0
  0
TEXT
  5
FCE
  8
DIM
  6
CONTINUOUS
 10
639.353223958586
 20
592.34313120643196
 30
0.0
 40
3.0
  1
%%c35x1dp
  7
ROMANSS
 11
639.353223958586
 21
593.84313120643196
 31
0.0
 73
     2
  0
LINE
  5
FCF
  8
DIM
  6
CONTINUOUS
 10
639.04730435877048
 20
590.69733440365178
 30
0.0
 11
656.54080165221922
 21
590.69733440365155
 31
0.0
  0
LINE
  5
FD0
  8
DIM
  6
CONTINUOUS
 10
659.46681611047666
 20
572.89325834970396
 30
0.0
 11
659.46681611047666
 21
548.91884389189568
 31
0.0
  0
LINE
  5
FD1
  8
DIM
  6
CONTINUOUS
 10
686.96681611047666
 20
570.78274707545256
 30
0.0
 11
686.96681611047666
 21
549.02192450991265
 31
0.0
  0
LINE
  5
FD2
  8
DIM
  6
CONTINUOUS
 10
686.96681611047666
 20
550.02192450991265
 30
0.0
 11
659.46681611047666
 21
550.02192450991276
 31
0.0
  0
LINE
  5
FD3
  8
HIDDEN
  6
HIDDEN
 10
653.96681611047666
 20
443.04650035383651
 30
0.0
 11
653.96681611047666
 21
324.04650035383639
 31
0.0
  0
LINE
  5
FD4
  8
HIDDEN
  6
HIDDEN
 10
688.96681611047666
 20
443.04650035383651
 30
0.0
 11
688.96681611047666
 21
324.04650035383639
 31
0.0
  0
LINE
  5
FD5
  8
0
 10
624.46681611047666
 20
443.04650035383651
 30
0.0
 11
623.46681611047666
 21
442.04650035383662
 31
0.0
  0
LINE
  5
FD6
  8
HIDDEN
  6
HIDDEN
 10
653.96681611047666
 20
442.04650035383639
 30
0.0
 11
688.96681611047666
 21
442.04650035383639
 31
0.0
  0
LINE
  5
FD7
  8
DIM
  6
CONTINUOUS
 10
622.60121346581252
 20
324.04650035383622
 30
0.0
 11
601.96681611047666
 21
324.04650035383622
 31
0.0
  0
LINE
  5
FD8
  8
DIM
  6
CONTINUOUS
 10
602.96681611047666
 20
318.33400934593033
 30
0.0
 11
602.96681611047666
 21
331.97946651129718
 31
0.0
  0
LINE
  5
FD9
  8
DIM
  6
CONTINUOUS
 10
653.24184027484853
 20
325.04650035383611
 30
0.0
 11
601.96681611047666
 21
325.04650035383622
 31
0.0
  0
SOLID
  5
FDA
  8
DIM
  6
CONTINUOUS
 10
602.46681611047666
 20
328.04650035383622
 30
0.0
 11
603.46681611047666
 21
328.04650035383622
 31
0.0
 12
602.96681611047666
 22
325.04650035383622
 32
0.0
 13
602.96681611047666
 23
325.04650035383622
 33
0.0
  0
SOLID
  5
FDB
  8
DIM
  6
CONTINUOUS
 10
602.46681611047666
 20
321.04650035383622
 30
0.0
 11
603.46681611047666
 21
321.04650035383622
 31
0.0
 12
602.96681611047666
 22
324.04650035383622
 32
0.0
 13
602.96681611047666
 23
324.04650035383622
 33
0.0
  0
LINE
  5
FDC
  8
HIDDEN
  6
HIDDEN
 10
653.96681611047666
 20
325.04650035383622
 30
0.0
 11
688.96681611047666
 21
325.04650035383622
 31
0.0
  0
TEXT
  5
FDD
  8
DIM
  6
CONTINUOUS
 10
601.46681611047666
 20
329.23538231236557
 30
0.0
 40
3.0
  1
1
 50
90.0
  7
ROMANSS
 72
     1
 11
599.96681611047666
 21
329.59252516950841
 31
0.0
 73
     2
  0
LINE
  5
FDE
  8
DIM
  6
CONTINUOUS
 10
1051.109501052531
 20
443.04650035383651
 30
0.0
 11
1071.609501052531
 21
443.04650035383651
 31
0.0
  0
SOLID
  5
FDF
  8
DIM
  6
CONTINUOUS
 10
1062.109501052531
 20
440.04650035383639
 30
0.0
 11
1063.109501052531
 21
440.04650035383639
 31
0.0
 12
1062.609501052531
 22
443.04650035383651
 32
0.0
 13
1062.609501052531
 23
443.04650035383651
 33
0.0
  0
SOLID
  5
FE0
  8
DIM
  6
CONTINUOUS
 10
1070.109501052531
 20
440.04650035383639
 30
0.0
 11
1071.109501052531
 21
440.04650035383639
 31
0.0
 12
1070.609501052531
 22
443.04650035383651
 32
0.0
 13
1070.609501052531
 23
443.04650035383651
 33
0.0
  0
LINE
  5
FE1
  8
DIM
  6
CONTINUOUS
 10
1070.609501052531
 20
324.04650035383639
 30
0.0
 11
1070.609501052531
 21
443.04650035383651
 31
0.0
  0
LINE
  5
FE2
  8
DIM
  6
CONTINUOUS
 10
607.70529207834022
 20
536.98577588536079
 30
0.0
 11
607.70529207834022
 21
612.98577588536068
 31
0.0
  0
LINE
  5
FE3
  8
DIM
  6
CONTINUOUS
 10
619.46681611047666
 20
533.98577588536068
 30
0.0
 11
604.97675830519142
 21
533.98577588536068
 31
0.0
  0
SOLID
  5
FE4
  8
DIM
  6
CONTINUOUS
 10
608.20529207834022
 20
536.98577588536079
 30
0.0
 11
607.20529207834022
 21
536.98577588536079
 31
0.0
 12
607.70529207834022
 22
533.98577588536068
 32
0.0
 13
607.70529207834022
 23
533.98577588536068
 33
0.0
  0
LINE
  5
FE5
  8
DIM
  6
CONTINUOUS
 10
619.46681611047666
 20
615.98577588536079
 30
0.0
 11
604.97675830519142
 21
615.98577588536079
 31
0.0
  0
SOLID
  5
FE6
  8
DIM
  6
CONTINUOUS
 10
608.20529207834022
 20
612.98577588536068
 30
0.0
 11
607.20529207834022
 21
612.98577588536068
 31
0.0
 12
607.70529207834022
 22
615.98577588536079
 32
0.0
 13
607.70529207834022
 23
615.98577588536079
 33
0.0
  0
TEXT
  5
FE7
  8
DIM
  6
CONTINUOUS
 10
606.20529207833988
 20
585.83449926988806
 30
0.0
 40
3.0
  1
82
 50
90.0
  7
ROMANSS
 72
     1
 11
604.70529207833977
 21
588.2630706984595
 31
0.0
 73
     2
  0
LINE
  5
FE8
  8
DIM
  6
CONTINUOUS
 10
671.46681611047666
 20
486.3932583497039
 30
0.0
 11
671.46681611047666
 21
462.41884389189579
 31
0.0
  0
ARC
  5
FE9
  8
DIM
  6
CONTINUOUS
 10
671.46681611047666
 20
574.98577588536102
 30
0.0
 40
109.88774087137119
 50
270.0
 51
0.0
  0
TEXT
  5
FEE
  8
LOGO
 62
     6
 10
1005.193093707253
 20
11.121942373843121
 30
0.0
 40
17.897567750944539
  1
作動角度
 41
0.9
  7
CHINESET
 72
     4
 11
1037.408715658953
 21
19.512161245277142
 31
0.0
  0
LINE
  5
FEF
  8
LOGO
 62
     6
 10
1083.6256454890461
 20
-14.04577828774374
 30
0.0
 11
991.19178582886161
 21
-14.04577828774387
 31
0.0
  0
LINE
  5
FF0
  8
LOGO
 62
     6
 10
1083.6256454890461
 20
35.172533027353758
 30
0.0
 11
991.19178582886161
 21
35.172533027353758
 31
0.0
  0
TEXT
  5
FF1
  8
LOGO
  6
CONTINUOUS
 62
     6
 10
995.2215916745846
 20
-6.588458391516979
 30
0.0
 40
11.18597984434034
  1
Rotary angle
 41
0.8
  7
CHINESET
 72
     4
 11
1037.408715658953
 21
-2.8597984434035331
 31
0.0
  0
TEXT
  5
FF2
  8
LOGO
  6
CONTINUOUS
 62
     7
 10
1021.386131772463
 20
64.002381190049647
 30
0.0
 40
22.371959688680679
  1
90
  7
CHINESET
 72
     1
 11
1039.4967658061571
 21
75.188361034389985
 31
0.0
 73
     2
  0
LINE
  5
FF3
  8
LOGO
 62
     6
 10
1074.676861613573
 20
95.576824186791598
 30
0.0
 11
1000.140569704334
 21
95.576824186791598
 31
0.0
  0
LINE
  5
FF4
  8
LOGO
 62
     6
 10
1074.676861613573
 20
55.307296747166333
 30
0.0
 11
1000.140569704334
 21
55.307296747166369
 31
0.0
  0
LINE
  5
FF5
  8
LOGO
 62
     1
 10
1107.0
 20
109.0
 30
0.0
 11
277.0
 21
109.0
 31
0.0
  0
LINE
  5
FF6
  8
LOGO
 62
     1
 10
1107.0
 20
-25.231758132084082
 30
0.0
 11
277.0
 21
-25.231758132084082
 31
0.0
  0
LINE
  5
FF7
  8
LOGO
  6
CONTINUOUS
 62
     6
 10
532.220783271051
 20
73.325668612875006
 30
0.0
 11
556.65393595029957
 21
76.552996654759511
 31
0.0
  0
LINE
  5
FF8
  8
LOGO
  6
CONTINUOUS
 62
     6
 10
532.220783271051
 20
64.192701050460059
 30
0.0
 11
556.65393595029957
 21
60.965373008575547
 31
0.0
  0
LINE
  5
FF9
  8
LOGO
 62
     1
 10
572.30986789058488
 20
82.153648373583195
 30
0.0
 11
375.43662263019502
 21
82.153648373583195
 31
0.0
  0
LINE
  5
FFA
  8
LOGO
 62
     1
 10
572.30986789058488
 20
55.307296747166369
 30
0.0
 11
375.43662263019502
 21
55.307296747166369
 31
0.0
  0
TEXT
  5
FFB
  8
LOGO
 62
     6
 10
502.95900615931072
 20
88.865236280187389
 30
0.0
 40
13.423175813208401
  1
1 : 1
  7
CHINESET
 72
     1
 11
526.60936354448745
 21
95.576824186791598
 31
0.0
 73
     2
  0
TEXT
  5
FFC
  8
LOGO
 62
     6
 10
502.95900615931072
 20
35.172533027353772
 30
0.0
 40
13.423175813208401
  1
m/m
  7
CHINESET
 72
     1
 11
526.60936354448745
 21
41.884120933957973
 31
0.0
 73
     2
  0
LINE
  5
FFD
  8
LOGO
 62
     1
 10
572.30986789058488
 20
28.460945120749681
 30
0.0
 11
276.99999999999977
 21
28.460945120749681
 31
0.0
  0
TEXT
  5
FFE
  8
LOGO
  6
CONTINUOUS
 62
     5
 10
281.3936320819887
 20
1.137868179578063
 30
0.0
 40
20.134763719812611
  1
金器工業股份有限公司
 41
0.8
  7
LOGO
  0
TEXT
  5
FFF
  8
LOGO
  6
CONTINUOUS
 62
     5
 10
287.15901399818648
 20
-19.00084037529717
 30
0.0
 40
13.423175813208401
  1
MINDMAN INDUSTRIAL CO.,LTD
 41
0.85
  7
CHINESET
  0
SOLID
  5
1000
  8
LOGO
 62
     5
 10
290.92676033179117
 20
50.775064271585933
 30
0.0
 11
296.73058932928888
 21
50.775064271584007
 31
0.0
 12
320.94656549126512
 22
105.81137373061949
 32
0.0
 13
326.75039448876231
 23
105.8113737306157
 33
0.0
  0
SOLID
  5
1001
  8
LOGO
 62
     5
 10
299.13217374205021
 20
50.775064271585933
 30
0.0
 11
304.9360027395474
 21
50.775064271585933
 31
0.0
 12
326.75039448876231
 22
101.4084689738949
 32
0.0
 13
320.94656549126512
 23
80.127762649734535
 33
0.0
  0
SOLID
  5
1002
  8
LOGO
 62
     2
 10
296.73058932928888
 20
50.775064271584007
 30
0.0
 11
299.13217374205021
 21
50.775064271585933
 31
0.0
 12
326.75039448876231
 22
105.8113737306157
 32
0.0
 13
329.15197890152172
 23
105.8113737306157
 33
0.0
  0
SOLID
  5
1003
  8
LOGO
 62
     5
 10
296.89618758138852
 20
40.768462551761488
 30
0.0
 11
298.89750792535131
 21
40.768462551761488
 31
0.0
 12
296.89618758138852
 22
30.761860831938879
 32
0.0
 13
298.89750792535131
 23
30.761860831938879
 33
0.0
  0
SOLID
  5
1004
  8
LOGO
 62
     5
 10
281.62179917559121
 20
30.761860831938879
 30
0.0
 11
283.62311951955809
 21
30.761860831938879
 31
0.0
 12
289.25899337848853
 22
40.768462551761488
 32
0.0
 13
291.260313722452
 23
40.768462551761488
 33
0.0
  0
SOLID
  5
1005
  8
LOGO
 62
     5
 10
289.25899337848853
 20
40.768462551761488
 30
0.0
 11
291.260313722452
 21
40.768462551761488
 31
0.0
 12
289.25899337848853
 22
30.761860831938879
 32
0.0
 13
291.260313722452
 23
30.761860831938879
 33
0.0
  0
SOLID
  5
1006
  8
LOGO
 62
     5
 10
289.25899337848853
 20
30.761860831938879
 30
0.0
 11
291.260313722452
 21
30.761860831938879
 31
0.0
 12
296.89618758138852
 22
40.768462551761488
 32
0.0
 13
298.89750792535131
 23
40.768462551761488
 33
0.0
  0
LINE
  5
1007
  8
LOGO
 62
     1
 10
277.0
 20
-25.231758132084082
 30
0.0
 11
277.0
 21
109.0
 31
0.0
  0
TEXT
  5
1008
  8
LOGO
 62
     6
 10
386.50475018688962
 20
88.871842173796239
 30
0.0
 40
13.423175813208401
  1
比例 Scale:
 41
0.9
  7
CHINESET
 72
     4
 11
429.12932588302863
 21
95.576824186791598
 31
0.0
  0
TEXT
  5
1009
  8
LOGO
 62
     6
 10
391.19686923231018
 20
62.207703112757208
 30
0.0
 40
13.423175813208401
  1
投影 View:
 41
0.9
  7
CHINESET
 72
     4
 11
429.12932588302863
 21
68.730472560374764
 31
0.0
  0
TEXT
  5
100A
  8
LOGO
 62
     6
 10
392.50922436761948
 20
35.172533027353779
 30
0.0
 40
13.423175813208401
  1
單位 Unit:
 41
0.9
  7
CHINESET
 72
     4
 11
429.12932588302863
 21
41.884120933957973
 31
0.0
  0
POLYLINE
  5
100B
  8
LOGO
 62
     5
 66
     1
 10
0.0
 20
0.0
 30
0.0
 70
     1
 40
2.004527588105788
 41
2.004527588105788
  0
VERTEX
  5
189E
  8
LOGO
 62
     5
 10
345.62323533323757
 20
35.76516169184918
 30
0.0
 42
1.0
  0
VERTEX
  5
189F
  8
LOGO
 62
     5
 10
353.64134568566061
 20
35.76516169184918
 30
0.0
 42
1.0
  0
SEQEND
  5
18A0
  8
LOGO
 62
     5
  0
LINE
  5
100C
  8
LOGO
 62
     5
 10
364.97561305849058
 20
30.761860831938879
 30
0.0
 11
364.97561305849058
 21
36.765821863831633
 31
0.0
  0
SOLID
  5
100D
  8
LOGO
 62
     5
 10
352.63407089336653
 20
40.768462551761488
 30
0.0
 11
354.6353912373296
 21
40.768462551761488
 31
0.0
 12
352.63407089336653
 22
30.761860831938879
 32
0.0
 13
354.6353912373296
 23
30.761860831938879
 33
0.0
  0
SOLID
  5
100E
  8
LOGO
 62
     5
 10
356.97033168263101
 20
30.761860831938879
 30
0.0
 11
358.97165202659772
 21
30.761860831938879
 31
0.0
 12
356.97033168263101
 22
40.768462551761488
 32
0.0
 13
358.97165202659772
 23
40.768462551761488
 33
0.0
  0
SOLID
  5
100F
  8
LOGO
 62
     5
 10
362.97429271452779
 20
36.765821863831633
 30
0.0
 11
364.97561305849058
 21
36.765821863831363
 31
0.0
 12
362.97429271452779
 22
30.761860831938879
 32
0.0
 13
364.97561305849058
 23
30.761860831938879
 33
0.0
  0
SOLID
  5
1010
  8
LOGO
 62
     5
 10
323.94834587517931
 20
43.770443067709749
 30
0.0
 11
325.9496662191421
 21
43.770443067709749
 31
0.0
 12
323.94834587517931
 22
30.761860831938879
 32
0.0
 13
325.9496662191421
 23
30.761860831938879
 33
0.0
  0
SOLID
  5
1011
  8
LOGO
 62
     5
 10
328.28460666444931
 20
40.768462551761488
 30
0.0
 11
330.2859270084125
 21
40.768462551761488
 31
0.0
 12
328.28460666444931
 22
30.761860831938879
 32
0.0
 13
330.2859270084125
 23
30.761860831938879
 33
0.0
  0
SOLID
  5
1012
  8
LOGO
 62
     5
 10
334.28856769634223
 20
36.765821863831633
 30
0.0
 11
336.28988804030541
 21
36.765821863831633
 31
0.0
 12
334.28856769634223
 22
30.761860831938879
 32
0.0
 13
336.28988804030541
 23
30.761860831938879
 33
0.0
  0
SOLID
  5
1013
  8
LOGO
 62
     5
 10
340.29252872823542
 20
36.765821863831633
 30
0.0
 11
342.29384907219821
 21
36.765821863831633
 31
0.0
 12
340.29252872823542
 22
30.761860831935088
 32
0.0
 13
342.29384907219821
 23
30.761860831935088
 33
0.0
  0
LINE
  5
1014
  8
LOGO
 62
     1
 10
375.43662263019502
 20
28.460945120749528
 30
0.0
 11
375.43662263019502
 21
109.0
 31
0.0
  0
SOLID
  5
1015
  8
LOGO
 62
     5
 10
305.602842678157
 20
40.768462551761488
 30
0.0
 11
307.60416302211979
 21
40.768462551761488
 31
0.0
 12
305.602842678157
 22
30.761860831938879
 32
0.0
 13
307.60416302211979
 23
30.761860831938879
 33
0.0
  0
SOLID
  5
1016
  8
LOGO
 62
     5
 10
311.60680371004941
 20
36.765821863831633
 30
0.0
 11
313.608124054016
 21
36.765821863831633
 31
0.0
 12
311.60680371004941
 22
30.761860831938879
 32
0.0
 13
313.608124054016
 23
30.761860831938879
 33
0.0
  0
SOLID
  5
1017
  8
LOGO
 62
     5
 10
301.26658188888632
 20
40.768462551761488
 30
0.0
 11
303.26790223285502
 21
40.768462551761488
 31
0.0
 12
301.26658188888632
 22
30.761860831935088
 32
0.0
 13
303.26790223285502
 23
30.761860831938879
 33
0.0
  0
POLYLINE
  5
1018
  8
LOGO
 62
     5
 66
     1
 10
0.0
 20
0.0
 30
0.0
 70
     1
 40
2.004527588105788
 41
2.004527588105788
  0
VERTEX
  5
18A1
  8
LOGO
 62
     5
 10
316.93751031505212
 20
35.76516169184918
 30
0.0
 42
1.0
  0
VERTEX
  5
18A2
  8
LOGO
 62
     5
 10
324.95562066747527
 20
35.76516169184918
 30
0.0
 42
1.0
  0
SEQEND
  5
18A3
  8
LOGO
 62
     5
  0
POLYLINE
  5
1019
  8
LOGO
 62
     5
 66
     1
 10
0.0
 20
0.0
 30
0.0
 40
2.004527588105788
 41
2.004527588105788
  0
VERTEX
  5
18A4
  8
LOGO
 62
     5
 10
363.97976375272162
 20
36.765821863831661
 30
0.0
 42
1.0
  0
VERTEX
  5
18A5
  8
LOGO
 62
     5
 10
357.96618098840401
 20
36.765821863831661
 30
0.0
 42
1.0
  0
SEQEND
  5
18A6
  8
LOGO
 62
     5
  0
SOLID
  5
101A
  8
LOGO
 62
     5
 10
359.17178406099339
 20
50.775064271584007
 30
0.0
 11
364.97561305849058
 21
50.775064271584007
 31
0.0
 12
359.17178406099339
 22
105.8113737306157
 32
0.0
 13
364.97561305849058
 23
105.81137373061949
 33
0.0
  0
SOLID
  5
101B
  8
LOGO
 62
     5
 10
329.15197890152172
 20
105.8113737306157
 30
0.0
 11
334.95580789901879
 21
105.81137373061949
 31
0.0
 12
329.15197890152172
 22
55.177969028306812
 32
0.0
 13
334.95580789901879
 23
76.458675352467168
 33
0.0
  0
SOLID
  5
101C
  8
LOGO
 62
     5
 10
329.15197890152172
 20
55.177969028306812
 30
0.0
 11
334.95580789901879
 21
76.458675352467168
 31
0.0
 12
356.7701996482337
 22
105.81137373061949
 32
0.0
 13
350.96637065073611
 23
105.81137373061949
 33
0.0
  0
SOLID
  5
101D
  8
LOGO
 62
     5
 10
356.7701996482337
 20
101.4084689738949
 30
0.0
 11
350.96637065073611
 21
80.127762649734535
 31
0.0
 12
356.7701996482337
 22
50.775064271584007
 32
0.0
 13
350.96637065073611
 23
50.775064271584007
 33
0.0
  0
SOLID
  5
101E
  8
LOGO
 62
     2
 10
356.7701996482337
 20
105.81137373061949
 30
0.0
 11
359.17178406099339
 21
105.8113737306157
 31
0.0
 12
356.7701996482337
 22
50.775064271584007
 32
0.0
 13
359.17178406099339
 23
50.775064271584007
 33
0.0
  0
SOLID
  5
101F
  8
LOGO
 62
     5
 10
320.94656549126512
 20
50.775064271585933
 30
0.0
 11
326.75039448876231
 21
50.775064271585933
 31
0.0
 12
320.94656549126512
 22
80.127762649734535
 32
0.0
 13
326.75039448876231
 23
101.4084689738949
 33
0.0
  0
SOLID
  5
1020
  8
LOGO
 62
     2
 10
326.75039448876231
 20
105.8113737306157
 30
0.0
 11
329.15197890152172
 21
105.8113737306157
 31
0.0
 12
326.75039448876231
 22
50.775064271585933
 32
0.0
 13
329.15197890152172
 23
50.775064271585933
 33
0.0
  0
SOLID
  5
1021
  8
LOGO
 62
     5
 10
329.15197890152172
 20
50.775064271585933
 30
0.0
 11
334.95580789901879
 21
50.775064271585933
 31
0.0
 12
356.7701996482337
 22
101.4084689738949
 32
0.0
 13
350.96637065073611
 23
80.127762649734535
 33
0.0
  0
SOLID
  5
1022
  8
LOGO
 62
     2
 10
326.75039448876231
 20
50.775064271585933
 30
0.0
 11
329.15197890152172
 21
50.775064271585933
 31
0.0
 12
356.7701996482337
 22
105.81137373061949
 32
0.0
 13
359.17178406099339
 23
105.8113737306157
 33
0.0
  0
POLYLINE
  5
1023
  8
LOGO
 62
     5
 66
     1
 10
0.0
 20
0.0
 30
0.0
 40
2.004527588105788
 41
2.004527588105788
  0
VERTEX
  5
18A7
  8
LOGO
 62
     5
 10
335.29403873453617
 20
36.765821863831661
 30
0.0
 42
1.0
  0
VERTEX
  5
18A8
  8
LOGO
 62
     5
 10
329.2804559702185
 20
36.765821863831661
 30
0.0
 42
1.0
  0
SEQEND
  5
18A9
  8
LOGO
 62
     5
  0
POLYLINE
  5
1024
  8
LOGO
 62
     5
 66
     1
 10
0.0
 20
0.0
 30
0.0
 40
2.004527588105788
 41
2.004527588105788
  0
VERTEX
  5
18AA
  8
LOGO
 62
     5
 10
312.61227474824381
 20
36.765821863831661
 30
0.0
 42
1.0
  0
VERTEX
  5
18AB
  8
LOGO
 62
     5
 10
306.59869198392607
 20
36.765821863831661
 30
0.0
 42
1.0
  0
SEQEND
  5
18AC
  8
LOGO
 62
     5
  0
SOLID
  5
1025
  8
LOGO
 62
     5
 10
301.26658188888632
 20
42.169386792535931
 30
0.0
 11
303.26790223285502
 21
42.169386792535931
 31
0.0
 12
301.26658188888632
 22
43.770443067709749
 32
0.0
 13
303.26790223285502
 23
43.770443067709749
 33
0.0
  0
POLYLINE
  5
1026
  8
LOGO
 62
     5
 66
     1
 10
0.0
 20
0.0
 30
0.0
 70
     1
  0
VERTEX
  5
18AD
  8
LOGO
 62
     5
 10
346.63030999350258
 20
35.765161691850182
 30
0.0
 42
1.0000000573306349
  0
VERTEX
  5
18AE
  8
LOGO
 62
     5
 10
352.63427102539822
 20
35.765161691850182
 30
0.0
 42
1.0000000573306349
  0
SEQEND
  5
18AF
  8
LOGO
 62
     5
  0
CIRCLE
  5
1027
  8
LOGO
 62
     5
 10
349.63229050945029
 20
35.765161691850182
 30
0.0
 40
3.0019805159472299
  0
POLYLINE
  5
1028
  8
LOGO
 62
     5
 66
     1
 10
0.0
 20
0.0
 30
0.0
 40
2.004527588105788
 41
2.004527588105788
  0
VERTEX
  5
18B0
  8
LOGO
 62
     5
 10
341.29799976642892
 20
36.765821863831661
 30
0.0
 42
1.0
  0
VERTEX
  5
18B1
  8
LOGO
 62
     5
 10
335.2844170021113
 20
36.765821863831661
 30
0.0
 42
1.0
  0
SEQEND
  5
18B2
  8
LOGO
 62
     5
  0
LINE
  5
1029
  8
LOGO
 62
     1
 10
482.82202913586212
 20
28.460945120749528
 30
0.0
 11
482.82202913586212
 21
109.0
 31
0.0
  0
CIRCLE
  5
102A
  8
LOGO
  6
CONTINUOUS
 62
     6
 10
507.67671809830819
 20
68.75918483166754
 30
0.0
 40
7.7938118230919873
  0
CIRCLE
  5
102B
  8
LOGO
  6
CONTINUOUS
 62
     6
 10
507.67671809830819
 20
68.75918483166754
 30
0.0
 40
4.5664837812074817
  0
LINE
  5
102C
  8
LOGO
 62
     6
 10
532.22078327105135
 20
64.192701050460059
 30
0.0
 11
532.220783271051
 21
73.325668612875049
 31
0.0
  0
TEXT
  5
102D
  8
LOGO
  6
CONTINUOUS
 62
     6
 10
789.32576867130786
 20
-8.4527883655735891
 30
0.0
 40
11.18597984434034
  1
Model
  7
CHINESET
 72
     4
 11
810.63239694624167
 21
-2.8597984434034198
 31
0.0
  0
TEXT
  5
102E
  8
LOGO
  6
CONTINUOUS
 62
     7
 10
770.14980322386725
 20
64.256080622638635
 30
0.0
 40
22.371959688680679
  1
MRTF
  7
CHINESET
 72
     1
 11
810.63239694624167
 21
75.442060466978972
 31
0.0
 73
     2
  0
LINE
  5
102F
  8
LOGO
 62
     6
 10
864.32510019907534
 20
95.576824186791598
 30
0.0
 11
756.93969369340812
 21
95.576824186791598
 31
0.0
  0
LINE
  5
1030
  8
LOGO
 62
     6
 10
864.32510019907534
 20
55.307296747166369
 30
0.0
 11
756.93969369340812
 21
55.307296747166369
 31
0.0
  0
LINE
  5
1031
  8
LOGO
 62
     6
 10
855.37631632360296
 20
35.172533027353758
 30
0.0
 11
765.88847756888049
 21
35.172533027353758
 31
0.0
  0
LINE
  5
1032
  8
LOGO
 62
     6
 10
855.37631632360296
 20
-14.04577828774377
 30
0.0
 11
765.88847756888049
 21
-14.04577828774387
 31
0.0
  0
TEXT
  5
1033
  8
LOGO
 62
     7
 10
583.29739344481357
 20
75.391420565521202
 30
0.0
 40
26.846351626416809
  1
訂購代號:
  7
CHINESET
  0
TEXT
  5
1034
  8
LOGO
 62
     7
 10
580.08642178343075
 20
50.195350910879171
 30
0.0
 40
17.897567750944539
  1
Order example:
 41
0.8
  7
CHINESET
  0
LINE
  5
1035
  8
LOGO
 62
     1
 10
572.30986789058488
 20
-25.231758132084082
 30
0.0
 11
572.30986789058488
 21
109.0
 31
0.0
  0
LINE
  5
1036
  8
LOGO
 62
     6
 10
556.65393595029957
 20
60.965373008575547
 30
0.0
 11
556.65393595029957
 21
76.552996654759511
 31
0.0
  0
LINE
  5
1037
  8
LOGO
 62
     6
 10
765.88847756888049
 20
35.172533027353758
 30
0.0
 11
765.88847756888049
 21
-14.04577828774387
 31
0.0
  0
LINE
  5
1038
  8
LOGO
 62
     6
 10
756.93969369340812
 20
95.576824186791598
 30
0.0
 11
756.93969369340812
 21
55.307296747166369
 31
0.0
  0
TEXT
  5
1039
  8
LOGO
  6
CONTINUOUS
 62
     7
 10
916.5155195086711
 20
64.002381190049917
 30
0.0
 40
22.371959688680679
  1
80
  7
CHINESET
 72
     1
 11
934.62615354236482
 21
75.188361034390255
 31
0.0
 73
     2
  0
LINE
  5
103A
  8
LOGO
 62
     6
 10
968.45718854083327
 20
-14.045778287743479
 30
0.0
 11
896.61901824948939
 21
-14.0457782877436
 31
0.0
  0
LINE
  5
103B
  8
LOGO
 62
     6
 10
968.45718854083327
 20
55.307296747166632
 30
0.0
 11
896.61901824948939
 21
55.307296747166632
 31
0.0
  0
LINE
  5
103C
  8
LOGO
 62
     6
 10
968.45718854083327
 20
35.172533027353992
 30
0.0
 11
896.61901824948939
 21
35.172533027353992
 31
0.0
  0
LINE
  5
103D
  8
LOGO
 62
     6
 10
968.45718854083327
 20
95.576824186792095
 30
0.0
 11
896.61901824948939
 21
95.576824186791825
 31
0.0
  0
LINE
  5
103E
  8
LOGO
 62
     6
 10
896.61901824948939
 20
35.172533027353992
 30
0.0
 11
896.61901824948939
 21
-14.045778287743479
 31
0.0
  0
LINE
  5
103F
  8
LOGO
 62
     6
 10
855.37631632360319
 20
35.172533027353758
 30
0.0
 11
855.37631632360319
 21
-14.04577828774374
 31
0.0
  0
TEXT
  5
1040
  8
LOGO
 62
     6
 10
792.73482919529727
 20
11.02138599335281
 30
0.0
 40
17.897567750944539
  1
型式
  7
CHINESET
 72
     4
 11
810.63239694624167
 21
19.512161245277291
 31
0.0
  0
LINE
  5
1041
  8
LOGO
 62
     6
 10
810.63239694624167
 20
55.307296747166369
 30
0.0
 11
810.63239694624167
 21
35.172533027353758
 31
0.0
  0
LINE
  5
1042
  8
LOGO
 62
     6
 10
896.61901824948939
 20
95.576824186791825
 30
0.0
 11
896.61901824948939
 21
55.307296747166632
 31
0.0
  0
LINE
  5
1043
  8
LOGO
 62
     6
 10
864.32510019907545
 20
95.576824186791598
 30
0.0
 11
864.32510019907545
 21
55.307296747166369
 31
0.0
  0
LINE
  5
1044
  8
LOGO
  6
CONTINUOUS
 62
     7
 10
871.87347147347054
 20
75.299419436698457
 30
0.0
 11
889.65502542104423
 21
75.299419436698457
 31
0.0
  0
LINE
  5
1045
  8
LOGO
 62
     6
 10
991.19178582886161
 20
35.172533027353758
 30
0.0
 11
991.19178582886161
 21
-14.04577828774387
 31
0.0
  0
LINE
  5
1046
  8
LOGO
 62
     6
 10
968.45718854083327
 20
35.172533027353992
 30
0.0
 11
968.45718854083327
 21
-14.04577828774336
 31
0.0
  0
TEXT
  5
1047
  8
LOGO
  6
CONTINUOUS
 62
     6
 10
918.68879501645426
 20
-8.4527883655734328
 30
0.0
 40
11.18597984434034
  1
Bore
 41
0.8
  7
CHINESET
 72
     4
 11
932.53810339516133
 21
-2.8597984434032631
 31
0.0
  0
TEXT
  5
1048
  8
LOGO
 62
     6
 10
915.42355423332049
 20
10.56337736980513
 30
0.0
 40
17.897567750944539
  1
內徑
 41
0.9
  7
CHINESET
 72
     4
 11
932.53810339516133
 21
19.512161245277412
 31
0.0
  0
LINE
  5
1049
  8
LOGO
  6
CONTINUOUS
 62
     7
 10
975.39502292831503
 20
75.299419436698685
 30
0.0
 11
993.17657687588883
 21
75.299419436698685
 31
0.0
  0
LINE
  5
104A
  8
LOGO
 62
     6
 10
968.45718854083327
 20
95.576824186792095
 30
0.0
 11
968.45718854083327
 21
55.307296747166632
 31
0.0
  0
LINE
  5
104B
  8
LOGO
 62
     6
 10
932.53810236343622
 20
55.307296747166632
 30
0.0
 11
932.53810236343622
 21
35.172533027353992
 31
0.0
  0
LINE
  5
104C
  8
LOGO
 62
     6
 10
1000.140569704334
 20
95.576824186791598
 30
0.0
 11
1000.140569704334
 21
55.307296747166369
 31
0.0
  0
LINE
  5
104D
  8
LOGO
 62
     6
 10
1038.356351244538
 20
55.307296747166369
 30
0.0
 11
1038.356351244538
 21
35.172533027353758
 31
0.0
  0
LINE
  5
1053
  8
LOGO
 62
     6
 10
1083.6256454890461
 20
35.172533027353758
 30
0.0
 11
1083.6256454890461
 21
-14.231363956982779
 31
0.0
  0
LINE
  5
1054
  8
LOGO
 62
     6
 10
1074.676861613573
 20
95.576824186791598
 30
0.0
 11
1074.676861613573
 21
55.307296747166333
 31
0.0
  0
LINE
  5
105D
  8
LOGO
 62
     1
 10
1107.0
 20
-25.231758132084082
 30
0.0
 11
1107.0
 21
109.0
 31
0.0
  0
ENDSEC
  0
EOF
