  0
SECTION
  2
HEADER
  9
$ACADVER
  1
AC1009
  9
$INSBASE
 10
0.0
 20
0.0
 30
0.0
  9
$EXTMIN
 10
326.99999999999989
 20
-17.14550764219949
 30
0.0
  9
$EXTMAX
 10
1107.0
 20
635.00000000000023
 30
0.0
  9
$LIMMIN
 10
0.0
 20
0.0
  9
$LIMMAX
 10
1188.0
 20
840.0
  9
$ORTHOMODE
 70
     1
  9
$REGENMODE
 70
     1
  9
$FILLMODE
 70
     1
  9
$QTEXTMODE
 70
     0
  9
$MIRRTEXT
 70
     1
  9
$DRAGMODE
 70
     2
  9
$LTSCALE
 40
1.0
  9
$OSMODE
 70
    39
  9
$ATTMODE
 70
     1
  9
$TEXTSIZE
 40
3.0
  9
$TRACEWID
 40
0.05
  9
$TEXTSTYLE
  7
ITALICT
  9
$CLAYER
  8
HIDDED
  9
$CELTYPE
  6
CONTINUOUS
  9
$CECOLOR
 62
   256
  9
$DIMSCALE
 40
1.0
  9
$DIMASZ
 40
3.0
  9
$DIMEXO
 40
1.0
  9
$DIMDLI
 40
1.4824161510814720E+016
  9
$DIMRND
 40
0.0
  9
$DIMDLE
 40
0.0
  9
$DIMEXE
 40
1.0
  9
$DIMTP
 40
0.15
  9
$DIMTM
 40
-0.1
  9
$DIMTXT
 40
3.0
  9
$DIMCEN
 40
2.0
  9
$DIMTSZ
 40
0.0
  9
$DIMTOL
 70
     0
  9
$DIMLIM
 70
     0
  9
$DIMTIH
 70
     0
  9
$DIMTOH
 70
     0
  9
$DIMSE1
 70
     0
  9
$DIMSE2
 70
     0
  9
$DIMTAD
 70
     1
  9
$DIMZIN
 70
     0
  9
$DIMBLK
  1

  9
$DIMASO
 70
     0
  9
$DIMSHO
 70
     0
  9
$DIMPOST
  1

  9
$DIMAPOST
  1

  9
$DIMALT
 70
     0
  9
$DIMALTD
 70
     2
  9
$DIMALTF
 40
25.399999999999999
  9
$DIMLFAC
 40
1.0
  9
$DIMTOFL
 70
     1
  9
$DIMTVP
 40
1.0
  9
$DIMTIX
 70
     0
  9
$DIMSOXD
 70
     0
  9
$DIMSAH
 70
     0
  9
$DIMBLK1
  1

  9
$DIMBLK2
  1

  9
$DIMSTYLE
  2
STANDARD
  9
$DIMCLRD
 70
     0
  9
$DIMCLRE
 70
     0
  9
$DIMCLRT
 70
     0
  9
$DIMTFAC
 40
1.0
  9
$DIMGAP
 40
0.09
  9
$LUNITS
 70
     2
  9
$LUPREC
 70
     2
  9
$SKETCHINC
 40
0.1
  9
$FILLETRAD
 40
0.75
  9
$AUNITS
 70
     0
  9
$AUPREC
 70
     2
  9
$MENU
  1
ACAD
  9
$ELEVATION
 40
0.0
  9
$PELEVATION
 40
0.0
  9
$THICKNESS
 40
0.0
  9
$LIMCHECK
 70
     0
  9
$BLIPMODE
 70
     0
  9
$CHAMFERA
 40
0.0
  9
$CHAMFERB
 40
0.0
  9
$SKPOLY
 70
     1
  9
$TDCREATE
 40
2450580.7034460641
  9
$TDUPDATE
 40
2451930.3313130438
  9
$TDINDWG
 40
0.8778668634
  9
$TDUSRTIMER
 40
0.8778668634
  9
$USRTIMER
 70
     1
  9
$ANGBASE
 50
0.0
  9
$ANGDIR
 70
     0
  9
$PDMODE
 70
     0
  9
$PDSIZE
 40
0.0
  9
$PLINEWID
 40
0.0
  9
$COORDS
 70
     2
  9
$SPLFRAME
 70
     0
  9
$SPLINETYPE
 70
     6
  9
$SPLINESEGS
 70
     8
  9
$ATTDIA
 70
     0
  9
$ATTREQ
 70
     1
  9
$HANDLING
 70
 12289
  9
$HANDSEED
  5
144F
  9
$SURFTAB1
 70
     6
  9
$SURFTAB2
 70
     6
  9
$SURFTYPE
 70
     6
  9
$SURFU
 70
     6
  9
$SURFV
 70
     6
  9
$UCSNAME
  2

  9
$UCSORG
 10
0.0
 20
0.0
 30
0.0
  9
$UCSXDIR
 10
1.0
 20
0.0
 30
0.0
  9
$UCSYDIR
 10
0.0
 20
1.0
 30
0.0
  9
$PUCSNAME
  2

  9
$PUCSORG
 10
0.0
 20
0.0
 30
0.0
  9
$PUCSXDIR
 10
1.0
 20
0.0
 30
0.0
  9
$PUCSYDIR
 10
0.0
 20
1.0
 30
0.0
  9
$USERI1
 70
     0
  9
$USERI2
 70
-31485
  9
$USERI3
 70
     0
  9
$USERI4
 70
     0
  9
$USERI5
 70
     0
  9
$USERR1
 40
0.0
  9
$USERR2
 40
0.0
  9
$USERR3
 40
0.0
  9
$USERR4
 40
0.0
  9
$USERR5
 40
0.0
  9
$WORLDVIEW
 70
     1
  9
$SHADEDGE
 70
     3
  9
$SHADEDIF
 70
    70
  9
$TILEMODE
 70
     1
  9
$MAXACTVP
 70
    64
  9
$PLIMCHECK
 70
     0
  9
$PEXTMIN
 10
1.0000000000000000E+020
 20
1.0000000000000000E+020
 30
1.0000000000000000E+020
  9
$PEXTMAX
 10
-1.0000000000000000E+020
 20
-1.0000000000000000E+020
 30
-1.0000000000000000E+020
  9
$PLIMMIN
 10
0.0
 20
0.0
  9
$PLIMMAX
 10
12.0
 20
9.0
  9
$UNITMODE
 70
     0
  9
$VISRETAIN
 70
     1
  9
$PLINEGEN
 70
     0
  9
$PSLTSCALE
 70
     0
  0
ENDSEC
  0
SECTION
  2
TABLES
  0
TABLE
  2
VPORT
 70
     3
  0
VPORT
  2
*ACTIVE
 70
     0
 10
0.0
 20
0.0
 11
1.0
 21
1.0
 12
716.994692850619
 22
308.90533629910249
 13
0.0
 23
0.0
 14
1.0
 24
1.0
 15
0.0
 25
0.0
 16
0.0
 26
0.0
 36
1.0
 17
0.0
 27
0.0
 37
0.0
 40
659.40604468289894
 41
1.7274401473296499
 42
1.0
 43
0.0
 44
0.0
 50
0.0
 51
0.0
 71
     0
 72
   100
 73
     1
 74
     1
 75
     0
 76
     0
 77
     0
 78
     0
  0
ENDTAB
  0
TABLE
  2
LTYPE
 70
     3
  0
LTYPE
  2
CONTINUOUS
 70
     0
  3
Solid line
 72
    65
 73
     0
 40
0.0
  0
LTYPE
  2
CENTER
 70
     0
  3
_______________ _ _______________ _ ___________
 72
    65
 73
     4
 40
18.0
 49
15.0
 49
-1.0
 49
1.0
 49
-1.0
  0
LTYPE
  2
HIDDEN
 70
     0
  3
___ ___ ___ ___ ___ ___ ___ ___ ___ ___ 
 72
    65
 73
     2
 40
4.0
 49
3.0
 49
-1.0
  0
ENDTAB
  0
TABLE
  2
LAYER
 70
     5
  0
LAYER
  2
0
 70
     0
 62
     7
  6
CONTINUOUS
  0
LAYER
  2
CENTER
 70
     0
 62
     1
  6
CENTER
  0
LAYER
  2
HIDDED
 70
     0
 62
     6
  6
HIDDEN
  0
LAYER
  2
DIM
 70
     0
 62
     5
  6
CONTINUOUS
  0
LAYER
  2
LOGO
 70
     0
 62
     7
  6
CONTINUOUS
  0
ENDTAB
  0
TABLE
  2
STYLE
 70
     8
  0
STYLE
  2
STANDARD
 70
     0
 40
0.0
 41
1.0
 50
0.0
 71
     0
 42
3.0
  3
txt
  4

  0
STYLE
  2
ITALICT
 70
     0
 40
0.0
 41
1.0
 50
0.0
 71
     0
 42
3.0
  3
ITALICT.SHX
  4

  0
STYLE
  2
ROMANSS
 70
     0
 40
0.0
 41
1.0
 50
0.0
 71
     0
 42
3.0
  3
ROMANSS.SHX
  4
LMP
  0
STYLE
  2
CHINESET
 70
     0
 40
0.0
 41
1.0
 50
0.0
 71
     0
 42
4.0
  3
C:\r13\com\fonts\simplex.shx
  4
C:\r13\com\fonts\chineset.shx
  0
STYLE
  2
LOGO
 70
     0
 40
0.0
 41
1.0
 50
0.0
 71
     0
 42
5.0
  3
txt
  4

  0
ENDTAB
  0
TABLE
  2
VIEW
 70
     0
  0
ENDTAB
  0
TABLE
  2
UCS
 70
     0
  0
ENDTAB
  0
TABLE
  2
APPID
 70
     2
  0
APPID
  2
ACAD
 70
     0
  0
APPID
  2
TCAD
 70
     0
  0
ENDTAB
  0
TABLE
  2
DIMSTYLE
 70
     1
  0
DIMSTYLE
  2
STANDARD
 70
     0
  3

  4

  5

  6

  7

 40
1.0
 41
0.18
 42
0.0625
 43
0.38
 44
0.18
 45
0.0
 46
0.0
 47
0.0
 48
0.0
140
0.18
141
0.09
142
0.0
143
25.399999999999999
144
1.0
145
0.0
146
1.0
147
0.09
 71
     0
 72
     0
 73
     1
 74
     1
 75
     0
 76
     0
 77
     0
 78
     0
170
     0
171
     2
172
     0
173
     0
174
     0
175
     0
176
     0
177
     0
178
     0
  0
ENDTAB
  0
ENDSEC
  0
SECTION
  2
BLOCKS
  0
BLOCK
  8
0
  2
$MODEL_SPACE
 70
     0
 10
0.0
 20
0.0
 30
0.0
  3
$MODEL_SPACE
  1

  0
ENDBLK
  5
3F
  8
0
  0
BLOCK
 67
     1
  8
0
  2
$PAPER_SPACE
 70
     0
 10
0.0
 20
0.0
 30
0.0
  3
$PAPER_SPACE
  1

  0
ENDBLK
  5
3D
 67
     1
  8
0
  0
ENDSEC
  0
SECTION
  2
ENTITIES
  0
LINE
  5
B29
  8
LOGO
 62
     4
 10
327.0
 20
109.0
 30
0.0
 11
327.0
 21
635.00000000000023
 31
0.0
  0
LINE
  5
B2A
  8
LOGO
 62
     4
 10
1107.0
 20
109.0
 30
0.0
 11
327.0
 21
109.0
 31
0.0
  0
LINE
  5
B2E
  8
LOGO
 62
     4
 10
327.0
 20
635.00000000000023
 30
0.0
 11
1107.0
 21
634.99999999999977
 31
0.0
  0
LINE
  5
B2F
  8
LOGO
 62
     4
 10
1107.0
 20
634.99999999999977
 30
0.0
 11
1107.0
 21
109.0
 31
0.0
  0
LINE
  5
B30
  8
CENTER
  6
CENTER
 10
1059.959780006526
 20
354.19804680619319
 30
0.0
 11
1029.959780006526
 21
354.19804680619319
 31
0.0
  0
LINE
  5
B31
  8
CENTER
  6
CENTER
 10
555.70419093510134
 20
222.9290284635598
 30
0.0
 11
887.70419093510145
 21
222.9290284635598
 31
0.0
  0
LINE
  5
B32
  8
CENTER
  6
CENTER
 10
673.70419093510145
 20
192.9290284635598
 30
0.0
 11
769.70419093510145
 21
192.9290284635598
 31
0.0
  0
LINE
  5
B33
  8
0
 10
676.70419093510134
 20
150.42902846355969
 30
0.0
 11
766.70419093510145
 21
150.42902846355969
 31
0.0
  0
LINE
  5
B34
  8
0
 10
676.70419093510145
 20
260.42902846355992
 30
0.0
 11
766.70419093510145
 21
260.42902846355992
 31
0.0
  0
CIRCLE
  5
B35
  8
0
  6
CONTINUOUS
 10
721.70419093510145
 20
192.9290284635598
 30
0.0
 40
41.0
  0
CIRCLE
  5
B36
  8
0
  6
CONTINUOUS
 10
721.70419093510145
 20
192.9290284635598
 30
0.0
 40
40.0
  0
CIRCLE
  5
B37
  8
CENTER
  6
CENTER
 10
721.70419093510145
 20
192.9290284635598
 30
0.0
 40
33.5
  0
CIRCLE
  5
B38
  8
CENTER
  6
CENTER
 10
721.70419093510145
 20
549.41387932977455
 30
0.0
 40
33.5
  0
LINE
  5
B39
  8
DIM
  6
CONTINUOUS
 10
689.70419093510145
 20
599.91387932977466
 30
0.0
 11
753.70419093510145
 21
599.91387932977466
 31
0.0
  0
LINE
  5
B3A
  8
DIM
  6
CONTINUOUS
 10
549.84746491838462
 20
302.19804680619347
 30
0.0
 11
893.18021066332926
 21
302.19804680619347
 31
0.0
  0
LINE
  5
B3B
  8
DIM
  6
CONTINUOUS
 10
679.70419093510145
 20
310.19804680619359
 30
0.0
 11
763.70419093510145
 21
310.19804680619359
 31
0.0
  0
LINE
  5
B3C
  8
DIM
  6
CONTINUOUS
 10
683.70419093510145
 20
318.19804680619359
 30
0.0
 11
759.70419093510145
 21
318.19804680619359
 31
0.0
  0
CIRCLE
  5
B3D
  8
0
  6
CONTINUOUS
 10
721.70419093510145
 20
549.41387932977455
 30
0.0
 40
40.0
  0
CIRCLE
  5
B3E
  8
0
  6
CONTINUOUS
 10
721.70419093510145
 20
549.41387932977455
 30
0.0
 40
41.0
  0
LINE
  5
B3F
  8
0
 10
676.70419093510145
 20
481.91387932977449
 30
0.0
 11
766.70419093510145
 21
481.91387932977449
 31
0.0
  0
LINE
  5
B40
  8
0
 10
676.70419093510134
 20
591.91387932977466
 30
0.0
 11
766.70419093510145
 21
591.91387932977466
 31
0.0
  0
LINE
  5
B41
  8
CENTER
  6
CENTER
 10
673.70419093510145
 20
549.41387932977455
 30
0.0
 11
769.70419093510145
 21
549.41387932977455
 31
0.0
  0
LINE
  5
B42
  8
0
  6
CONTINUOUS
 10
681.70419093510145
 20
326.19804680619347
 30
0.0
 11
761.70419093510145
 21
326.19804680619347
 31
0.0
  0
LINE
  5
B43
  8
0
  6
CONTINUOUS
 10
681.70419093510145
 20
421.19804680619359
 30
0.0
 11
761.70419093510145
 21
421.19804680619359
 31
0.0
  0
LINE
  5
B44
  8
0
  6
CONTINUOUS
 10
676.70419093510145
 20
336.19804680619347
 30
0.0
 11
766.70419093510145
 21
336.19804680619347
 31
0.0
  0
LINE
  5
B45
  8
0
  6
CONTINUOUS
 10
676.70419093510134
 20
411.19804680619347
 30
0.0
 11
766.70419093510145
 21
411.19804680619347
 31
0.0
  0
LINE
  5
B46
  8
CENTER
  6
CENTER
 10
555.70419093510134
 20
519.41387932977455
 30
0.0
 11
887.70419093510145
 21
519.41387932977455
 31
0.0
  0
LINE
  5
B47
  8
CENTER
  6
CENTER
 10
555.70419093510134
 20
373.69804680619347
 30
0.0
 11
886.70419093510122
 21
373.69804680619347
 31
0.0
  0
LINE
  5
B48
  8
CENTER
  6
CENTER
 10
449.94860186367578
 20
414.19804680619347
 30
0.0
 11
449.94860186367578
 21
333.19804680619342
 31
0.0
  0
CIRCLE
  5
B49
  8
0
 10
449.94860186367578
 20
373.69804680619342
 30
0.0
 40
22.999999999999979
  0
CIRCLE
  5
B4A
  8
0
 10
449.94860186367578
 20
373.69804680619342
 30
0.0
 40
22.499999999999979
  0
LINE
  5
B4B
  8
0
 10
484.44860186367572
 20
371.19804680619342
 30
0.0
 11
484.44860186367572
 21
355.36961422268553
 31
0.0
  0
LINE
  5
B4C
  8
0
 10
486.94860186367589
 20
401.69804680619347
 30
0.0
 11
486.94860186367589
 21
345.69804680619342
 31
0.0
  0
LINE
  5
B4D
  8
0
 10
415.44860186367578
 20
371.1980468061933
 30
0.0
 11
415.44860186367578
 21
355.36961422268553
 31
0.0
  0
LINE
  5
B4E
  8
0
 10
412.44860186367578
 20
401.69804680619347
 30
0.0
 11
412.44860186367578
 21
345.69804680619342
 31
0.0
  0
LINE
  5
B4F
  8
0
 10
412.94860186367572
 20
401.69804680619347
 30
0.0
 11
412.94860186367572
 21
345.69804680619342
 31
0.0
  0
LINE
  5
B50
  8
0
 10
487.44860186367578
 20
411.19804680619347
 30
0.0
 11
487.44860186367578
 21
336.1980468061933
 31
0.0
  0
LINE
  5
B51
  8
0
 10
377.44860186367561
 20
411.19804680619347
 30
0.0
 11
377.44860186367572
 21
336.1980468061933
 31
0.0
  0
LINE
  5
B52
  8
CENTER
  6
CENTER
 10
419.94860186367589
 20
425.35769188276078
 30
0.0
 11
419.94860186367578
 21
323.1980468061933
 31
0.0
  0
CIRCLE
  5
B53
  8
0
  6
CONTINUOUS
 10
721.70419093510134
 20
373.69804680619347
 30
0.0
 40
4.0
  0
LINE
  5
B54
  8
0
 10
558.70419093510134
 20
352.19804680619359
 30
0.0
 11
558.70419093510134
 21
395.19804680619359
 31
0.0
  0
LINE
  5
B55
  8
0
 10
563.70419093510145
 20
336.69804680619347
 30
0.0
 11
563.70419093510134
 21
410.69804680619347
 31
0.0
  0
LINE
  5
B56
  8
0
 10
595.70419093510145
 20
336.19804680619347
 30
0.0
 11
595.70419093510134
 21
411.19804680619347
 31
0.0
  0
LINE
  5
B57
  8
0
 10
595.70419093510145
 20
338.69804680619347
 30
0.0
 11
595.70419093510145
 21
408.69804680619359
 31
0.0
  0
ARC
  5
B58
  8
0
 10
579.70419093510134
 20
366.69804680619359
 30
0.0
 40
8.25
 50
77.924803836954695
 51
18.66239316544393
  0
CIRCLE
  5
B59
  8
0
 10
579.70419093510134
 20
366.69804680619359
 30
0.0
 40
11.5
  0
CIRCLE
  5
B5A
  8
0
 10
579.70419093510134
 20
366.69804680619359
 30
0.0
 40
8.4999999999999574
  0
CIRCLE
  5
B5B
  8
0
 10
579.70419093510134
 20
366.69804680619342
 30
0.0
 40
6.5
  0
CIRCLE
  5
B5C
  8
0
 10
579.70419093510134
 20
366.69804680619359
 30
0.0
 40
7.5
  0
LINE
  5
B5D
  8
CENTER
  6
CENTER
 10
579.70419093510145
 20
379.19804680619359
 30
0.0
 11
579.70419093510134
 21
354.19804680619359
 31
0.0
  0
LINE
  5
B5E
  8
0
 10
676.70419093510134
 20
411.19804680619347
 30
0.0
 11
676.70419093510145
 21
336.19804680619347
 31
0.0
  0
LINE
  5
B5F
  8
CENTER
  6
CENTER
 10
721.70419093510134
 20
425.95691018560512
 30
0.0
 11
721.70419093510145
 21
323.19804680619347
 31
0.0
  0
ARC
  5
B60
  8
0
 10
461.44860186367589
 20
352.06473915340962
 30
0.0
 40
1.5
 50
117.99456173225229
 51
180.0
  0
ARC
  5
B61
  8
0
 10
461.44860186367589
 20
340.69804680619342
 30
0.0
 40
1.5
 50
180.0
 51
270.0
  0
LINE
  5
B62
  8
0
  6
CONTINUOUS
 10
459.94860186367572
 20
326.1980468061933
 30
0.0
 11
460.94860186367572
 21
327.1980468061933
 31
0.0
  0
LINE
  5
B63
  8
0
 10
452.44860186367589
 20
339.19804680619342
 30
0.0
 11
468.27703444718372
 21
339.19804680619342
 31
0.0
  0
LINE
  5
B64
  8
0
 10
477.94860186367578
 20
336.69804680619342
 30
0.0
 11
421.94860186367572
 21
336.69804680619342
 31
0.0
  0
LINE
  5
B65
  8
0
  6
CONTINUOUS
 10
460.94860186367572
 20
327.1980468061933
 30
0.0
 11
378.94860186367578
 21
327.1980468061933
 31
0.0
  0
LINE
  5
B66
  8
0
  6
CONTINUOUS
 10
487.44860186367578
 20
336.19804680619342
 30
0.0
 11
377.44860186367561
 21
336.19804680619342
 31
0.0
  0
LINE
  5
B67
  8
0
  6
CONTINUOUS
 10
459.94860186367572
 20
326.1980468061933
 30
0.0
 11
379.94860186367572
 21
326.1980468061933
 31
0.0
  0
LINE
  5
B68
  8
CENTER
  6
CENTER
 10
384.94860186367572
 20
333.91786544341079
 30
0.0
 11
384.94860186367572
 21
347.91786544341079
 31
0.0
  0
LINE
  5
B69
  8
0
 10
378.94860186367578
 20
327.1980468061933
 30
0.0
 11
378.94860186367578
 21
336.19804680619342
 31
0.0
  0
LINE
  5
B6A
  8
0
  6
CONTINUOUS
 10
379.94860186367572
 20
326.1980468061933
 30
0.0
 11
378.94860186367578
 21
327.1980468061933
 31
0.0
  0
ARC
  5
B6B
  8
0
 10
427.28524338110873
 20
354.9237756201523
 30
0.0
 40
1.5
 50
239.47751218593231
 51
314.99999999999841
  0
LINE
  5
B6C
  8
0
 10
416.94860186367572
 20
363.6980468061933
 30
0.0
 11
428.31529421089181
 21
363.6980468061933
 31
0.0
  0
LINE
  5
B6D
  8
CENTER
  6
CENTER
 10
429.19860186367572
 20
345.44804680619342
 30
0.0
 11
414.19860186367578
 21
345.44804680619342
 31
0.0
  0
CIRCLE
  5
B6E
  8
0
 10
421.69860186367578
 20
345.44804680619342
 30
0.0
 40
6.5
  0
LINE
  5
B6F
  8
CENTER
  6
CENTER
 10
421.69860186367578
 20
352.94804680619342
 30
0.0
 11
421.69860186367578
 21
337.94804680619347
 31
0.0
  0
ARC
  5
B70
  8
0
  6
CONTINUOUS
 10
421.69860186367578
 20
345.44804680619342
 30
0.0
 40
4.0
 50
165.54611884332431
 51
122.22581883937571
  0
CIRCLE
  5
B71
  8
0
  6
CONTINUOUS
 10
421.69860186367578
 20
345.44804680619342
 30
0.0
 40
3.399999999999999
  0
POLYLINE
  5
B72
  8
0
  6
CONTINUOUS
 66
     1
 10
0.0
 20
0.0
 30
0.0
 70
     1
  0
VERTEX
  5
1393
  8
0
  6
CONTINUOUS
 10
424.00800294043421
 20
349.44804680619342
 30
0.0
  0
VERTEX
  5
1394
  8
0
  6
CONTINUOUS
 10
426.3174040171927
 20
345.44804680619342
 30
0.0
  0
VERTEX
  5
1395
  8
0
  6
CONTINUOUS
 10
424.00800294043421
 20
341.44804680619342
 30
0.0
  0
VERTEX
  5
1396
  8
0
  6
CONTINUOUS
 10
419.38920078691717
 20
341.44804680619342
 30
0.0
  0
VERTEX
  5
1397
  8
0
  6
CONTINUOUS
 10
417.0797997101588
 20
345.44804680619342
 30
0.0
  0
VERTEX
  5
1398
  8
0
  6
CONTINUOUS
 10
419.38920078691717
 20
349.44804680619342
 30
0.0
  0
SEQEND
  5
1399
  8
0
  6
CONTINUOUS
  0
ARC
  5
B7A
  8
0
 10
421.94860186367572
 20
345.69804680619342
 30
0.0
 40
9.5
 50
180.0
 51
270.0
  0
ARC
  5
B7B
  8
0
 10
421.94860186367572
 20
345.69804680619342
 30
0.0
 40
9.0
 50
180.0
 51
270.0
  0
ARC
  5
B7C
  8
0
 10
421.69860186367578
 20
345.44804680619342
 30
0.0
 40
9.5
 50
59.477512185930138
 51
115.58300197739329
  0
ARC
  5
B7D
  8
0
 10
416.94860186367572
 20
355.36961422268553
 30
0.0
 40
1.5
 50
180.0
 51
295.58300197742682
  0
ARC
  5
B7E
  8
0
 10
416.94860186367572
 20
362.1980468061933
 30
0.0
 40
1.5
 50
90.0
 51
180.0
  0
LINE
  5
B7F
  8
0
 10
439.94860186367572
 20
340.69804680619342
 30
0.0
 11
439.94860186367572
 21
352.06473915340962
 31
0.0
  0
ARC
  5
B80
  8
0
 10
421.69860186367578
 20
345.44804680619342
 30
0.0
 40
9.5
 50
334.41699802262252
 51
30.52248781407032
  0
LINE
  5
B81
  8
0
 10
450.94860186367578
 20
340.69804680619342
 30
0.0
 11
450.94860186367578
 21
349.3259315922856
 31
0.0
  0
LINE
  5
B82
  8
0
 10
459.94860186367589
 20
340.69804680619342
 30
0.0
 11
459.94860186367589
 21
352.06473915340962
 31
0.0
  0
LINE
  5
B83
  8
0
 10
448.94860186367578
 20
340.69804680619342
 30
0.0
 11
448.94860186367578
 21
349.3259315922856
 31
0.0
  0
LINE
  5
B84
  8
CENTER
  6
CENTER
 10
454.94860186367572
 20
333.91786544341068
 30
0.0
 11
454.94860186367572
 21
347.91786544341068
 31
0.0
  0
LINE
  5
B85
  8
0
 10
447.44860186367572
 20
339.19804680619342
 30
0.0
 11
431.62016928016777
 21
339.19804680619342
 31
0.0
  0
ARC
  5
B86
  8
0
 10
431.62016928016777
 20
340.69804680619342
 30
0.0
 40
1.5
 50
154.41699802258759
 51
270.0
  0
ARC
  5
B87
  8
0
 10
438.44860186367572
 20
340.69804680619342
 30
0.0
 40
1.5
 50
270.0
 51
0.0
  0
ARC
  5
B88
  8
0
 10
452.44860186367589
 20
340.69804680619342
 30
0.0
 40
1.5
 50
180.0
 51
270.0
  0
ARC
  5
B89
  8
0
 10
447.44860186367572
 20
340.69804680619342
 30
0.0
 40
1.5
 50
270.0
 51
0.0
  0
ARC
  5
B8A
  8
0
 10
430.7894205485897
 20
358.42795278763339
 30
0.0
 40
1.5
 50
314.99999999999841
 51
38.555259660229609
  0
ARC
  5
B8B
  8
0
 10
434.67850784511569
 20
354.53886549110752
 30
0.0
 40
1.5
 50
51.444740339770391
 51
135.00000000000301
  0
LINE
  5
B8C
  8
0
 10
431.8500807203697
 20
357.36729261585361
 30
0.0
 11
428.3459035528885
 21
353.86311544837253
 31
0.0
  0
LINE
  5
B8D
  8
0
 10
433.61784767333592
 20
355.5995256628874
 30
0.0
 11
430.11367050585483
 21
352.0953484954062
 31
0.0
  0
ARC
  5
B8E
  8
0
 10
431.17433067763483
 20
351.03468832362643
 30
0.0
 40
1.5
 50
135.00000000000301
 51
210.52248781407241
  0
ARC
  5
B8F
  8
0
 10
438.44860186367572
 20
352.06473915340962
 30
0.0
 40
1.5
 50
0.0
 51
62.005438267747621
  0
ARC
  5
B90
  8
0
 10
428.31529421089181
 20
362.1980468061933
 30
0.0
 40
1.5
 50
27.99456173225046
 51
90.0
  0
ARC
  5
B91
  8
0
 10
452.44860186367589
 20
349.3259315922856
 30
0.0
 40
1.5
 50
95.856701909919025
 51
180.0
  0
ARC
  5
B92
  8
0
 10
447.44860186367572
 20
349.3259315922856
 30
0.0
 40
1.5
 50
0.0
 51
84.143298090080961
  0
LINE
  5
B93
  8
CENTER
  6
CENTER
 10
721.70419093510145
 20
147.42902846355969
 30
0.0
 11
721.70419093510145
 21
263.42902846355992
 31
0.0
  0
LINE
  5
B94
  8
0
 10
676.70419093510134
 20
150.42902846355969
 30
0.0
 11
676.70419093510145
 21
260.42902846355992
 31
0.0
  0
LINE
  5
B95
  8
CENTER
  6
CENTER
 10
693.77347307823266
 20
164.99831060669109
 30
0.0
 11
702.25875445247129
 21
173.4835919809297
 31
0.0
  0
LINE
  5
B96
  8
CENTER
  6
CENTER
 10
679.70419093510145
 20
157.9290284635598
 30
0.0
 11
693.70419093510145
 21
157.9290284635598
 31
0.0
  0
LINE
  5
B97
  8
CENTER
  6
CENTER
 10
686.70419093510145
 20
150.9290284635598
 30
0.0
 11
686.70419093510145
 21
164.9290284635598
 31
0.0
  0
ARC
  5
B98
  8
0
  6
CONTINUOUS
 10
686.70419093510145
 20
157.9290284635598
 30
0.0
 40
4.0
 50
335.22857957427379
 51
294.32248297488059
  0
CIRCLE
  5
B99
  8
0
  6
CONTINUOUS
 10
686.70419093510145
 20
157.9290284635598
 30
0.0
 40
3.399999999999999
  0
LINE
  5
B9A
  8
0
 10
676.70419093510122
 20
187.9290284635598
 30
0.0
 11
595.70419093510145
 21
187.9290284635598
 31
0.0
  0
LINE
  5
B9B
  8
0
 10
676.70419093510145
 20
257.9290284635598
 30
0.0
 11
595.70419093510145
 21
257.9290284635598
 31
0.0
  0
LINE
  5
B9C
  8
0
 10
676.70419093510145
 20
241.71913792213309
 30
0.0
 11
595.70419093510145
 21
241.71913792213309
 31
0.0
  0
LINE
  5
B9D
  8
0
 10
676.70419093510145
 20
204.13891900498629
 30
0.0
 11
595.70419093510145
 21
204.13891900498629
 31
0.0
  0
LINE
  5
B9E
  8
0
 10
676.70419093510145
 20
354.90793734762008
 30
0.0
 11
595.70419093510145
 21
354.90793734762008
 31
0.0
  0
LINE
  5
B9F
  8
0
 10
676.70419093510145
 20
338.6980468061937
 30
0.0
 11
595.70419093510145
 21
338.6980468061937
 31
0.0
  0
LINE
  5
BA0
  8
0
 10
595.70419093510145
 20
185.42902846355969
 30
0.0
 11
595.70419093510134
 21
260.42902846355969
 31
0.0
  0
LINE
  5
BA1
  8
0
 10
563.70419093510145
 20
185.92902846355969
 30
0.0
 11
563.70419093510134
 21
259.9290284635598
 31
0.0
  0
LINE
  5
BA2
  8
0
 10
595.70419093510134
 20
185.42902846355969
 30
0.0
 11
563.70419093510134
 21
185.92902846355969
 31
0.0
  0
LINE
  5
BA3
  8
0
 10
558.70419093510134
 20
201.4290284635598
 30
0.0
 11
558.70419093510134
 21
244.42902846355989
 31
0.0
  0
ARC
  5
BA4
  8
0
 10
559.70419093510134
 20
201.4290284635598
 30
0.0
 40
1.0
 50
180.0
 51
270.0
  0
LINE
  5
BA5
  8
0
 10
563.70419093510145
 20
200.4290284635598
 30
0.0
 11
559.70419093510134
 21
200.4290284635598
 31
0.0
  0
ARC
  5
BA6
  8
0
 10
559.70419093510134
 20
244.42902846355989
 30
0.0
 40
1.0
 50
90.0
 51
180.0
  0
LINE
  5
BA7
  8
0
 10
563.70419093510134
 20
245.42902846355989
 30
0.0
 11
559.70419093510134
 21
245.42902846355989
 31
0.0
  0
LINE
  5
BA8
  8
0
 10
595.70419093510145
 20
187.92902846355969
 30
0.0
 11
595.70419093510145
 21
257.9290284635598
 31
0.0
  0
LINE
  5
BA9
  8
0
 10
595.70419093510134
 20
260.42902846355969
 30
0.0
 11
563.70419093510134
 21
259.9290284635598
 31
0.0
  0
SOLID
  5
BAA
  8
DIM
  6
CONTINUOUS
 10
566.70419093510145
 20
302.69804680619347
 30
0.0
 11
566.70419093510145
 21
301.69804680619359
 31
0.0
 12
563.70419093510145
 22
302.19804680619347
 32
0.0
 13
563.70419093510145
 23
302.19804680619347
 33
0.0
  0
LINE
  5
BAB
  8
0
 10
595.70419093510134
 20
336.19804680619347
 30
0.0
 11
563.70419093510134
 21
336.69804680619347
 31
0.0
  0
LINE
  5
BAC
  8
DIM
  6
CONTINUOUS
 10
558.70419093510145
 20
350.12032388200367
 30
0.0
 11
558.70419093510145
 21
301.19804680619347
 31
0.0
  0
LINE
  5
BAD
  8
DIM
  6
CONTINUOUS
 10
563.70419093510145
 20
335.69804680619347
 30
0.0
 11
563.70419093510145
 21
301.19804680619347
 31
0.0
  0
TEXT
  5
BAE
  8
DIM
  6
CONTINUOUS
 10
551.4833223045606
 20
303.69804680619359
 30
0.0
 40
3.0
  1
5
  7
ROMANSS
 72
     1
 11
552.4833223045606
 21
305.19804680619347
 31
0.0
 73
     2
  0
SOLID
  5
BB0
  8
DIM
  6
CONTINUOUS
 10
555.70419093510145
 20
302.69804680619347
 30
0.0
 11
555.70419093510145
 21
301.69804680619359
 31
0.0
 12
558.70419093510145
 22
302.19804680619347
 32
0.0
 13
558.70419093510145
 23
302.19804680619347
 33
0.0
  0
LINE
  5
BB1
  8
CENTER
  6
CENTER
 10
476.31158203537649
 20
354.19804680619359
 30
0.0
 11
498.44860186367572
 21
354.19804680619359
 31
0.0
  0
LINE
  5
BB2
  8
0
  6
CONTINUOUS
 10
492.44860186367572
 20
349.19804680619347
 30
0.0
 11
493.94860186367572
 21
349.19804680619347
 31
0.0
  0
LINE
  5
BB3
  8
0
  6
CONTINUOUS
 10
492.44860186367572
 20
359.19804680619347
 30
0.0
 11
493.94860186367572
 21
359.19804680619347
 31
0.0
  0
LINE
  5
BB4
  8
0
  6
CONTINUOUS
 10
492.44860186367572
 20
350.19804680619347
 30
0.0
 11
494.94860186367578
 21
350.19804680619347
 31
0.0
  0
LINE
  5
BB5
  8
0
  6
CONTINUOUS
 10
492.44860186367572
 20
358.19804680619359
 30
0.0
 11
494.94860186367578
 21
358.19804680619359
 31
0.0
  0
ARC
  5
BB6
  8
0
  6
CONTINUOUS
 10
497.62082408590368
 20
349.94804680619359
 30
0.0
 40
10.19983357405331
 50
155.3752531507765
 51
204.6247468492241
  0
ARC
  5
BB7
  8
0
  6
CONTINUOUS
 10
482.2763796414477
 20
349.94804680619359
 30
0.0
 40
10.19983357405331
 50
335.37525315077369
 51
24.624746849226248
  0
LINE
  5
BB8
  8
0
  6
CONTINUOUS
 10
492.44860186367572
 20
345.69804680619359
 30
0.0
 11
492.44860186367572
 21
362.69804680619347
 31
0.0
  0
ARC
  5
BB9
  8
0
 10
478.19860186367572
 20
345.44804680619342
 30
0.0
 40
9.5
 50
149.47751218592961
 51
205.58300197738259
  0
LINE
  5
BBA
  8
CENTER
  6
CENTER
 10
478.19860186367572
 20
352.94804680619342
 30
0.0
 11
478.19860186367572
 21
337.94804680619347
 31
0.0
  0
CIRCLE
  5
BBB
  8
0
 10
478.19860186367572
 20
345.44804680619342
 30
0.0
 40
6.5
  0
ARC
  5
BBC
  8
0
  6
CONTINUOUS
 10
478.19860186367572
 20
345.44804680619342
 30
0.0
 40
4.0
 50
165.54611884332431
 51
122.22581883937571
  0
CIRCLE
  5
BBD
  8
0
  6
CONTINUOUS
 10
478.19860186367572
 20
345.44804680619342
 30
0.0
 40
3.399999999999999
  0
POLYLINE
  5
BBE
  8
0
  6
CONTINUOUS
 66
     1
 10
0.0
 20
0.0
 30
0.0
 70
     1
  0
VERTEX
  5
139A
  8
0
  6
CONTINUOUS
 10
480.50800294043432
 20
349.44804680619342
 30
0.0
  0
VERTEX
  5
139B
  8
0
  6
CONTINUOUS
 10
482.8174040171927
 20
345.44804680619342
 30
0.0
  0
VERTEX
  5
139C
  8
0
  6
CONTINUOUS
 10
480.50800294043432
 20
341.44804680619342
 30
0.0
  0
VERTEX
  5
139D
  8
0
  6
CONTINUOUS
 10
475.88920078691729
 20
341.44804680619342
 30
0.0
  0
VERTEX
  5
139E
  8
0
  6
CONTINUOUS
 10
473.57979971015868
 20
345.44804680619342
 30
0.0
  0
VERTEX
  5
139F
  8
0
  6
CONTINUOUS
 10
475.88920078691729
 20
349.44804680619342
 30
0.0
  0
SEQEND
  5
13A0
  8
0
  6
CONTINUOUS
  0
LINE
  5
BC6
  8
CENTER
  6
CENTER
 10
485.69860186367572
 20
345.44804680619342
 30
0.0
 11
470.69860186367572
 21
345.44804680619342
 31
0.0
  0
LINE
  5
BC7
  8
0
 10
460.94860186367572
 20
327.1980468061933
 30
0.0
 11
460.94860186367572
 21
336.19804680619342
 31
0.0
  0
ARC
  5
BC8
  8
0
 10
468.27703444718372
 20
340.69804680619342
 30
0.0
 40
1.5
 50
270.0
 51
25.583001977417151
  0
ARC
  5
BC9
  8
0
 10
477.94860186367578
 20
345.69804680619342
 30
0.0
 40
9.5
 50
270.0
 51
0.0
  0
ARC
  5
BCA
  8
0
 10
477.94860186367578
 20
345.69804680619342
 30
0.0
 40
9.0
 50
270.0
 51
0.0
  0
LINE
  5
BCB
  8
0
  6
CONTINUOUS
 10
492.44860186367572
 20
345.69804680619359
 30
0.0
 11
487.44860186367578
 21
345.69804680619359
 31
0.0
  0
LINE
  5
BCC
  8
CENTER
  6
CENTER
 10
490.6398959470157
 20
366.69804680619359
 30
0.0
 11
466.97523852591809
 21
366.69804680619359
 31
0.0
  0
ARC
  5
BCD
  8
0
 10
478.19860186367572
 20
345.44804680619342
 30
0.0
 40
9.5
 50
64.416998022611963
 51
120.5224878140703
  0
ARC
  5
BCE
  8
0
 10
469.10778317876162
 20
358.4279527876335
 30
0.0
 40
1.5
 50
141.44474033977031
 51
225.00000000000151
  0
LINE
  5
BCF
  8
0
 10
468.04712300698191
 20
357.36729261585361
 30
0.0
 11
471.55130017446288
 21
353.86311544837253
 31
0.0
  0
LINE
  5
BD0
  8
0
 10
466.27935605401558
 20
355.5995256628874
 30
0.0
 11
469.78353322149673
 21
352.0953484954062
 31
0.0
  0
ARC
  5
BD1
  8
0
 10
465.21869588223569
 20
354.53886549110752
 30
0.0
 40
1.5
 50
44.999999999998458
 51
128.5552596602343
  0
ARC
  5
BD2
  8
0
 10
472.61196034624282
 20
354.92377562015241
 30
0.0
 40
1.5
 50
225.00000000000151
 51
300.52248781406939
  0
ARC
  5
BD3
  8
0
 10
468.72287304971678
 20
351.03468832362643
 30
0.0
 40
1.5
 50
329.47751218592748
 51
44.999999999998458
  0
ARC
  5
BD4
  8
0
  6
CONTINUOUS
 10
497.62082408590368
 20
358.44804680619359
 30
0.0
 40
10.19983357405331
 50
155.3752531507765
 51
204.6247468492241
  0
ARC
  5
BD5
  8
0
  6
CONTINUOUS
 10
482.2763796414477
 20
358.44804680619347
 30
0.0
 40
10.19983357405331
 50
335.37525315077369
 51
24.624746849225541
  0
ARC
  5
BD6
  8
0
 10
482.94860186367578
 20
355.36961422268553
 30
0.0
 40
1.5
 50
244.4169980225808
 51
0.0
  0
LINE
  5
BD7
  8
0
  6
CONTINUOUS
 10
485.44860186367572
 20
354.19804680619359
 30
0.0
 11
491.54860186367608
 21
354.19804680619359
 31
0.0
  0
LINE
  5
BD8
  8
0
  6
CONTINUOUS
 10
485.44860186367572
 20
354.19804680619359
 30
0.0
 11
491.54860186367608
 21
354.19804680619359
 31
0.0
  0
LINE
  5
BD9
  8
0
  6
CONTINUOUS
 10
492.44860186367572
 20
362.69804680619347
 30
0.0
 11
487.44860186367578
 21
362.69804680619347
 31
0.0
  0
LINE
  5
BDA
  8
0
  6
CONTINUOUS
 10
493.94860186367572
 20
359.19804680619347
 30
0.0
 11
495.44860186367578
 21
357.69804680619359
 31
0.0
  0
LINE
  5
BDB
  8
0
  6
CONTINUOUS
 10
493.94860186367572
 20
349.19804680619347
 30
0.0
 11
493.94860186367572
 21
359.19804680619347
 31
0.0
  0
LINE
  5
BDC
  8
0
  6
CONTINUOUS
 10
495.44860186367578
 20
350.69804680619347
 30
0.0
 11
495.44860186367578
 21
357.69804680619359
 31
0.0
  0
LINE
  5
BDD
  8
0
  6
CONTINUOUS
 10
493.94860186367572
 20
349.19804680619347
 30
0.0
 11
495.44860186367578
 21
350.69804680619347
 31
0.0
  0
LINE
  5
BDE
  8
0
 10
563.70419093510145
 20
351.1980468061937
 30
0.0
 11
560.70419093510134
 21
351.1980468061937
 31
0.0
  0
ARC
  5
BDF
  8
0
 10
560.59299972225585
 20
353.47566438050251
 30
0.0
 40
2.2803300858899109
 50
214.07498890478081
 51
272.79490874106079
  0
LINE
  5
BE0
  8
CENTER
  6
CENTER
 10
592.20419093510134
 20
366.69804680619359
 30
0.0
 11
567.20419093510134
 21
366.69804680619359
 31
0.0
  0
LINE
  5
BE1
  8
CENTER
  6
CENTER
 10
700.20419093510145
 20
247.60266052886161
 30
0.0
 11
700.20419093510145
 21
272.19746893441169
 31
0.0
  0
CIRCLE
  5
BE2
  8
0
  6
CONTINUOUS
 10
698.01611376535186
 20
169.24095129381041
 30
0.0
 40
2.5
  0
ARC
  5
BE3
  8
0
  6
CONTINUOUS
 10
698.01611376535186
 20
169.24095129381041
 30
0.0
 40
3.0
 50
206.9635988910145
 51
149.15498767399501
  0
LINE
  5
BE4
  8
CENTER
  6
CENTER
 10
679.70419093510145
 20
227.92902846355989
 30
0.0
 11
693.70419093510145
 21
227.92902846355989
 31
0.0
  0
LINE
  5
BE5
  8
CENTER
  6
CENTER
 10
686.70419093510145
 20
220.9290284635598
 30
0.0
 11
686.70419093510145
 21
234.92902846355989
 31
0.0
  0
ARC
  5
BE6
  8
0
  6
CONTINUOUS
 10
686.70419093510145
 20
227.92902846355989
 30
0.0
 40
4.0
 50
335.22857957427448
 51
294.32248297488059
  0
CIRCLE
  5
BE7
  8
0
  6
CONTINUOUS
 10
686.70419093510145
 20
227.92902846355989
 30
0.0
 40
3.399999999999999
  0
LINE
  5
BE8
  8
DIM
  6
CONTINUOUS
 10
676.70419093510145
 20
335.19804680619359
 30
0.0
 11
676.70419093510145
 21
309.19804680619347
 31
0.0
  0
LINE
  5
BE9
  8
DIM
  6
CONTINUOUS
 10
680.70419093510145
 20
326.19804680619347
 30
0.0
 11
680.70419093510145
 21
317.19804680619347
 31
0.0
  0
LINE
  5
BEA
  8
0
  6
CONTINUOUS
 10
703.70419093509918
 20
268.42902846355992
 30
0.0
 11
696.70419093509895
 21
268.42902846355992
 31
0.0
  0
ARC
  5
BEB
  8
0
  6
CONTINUOUS
 10
700.21023072595403
 20
250.42902967952909
 30
0.0
 40
14.999999999999989
 50
90.023070302298393
 51
109.4956922330535
  0
LINE
  5
BEC
  8
0
  6
CONTINUOUS
 10
708.45419093509906
 20
265.42902846355992
 30
0.0
 11
691.95419093509895
 21
265.42902846355992
 31
0.0
  0
LINE
  5
BED
  8
0
  6
CONTINUOUS
 10
705.20419093509906
 20
266.92902846355992
 30
0.0
 11
695.20419093509895
 21
266.92902846355992
 31
0.0
  0
ARC
  5
BEE
  8
0
  6
CONTINUOUS
 10
700.21023072589867
 20
275.42902724759068
 30
0.0
 40
14.999999999999989
 50
250.50430776694591
 51
269.97692969770111
  0
LINE
  5
BEF
  8
0
  6
CONTINUOUS
 10
696.20419093509906
 20
265.42902846355992
 30
0.0
 11
696.20419093509906
 21
267.92902846355992
 31
0.0
  0
LINE
  5
BF0
  8
0
  6
CONTINUOUS
 10
690.4041909350999
 20
264.5341092949684
 30
0.0
 11
691.95419093509906
 21
265.42902846355992
 31
0.0
  0
ARC
  5
BF1
  8
0
  6
CONTINUOUS
 10
692.89773172160164
 20
261.90725038016973
 30
0.0
 40
3.5220472269320542
 50
49.090720066529649
 51
119.2051441578367
  0
LINE
  5
BF2
  8
0
  6
CONTINUOUS
 10
695.20419093509918
 20
265.42902846355992
 30
0.0
 11
695.20419093509918
 21
266.92902846355992
 31
0.0
  0
ARC
  5
BF3
  8
0
  6
CONTINUOUS
 10
692.89773172154639
 20
263.95080654694988
 30
0.0
 40
3.5220472269320542
 50
240.7948558421632
 51
310.90927993347032
  0
LINE
  5
BF4
  8
0
  6
CONTINUOUS
 10
690.40419093504454
 20
261.32394763215137
 30
0.0
 11
691.95419093504381
 21
260.42902846355992
 31
0.0
  0
LINE
  5
BF5
  8
0
  6
CONTINUOUS
 10
690.4041909350999
 20
261.32394763211948
 30
0.0
 11
690.4041909350999
 21
264.5341092949684
 31
0.0
  0
LINE
  5
BF6
  8
0
  6
CONTINUOUS
 10
695.20419093509918
 20
261.28902846354077
 30
0.0
 11
695.20419093509918
 21
264.56902846355928
 31
0.0
  0
LINE
  5
BF7
  8
0
  6
CONTINUOUS
 10
695.20419093509918
 20
266.92902846355992
 30
0.0
 11
696.70419093509906
 21
268.42902846355992
 31
0.0
  0
SOLID
  5
BF8
  8
DIM
  6
CONTINUOUS
 10
683.70419093510145
 20
318.69804680619359
 30
0.0
 11
683.70419093510145
 21
317.69804680619347
 31
0.0
 12
680.70419093510145
 22
318.19804680619359
 32
0.0
 13
680.70419093510145
 23
318.19804680619359
 33
0.0
  0
SOLID
  5
BF9
  8
DIM
  6
CONTINUOUS
 10
679.70419093510145
 20
310.69804680619347
 30
0.0
 11
679.70419093510145
 21
309.69804680619359
 31
0.0
 12
676.70419093510145
 22
310.19804680619359
 32
0.0
 13
676.70419093510145
 23
310.19804680619359
 33
0.0
  0
ARC
  5
BFA
  8
0
  6
CONTINUOUS
 10
707.5106501485966
 20
261.90725038016973
 30
0.0
 40
3.5220472269320542
 50
60.794855842163209
 51
130.90927993347029
  0
ARC
  5
BFB
  8
0
  6
CONTINUOUS
 10
707.51065014854123
 20
263.95080654694988
 30
0.0
 40
3.5220472269320542
 50
229.0907200665296
 51
299.2051441578368
  0
LINE
  5
BFC
  8
0
  6
CONTINUOUS
 10
704.20419093509918
 20
265.42902846355992
 30
0.0
 11
704.20419093509918
 21
267.92902846355992
 31
0.0
  0
LINE
  5
BFD
  8
0
  6
CONTINUOUS
 10
705.20419093509906
 20
265.42902846355992
 30
0.0
 11
705.20419093509906
 21
266.92902846355992
 31
0.0
  0
LINE
  5
BFE
  8
0
  6
CONTINUOUS
 10
705.20419093509906
 20
266.92902846355992
 30
0.0
 11
703.70419093509918
 21
268.42902846355992
 31
0.0
  0
LINE
  5
BFF
  8
0
  6
CONTINUOUS
 10
705.20419093509906
 20
261.28902846358
 30
0.0
 11
705.20419093509906
 21
264.56902846355928
 31
0.0
  0
ARC
  5
C00
  8
0
  6
CONTINUOUS
 10
700.19815114424409
 20
250.42902967952909
 30
0.0
 40
14.999999999999989
 50
70.504307766945473
 51
89.976929697700726
  0
ARC
  5
C01
  8
0
  6
CONTINUOUS
 10
700.19815114418884
 20
275.42902724759068
 30
0.0
 40
14.999999999999989
 50
270.02307030229878
 51
289.49569223305389
  0
LINE
  5
C02
  8
0
  6
CONTINUOUS
 10
710.00419093509845
 20
264.5341092949684
 30
0.0
 11
708.45419093509906
 21
265.42902846355992
 31
0.0
  0
LINE
  5
C03
  8
0
  6
CONTINUOUS
 10
710.00419093504297
 20
261.32394763215137
 30
0.0
 11
708.45419093504381
 21
260.42902846355992
 31
0.0
  0
LINE
  5
C04
  8
0
  6
CONTINUOUS
 10
710.00419093509845
 20
261.32394763218332
 30
0.0
 11
710.00419093509845
 21
264.5341092949684
 31
0.0
  0
TEXT
  5
C05
  8
DIM
  6
CONTINUOUS
 10
719.27561950653001
 20
311.69804680619347
 30
0.0
 40
3.0
  1
90
  7
ROMANSS
 72
     1
 11
721.70419093510145
 21
313.19804680619347
 31
0.0
 73
     2
  0
TEXT
  5
C06
  8
DIM
  6
CONTINUOUS
 10
717.91847664938712
 20
303.69804680619359
 30
0.0
 40
3.0
  1
306
  7
ROMANSS
 72
     1
 11
721.70419093510145
 21
305.19804680619347
 31
0.0
 73
     2
  0
TEXT
  5
C07
  8
DIM
  6
CONTINUOUS
 10
717.91847664938712
 20
319.69804680619347
 30
0.0
 40
3.0
  1
%%c82
  7
ROMANSS
 72
     1
 11
721.70419093510145
 21
321.19804680619347
 31
0.0
 73
     2
  0
POLYLINE
  5
C08
  8
0
  6
CONTINUOUS
 66
     1
 10
0.0
 20
0.0
 30
0.0
 70
     1
  0
VERTEX
  5
13A1
  8
0
  6
CONTINUOUS
 10
695.30419093510181
 20
362.68509576328108
 30
0.0
  0
VERTEX
  5
13A2
  8
0
  6
CONTINUOUS
 10
690.40419093510218
 20
354.19804680619359
 30
0.0
  0
VERTEX
  5
13A3
  8
0
  6
CONTINUOUS
 10
695.30419093510181
 20
345.71099784910592
 30
0.0
  0
VERTEX
  5
13A4
  8
0
  6
CONTINUOUS
 10
705.10419093510109
 20
345.71099784910592
 30
0.0
  0
VERTEX
  5
13A5
  8
0
  6
CONTINUOUS
 10
710.00419093510061
 20
354.19804680619359
 30
0.0
  0
VERTEX
  5
13A6
  8
0
  6
CONTINUOUS
 10
705.10419093510109
 20
362.68509576328108
 30
0.0
  0
SEQEND
  5
13A7
  8
0
  6
CONTINUOUS
  0
CIRCLE
  5
C10
  8
0
  6
CONTINUOUS
 10
700.20419093510145
 20
354.19804680619359
 30
0.0
 40
8.25
  0
POLYLINE
  5
C11
  8
0
  6
CONTINUOUS
 66
     1
 10
0.0
 20
0.0
 30
0.0
 70
     1
  0
VERTEX
  5
13A8
  8
0
  6
CONTINUOUS
 10
698.76081526212727
 20
356.69804680619347
 30
0.0
  0
VERTEX
  5
13A9
  8
0
  6
CONTINUOUS
 10
697.31743958915331
 20
354.19804680619359
 30
0.0
  0
VERTEX
  5
13AA
  8
0
  6
CONTINUOUS
 10
698.76081526212727
 20
351.69804680619359
 30
0.0
  0
VERTEX
  5
13AB
  8
0
  6
CONTINUOUS
 10
701.64756660807552
 20
351.69804680619359
 30
0.0
  0
VERTEX
  5
13AC
  8
0
  6
CONTINUOUS
 10
703.09094228104959
 20
354.19804680619359
 30
0.0
  0
VERTEX
  5
13AD
  8
0
  6
CONTINUOUS
 10
701.64756660807552
 20
356.69804680619347
 30
0.0
  0
SEQEND
  5
13AE
  8
0
  6
CONTINUOUS
  0
ARC
  5
C19
  8
0
  6
CONTINUOUS
 10
700.20419093510145
 20
354.19804680619359
 30
0.0
 40
4.25
 50
69.487813016515403
 51
22.414620147485479
  0
CIRCLE
  5
C1A
  8
0
  6
CONTINUOUS
 10
700.20419093510145
 20
354.19804680619359
 30
0.0
 40
5.0
  0
LINE
  5
C1B
  8
CENTER
  6
CENTER
 10
685.20419093510145
 20
354.19804680619359
 30
0.0
 11
715.20419093510145
 21
354.19804680619359
 31
0.0
  0
LINE
  5
C1C
  8
CENTER
  6
CENTER
 10
686.70419093510145
 20
333.9178654434109
 30
0.0
 11
686.70419093510145
 21
352.05090246825091
 31
0.0
  0
LINE
  5
C1D
  8
0
  6
CONTINUOUS
 10
680.70419093510145
 20
327.19804680619347
 30
0.0
 11
681.70419093510145
 21
326.19804680619347
 31
0.0
  0
LINE
  5
C1E
  8
0
 10
680.70419093510145
 20
336.19804680619347
 30
0.0
 11
680.70419093510145
 21
327.19804680619347
 31
0.0
  0
LINE
  5
C1F
  8
CENTER
  6
CENTER
 10
700.20419093510145
 20
369.19804680619347
 30
0.0
 11
700.20419093510145
 21
339.19804680619359
 31
0.0
  0
LINE
  5
C20
  8
0
  6
CONTINUOUS
 10
459.94860186367572
 20
421.19804680619359
 30
0.0
 11
460.94860186367572
 21
420.19804680619347
 31
0.0
  0
ARC
  5
C21
  8
0
 10
461.44860186367589
 20
406.69804680619347
 30
0.0
 40
1.5
 50
90.0
 51
180.0
  0
ARC
  5
C22
  8
0
 10
461.44860186367589
 20
395.33135445897727
 30
0.0
 40
1.5
 50
180.0
 51
242.00543826774759
  0
LINE
  5
C23
  8
0
 10
452.44860186367589
 20
408.19804680619342
 30
0.0
 11
468.27703444718372
 21
408.19804680619342
 31
0.0
  0
LINE
  5
C24
  8
CENTER
  6
CENTER
 10
490.44860186367589
 20
373.69804680619347
 30
0.0
 11
374.44860186367572
 21
373.69804680619342
 31
0.0
  0
LINE
  5
C25
  8
0
 10
477.94860186367578
 20
410.69804680619347
 30
0.0
 11
421.94860186367572
 21
410.69804680619347
 31
0.0
  0
LINE
  5
C26
  8
0
  6
CONTINUOUS
 10
460.94860186367572
 20
420.19804680619347
 30
0.0
 11
378.94860186367578
 21
420.19804680619347
 31
0.0
  0
LINE
  5
C27
  8
0
  6
CONTINUOUS
 10
487.44860186367578
 20
411.19804680619347
 30
0.0
 11
377.44860186367561
 21
411.19804680619347
 31
0.0
  0
LINE
  5
C28
  8
0
  6
CONTINUOUS
 10
459.94860186367572
 20
421.19804680619359
 30
0.0
 11
379.94860186367572
 21
421.19804680619359
 31
0.0
  0
LINE
  5
C29
  8
0
 10
378.94860186367578
 20
420.19804680619347
 30
0.0
 11
378.94860186367578
 21
411.19804680619347
 31
0.0
  0
LINE
  5
C2A
  8
CENTER
  6
CENTER
 10
384.94860186367572
 20
413.47822816897622
 30
0.0
 11
384.94860186367572
 21
399.47822816897622
 31
0.0
  0
LINE
  5
C2B
  8
0
  6
CONTINUOUS
 10
379.94860186367572
 20
421.19804680619359
 30
0.0
 11
378.94860186367578
 21
420.19804680619347
 31
0.0
  0
ARC
  5
C2C
  8
0
 10
427.28524338110861
 20
392.47231799223442
 30
0.0
 40
1.5
 50
44.99999999999693
 51
120.52248781407241
  0
LINE
  5
C2D
  8
CENTER
  6
CENTER
 10
429.19860186367572
 20
401.94804680619342
 30
0.0
 11
414.19860186367578
 21
401.94804680619342
 31
0.0
  0
CIRCLE
  5
C2E
  8
0
 10
421.69860186367578
 20
401.94804680619342
 30
0.0
 40
6.5
  0
ARC
  5
C2F
  8
0
 10
425.5764866497679
 20
371.1980468061933
 30
0.0
 40
1.5
 50
5.856701909916878
 51
90.0
  0
ARC
  5
C30
  8
0
 10
425.5764866497679
 20
376.19804680619342
 30
0.0
 40
1.5
 50
270.0
 51
354.14329809007882
  0
LINE
  5
C31
  8
0
 10
416.94860186367572
 20
383.69804680619342
 30
0.0
 11
428.31529421089181
 21
383.69804680619342
 31
0.0
  0
ARC
  5
C32
  8
0
 10
421.69860186367578
 20
401.94804680619342
 30
0.0
 40
9.5
 50
244.41699802261189
 51
300.52248781407019
  0
ARC
  5
C33
  8
0
 10
416.94860186367572
 20
392.02647938970142
 30
0.0
 40
1.5
 50
64.416998022577985
 51
180.0
  0
LINE
  5
C34
  8
0
 10
415.44860186367578
 20
376.19804680619342
 30
0.0
 11
415.44860186367578
 21
392.02647938970142
 31
0.0
  0
LINE
  5
C35
  8
0
 10
416.94860186367572
 20
372.6980468061933
 30
0.0
 11
425.5764866497679
 21
372.6980468061933
 31
0.0
  0
LINE
  5
C36
  8
0
 10
416.94860186367572
 20
374.69804680619342
 30
0.0
 11
425.5764866497679
 21
374.69804680619342
 31
0.0
  0
ARC
  5
C37
  8
0
 10
416.94860186367572
 20
371.1980468061933
 30
0.0
 40
1.5
 50
90.0
 51
180.0
  0
ARC
  5
C38
  8
0
 10
416.94860186367572
 20
376.19804680619342
 30
0.0
 40
1.5
 50
180.0
 51
270.0
  0
ARC
  5
C39
  8
0
 10
416.94860186367572
 20
385.19804680619342
 30
0.0
 40
1.5
 50
180.0
 51
270.0
  0
ARC
  5
C3A
  8
0
 10
421.94860186367572
 20
401.69804680619347
 30
0.0
 40
9.5
 50
90.0
 51
180.0
  0
ARC
  5
C3B
  8
0
 10
421.94860186367572
 20
401.69804680619347
 30
0.0
 40
9.0
 50
90.0
 51
180.0
  0
LINE
  5
C3C
  8
CENTER
  6
CENTER
 10
421.69860186367578
 20
409.44804680619342
 30
0.0
 11
421.69860186367578
 21
394.44804680619342
 31
0.0
  0
ARC
  5
C3D
  8
0
  6
CONTINUOUS
 10
421.69860186367578
 20
401.94804680619342
 30
0.0
 40
4.0
 50
165.54611884332431
 51
122.22581883937571
  0
CIRCLE
  5
C3E
  8
0
  6
CONTINUOUS
 10
421.69860186367578
 20
401.94804680619342
 30
0.0
 40
3.399999999999999
  0
POLYLINE
  5
C3F
  8
0
  6
CONTINUOUS
 66
     1
 10
0.0
 20
0.0
 30
0.0
 70
     1
  0
VERTEX
  5
13AF
  8
0
  6
CONTINUOUS
 10
424.00800294043421
 20
405.94804680619342
 30
0.0
  0
VERTEX
  5
13B0
  8
0
  6
CONTINUOUS
 10
426.3174040171927
 20
401.94804680619342
 30
0.0
  0
VERTEX
  5
13B1
  8
0
  6
CONTINUOUS
 10
424.00800294043421
 20
397.94804680619342
 30
0.0
  0
VERTEX
  5
13B2
  8
0
  6
CONTINUOUS
 10
419.38920078691717
 20
397.94804680619342
 30
0.0
  0
VERTEX
  5
13B3
  8
0
  6
CONTINUOUS
 10
417.0797997101588
 20
401.94804680619342
 30
0.0
  0
VERTEX
  5
13B4
  8
0
  6
CONTINUOUS
 10
419.38920078691717
 20
405.94804680619342
 30
0.0
  0
SEQEND
  5
13B5
  8
0
  6
CONTINUOUS
  0
LINE
  5
C47
  8
0
 10
433.61784767333592
 20
391.79656794949949
 30
0.0
 11
430.11367050585483
 21
395.30074511698069
 31
0.0
  0
LINE
  5
C48
  8
0
 10
431.85008072036948
 20
390.02880099653322
 30
0.0
 11
428.3459035528885
 21
393.53297816401431
 31
0.0
  0
ARC
  5
C49
  8
0
 10
434.67850784511569
 20
392.85722812127932
 30
0.0
 40
1.5
 50
225.00000000000151
 51
308.55525966022958
  0
ARC
  5
C4A
  8
0
 10
430.7894205485897
 20
388.96814082475328
 30
0.0
 40
1.5
 50
321.44474033977031
 51
44.99999999999693
  0
ARC
  5
C4B
  8
0
 10
428.31529421089181
 20
385.19804680619342
 30
0.0
 40
1.5
 50
270.0
 51
332.00543826774572
  0
LINE
  5
C4C
  8
0
 10
447.44860186367572
 20
408.19804680619342
 30
0.0
 11
431.62016928016777
 21
408.19804680619342
 31
0.0
  0
LINE
  5
C4D
  8
0
 10
439.94860186367572
 20
406.69804680619347
 30
0.0
 11
439.94860186367572
 21
395.33135445897727
 31
0.0
  0
ARC
  5
C4E
  8
0
 10
421.69860186367578
 20
401.94804680619342
 30
0.0
 40
9.5
 50
329.47751218592958
 51
25.583001977382661
  0
ARC
  5
C4F
  8
0
 10
431.17433067763483
 20
396.36140528876041
 30
0.0
 40
1.5
 50
149.47751218592751
 51
224.9999999999969
  0
ARC
  5
C50
  8
0
 10
438.44860186367572
 20
395.33135445897727
 30
0.0
 40
1.5
 50
297.99456173225229
 51
0.0
  0
ARC
  5
C51
  8
0
 10
431.62016928016777
 20
406.69804680619347
 30
0.0
 40
1.5
 50
90.0
 51
205.5830019774171
  0
ARC
  5
C52
  8
0
 10
438.44860186367572
 20
406.69804680619347
 30
0.0
 40
1.5
 50
0.0
 51
90.0
  0
LINE
  5
C53
  8
0
 10
448.94860186367578
 20
406.69804680619347
 30
0.0
 11
448.94860186367578
 21
398.07016202010129
 31
0.0
  0
LINE
  5
C54
  8
0
 10
450.94860186367578
 20
406.69804680619347
 30
0.0
 11
450.94860186367578
 21
398.07016202010129
 31
0.0
  0
LINE
  5
C55
  8
CENTER
  6
CENTER
 10
454.94860186367572
 20
413.47822816897622
 30
0.0
 11
454.94860186367572
 21
399.47822816897622
 31
0.0
  0
LINE
  5
C56
  8
0
 10
459.94860186367589
 20
406.69804680619347
 30
0.0
 11
459.94860186367589
 21
395.33135445897727
 31
0.0
  0
ARC
  5
C57
  8
0
 10
452.44860186367589
 20
398.07016202010129
 30
0.0
 40
1.5
 50
180.0
 51
264.14329809008092
  0
ARC
  5
C58
  8
0
 10
447.44860186367572
 20
398.07016202010129
 30
0.0
 40
1.5
 50
275.85670190991902
 51
0.0
  0
ARC
  5
C59
  8
0
 10
452.44860186367589
 20
406.69804680619347
 30
0.0
 40
1.5
 50
90.0
 51
180.0
  0
ARC
  5
C5A
  8
0
 10
447.44860186367572
 20
406.69804680619347
 30
0.0
 40
1.5
 50
0.0
 51
90.0
  0
LINE
  5
C5B
  8
0
 10
563.70419093510145
 20
556.41387932977477
 30
0.0
 11
563.70419093510134
 21
482.41387932977472
 31
0.0
  0
LINE
  5
C5C
  8
0
 10
558.70419093510134
 20
540.91387932977455
 30
0.0
 11
558.70419093510134
 21
497.91387932977449
 31
0.0
  0
LINE
  5
C5D
  8
0
 10
595.70419093510145
 20
556.91387932977477
 30
0.0
 11
595.70419093510134
 21
481.91387932977477
 31
0.0
  0
LINE
  5
C5E
  8
0
 10
595.70419093510145
 20
554.41387932977466
 30
0.0
 11
595.70419093510145
 21
484.41387932977472
 31
0.0
  0
LINE
  5
C5F
  8
0
 10
676.70419093510134
 20
591.91387932977466
 30
0.0
 11
676.70419093510145
 21
481.91387932977449
 31
0.0
  0
LINE
  5
C60
  8
CENTER
  6
CENTER
 10
721.70419093510145
 20
594.91387932977466
 30
0.0
 11
721.70419093510145
 21
478.91387932977449
 31
0.0
  0
LINE
  5
C61
  8
0
 10
676.70419093510145
 20
538.20398878834817
 30
0.0
 11
595.70419093510145
 21
538.20398878834817
 31
0.0
  0
LINE
  5
C62
  8
0
 10
676.70419093510145
 20
500.62376987120138
 30
0.0
 11
595.70419093510145
 21
500.62376987120138
 31
0.0
  0
LINE
  5
C63
  8
0
 10
676.70419093510145
 20
484.41387932977472
 30
0.0
 11
595.70419093510145
 21
484.41387932977472
 31
0.0
  0
LINE
  5
C64
  8
0
 10
676.70419093510145
 20
408.69804680619359
 30
0.0
 11
595.70419093510145
 21
408.69804680619359
 31
0.0
  0
LINE
  5
C65
  8
0
 10
676.70419093510145
 20
392.48815626476693
 30
0.0
 11
595.70419093510145
 21
392.48815626476693
 31
0.0
  0
LINE
  5
C66
  8
0
 10
595.70419093510134
 20
411.19804680619347
 30
0.0
 11
563.70419093510134
 21
410.69804680619347
 31
0.0
  0
LINE
  5
C67
  8
0
 10
460.94860186367572
 20
420.19804680619347
 30
0.0
 11
460.94860186367572
 21
411.19804680619347
 31
0.0
  0
LINE
  5
C68
  8
0
 10
466.27935605401558
 20
391.79656794949949
 30
0.0
 11
469.78353322149673
 21
395.30074511698069
 31
0.0
  0
LINE
  5
C69
  8
0
 10
468.3601420574729
 20
390.3418200470241
 30
0.0
 11
471.55130017446288
 21
393.53297816401431
 31
0.0
  0
ARC
  5
C6A
  8
0
 10
482.94860186367578
 20
392.02647938970142
 30
0.0
 40
1.5
 50
0.0
 51
115.5830019773997
  0
ARC
  5
C6B
  8
0
 10
478.19860186367572
 20
401.94804680619342
 30
0.0
 40
9.5
 50
239.47751218592961
 51
295.58300197739902
  0
LINE
  5
C6C
  8
CENTER
  6
CENTER
 10
490.50332379544398
 20
382.69804680619359
 30
0.0
 11
466.97523852591809
 21
382.69804680619359
 31
0.0
  0
LINE
  5
C6D
  8
0
 10
482.94860186367578
 20
372.69804680619342
 30
0.0
 11
474.32071707758359
 21
372.69804680619342
 31
0.0
  0
LINE
  5
C6E
  8
0
 10
482.94860186367578
 20
374.69804680619342
 30
0.0
 11
474.76794915565739
 21
374.69804680619342
 31
0.0
  0
LINE
  5
C6F
  8
0
 10
482.94860186367578
 20
379.19804680619359
 30
0.0
 11
473.79708189909928
 21
379.19804680619359
 31
0.0
  0
ARC
  5
C70
  8
0
 10
474.32071707758359
 20
371.19804680619342
 30
0.0
 40
1.5
 50
90.0
 51
174.14329809008311
  0
ARC
  5
C71
  8
0
 10
474.76794915565739
 20
376.69804680619342
 30
0.0
 40
2.0
 50
186.89210257934661
 51
270.0
  0
ARC
  5
C72
  8
0
 10
473.79708189909928
 20
381.19804680619359
 30
0.0
 40
2.0
 50
197.45760312372269
 51
270.0
  0
ARC
  5
C73
  8
0
 10
469.77435561984589
 20
388.92760648465099
 30
0.0
 40
2.0
 50
134.99999999999881
 51
217.53040768358429
  0
ARC
  5
C74
  8
0
 10
465.21869588223569
 20
392.85722812127932
 30
0.0
 40
1.5
 50
231.44474033976729
 51
314.99999999999841
  0
LINE
  5
C75
  8
0
 10
484.44860186367578
 20
392.02647938970142
 30
0.0
 11
484.44860186367578
 21
376.19804680619342
 31
0.0
  0
ARC
  5
C76
  8
0
 10
482.94860186367578
 20
376.19804680619342
 30
0.0
 40
1.5
 50
270.0
 51
0.0
  0
ARC
  5
C77
  8
0
 10
482.94860186367578
 20
371.19804680619342
 30
0.0
 40
1.5
 50
0.0
 51
90.0
  0
ARC
  5
C78
  8
0
 10
482.94860186367578
 20
380.69804680619359
 30
0.0
 40
1.5
 50
270.0
 51
0.0
  0
LINE
  5
C79
  8
CENTER
  6
CENTER
 10
485.69860186367572
 20
401.94804680619342
 30
0.0
 11
470.69860186367572
 21
401.94804680619342
 31
0.0
  0
CIRCLE
  5
C7A
  8
0
 10
478.19860186367572
 20
401.94804680619342
 30
0.0
 40
6.5
  0
ARC
  5
C7B
  8
0
  6
CONTINUOUS
 10
478.19860186367572
 20
401.94804680619342
 30
0.0
 40
4.0
 50
165.54611884332431
 51
122.22581883937571
  0
CIRCLE
  5
C7C
  8
0
  6
CONTINUOUS
 10
478.19860186367572
 20
401.94804680619342
 30
0.0
 40
3.399999999999999
  0
POLYLINE
  5
C7D
  8
0
  6
CONTINUOUS
 66
     1
 10
0.0
 20
0.0
 30
0.0
 70
     1
  0
VERTEX
  5
13B6
  8
0
  6
CONTINUOUS
 10
480.50800294043432
 20
405.94804680619342
 30
0.0
  0
VERTEX
  5
13B7
  8
0
  6
CONTINUOUS
 10
482.8174040171927
 20
401.94804680619342
 30
0.0
  0
VERTEX
  5
13B8
  8
0
  6
CONTINUOUS
 10
480.50800294043432
 20
397.94804680619342
 30
0.0
  0
VERTEX
  5
13B9
  8
0
  6
CONTINUOUS
 10
475.88920078691729
 20
397.94804680619342
 30
0.0
  0
VERTEX
  5
13BA
  8
0
  6
CONTINUOUS
 10
473.57979971015868
 20
401.94804680619342
 30
0.0
  0
VERTEX
  5
13BB
  8
0
  6
CONTINUOUS
 10
475.88920078691729
 20
405.94804680619342
 30
0.0
  0
SEQEND
  5
13BC
  8
0
  6
CONTINUOUS
  0
ARC
  5
C85
  8
0
 10
478.19860186367572
 20
401.94804680619342
 30
0.0
 40
9.5
 50
154.41699802261189
 51
210.5224878140703
  0
ARC
  5
C86
  8
0
 10
472.61196034624282
 20
392.47231799223459
 30
0.0
 40
1.5
 50
59.477512185927552
 51
135.00000000000151
  0
ARC
  5
C87
  8
0
 10
468.72287304971678
 20
396.36140528876041
 30
0.0
 40
1.5
 50
315.00000000000148
 51
30.522487814072448
  0
ARC
  5
C88
  8
0
 10
468.27703444718372
 20
406.69804680619347
 30
0.0
 40
1.5
 50
334.4169980225779
 51
90.0
  0
ARC
  5
C89
  8
0
 10
477.94860186367578
 20
401.69804680619347
 30
0.0
 40
9.5
 50
0.0
 51
90.0
  0
ARC
  5
C8A
  8
0
 10
477.94860186367578
 20
401.69804680619347
 30
0.0
 40
9.0
 50
0.0
 51
90.0
  0
LINE
  5
C8B
  8
CENTER
  6
CENTER
 10
478.19860186367572
 20
409.44804680619342
 30
0.0
 11
478.19860186367572
 21
394.44804680619342
 31
0.0
  0
LINE
  5
C8C
  8
0
 10
487.44860186367578
 20
398.69804680619342
 30
0.0
 11
486.94860186367589
 21
398.69804680619342
 31
0.0
  0
ARC
  5
C8D
  8
0
 10
560.59299972225585
 20
393.92042923188478
 30
0.0
 40
2.2803300858899109
 50
87.205091258939149
 51
145.92501109521589
  0
LINE
  5
C8E
  8
0
 10
563.70419093510134
 20
396.1980468061937
 30
0.0
 11
560.70419093510134
 21
396.1980468061937
 31
0.0
  0
ARC
  5
C8F
  8
0
  6
CONTINUOUS
 10
588.70419093510134
 20
382.69804680619359
 30
0.0
 40
3.5
 50
158.2132107017398
 51
201.78678929826219
  0
ARC
  5
C90
  8
0
  6
CONTINUOUS
 10
588.70419093510134
 20
382.69804680619359
 30
0.0
 40
3.5
 50
338.21321070173769
 51
21.786789298262239
  0
LINE
  5
C91
  8
CENTER
  6
CENTER
 10
588.70419093510134
 20
389.19804680619359
 30
0.0
 11
588.70419093510134
 21
376.19804680619347
 31
0.0
  0
CIRCLE
  5
C92
  8
0
  6
CONTINUOUS
 10
588.70419093510134
 20
382.69804680619359
 30
0.0
 40
2.5
  0
CIRCLE
  5
C93
  8
0
 10
588.70419093510134
 20
382.69804680619359
 30
0.0
 40
5.0
  0
CIRCLE
  5
C94
  8
0
 10
588.70419093510134
 20
382.69804680619359
 30
0.0
 40
5.2999999999999989
  0
POLYLINE
  5
C95
  8
0
  6
CONTINUOUS
 66
     1
 10
0.0
 20
0.0
 30
0.0
 70
     1
  0
VERTEX
  5
13BD
  8
0
  6
CONTINUOUS
 10
589.57021633888564
 20
381.19804680619359
 30
0.0
  0
VERTEX
  5
13BE
  8
0
  6
CONTINUOUS
 10
590.43624174267006
 20
382.69804680619359
 30
0.0
  0
VERTEX
  5
13BF
  8
0
  6
CONTINUOUS
 10
589.57021633888564
 20
384.19804680619347
 30
0.0
  0
VERTEX
  5
13C0
  8
0
  6
CONTINUOUS
 10
587.83816553131692
 20
384.19804680619347
 30
0.0
  0
VERTEX
  5
13C1
  8
0
  6
CONTINUOUS
 10
586.9721401275325
 20
382.69804680619359
 30
0.0
  0
VERTEX
  5
13C2
  8
0
  6
CONTINUOUS
 10
587.83816553131692
 20
381.19804680619359
 30
0.0
  0
SEQEND
  5
13C3
  8
0
  6
CONTINUOUS
  0
LINE
  5
C9D
  8
0
  6
CONTINUOUS
 10
585.45419093510134
 20
381.3990087005169
 30
0.0
 11
584.14576895019775
 21
380.64359091531918
 31
0.0
  0
LINE
  5
C9E
  8
0
  6
CONTINUOUS
 10
585.95419093510134
 20
380.53298329673243
 30
0.0
 11
584.64576895019775
 21
379.77756551153482
 31
0.0
  0
LINE
  5
C9F
  8
0
  6
CONTINUOUS
 10
588.20419093510134
 20
377.72310962066041
 30
0.0
 11
588.20419093510134
 21
379.23394519105568
 31
0.0
  0
ARC
  5
CA0
  8
0
  6
CONTINUOUS
 10
588.70419093510134
 20
382.69804680619359
 30
0.0
 40
3.5
 50
218.21321070173829
 51
261.78678929826179
  0
LINE
  5
CA1
  8
0
  6
CONTINUOUS
 10
589.20419093510134
 20
377.72310962066041
 30
0.0
 11
589.20419093510134
 21
379.23394519105568
 31
0.0
  0
LINE
  5
CA2
  8
0
  6
CONTINUOUS
 10
591.95419093510134
 20
381.3990087005169
 30
0.0
 11
593.2626129200047
 21
380.64359091531918
 31
0.0
  0
ARC
  5
CA3
  8
0
  6
CONTINUOUS
 10
588.70419093510134
 20
382.69804680619359
 30
0.0
 40
3.5
 50
278.21321070173809
 51
321.78678929826162
  0
LINE
  5
CA4
  8
0
  6
CONTINUOUS
 10
591.45419093510134
 20
380.53298329673243
 30
0.0
 11
592.76261292000481
 21
379.77756551153482
 31
0.0
  0
LINE
  5
CA5
  8
CENTER
  6
CENTER
 10
595.20419093510168
 20
382.69804680619359
 30
0.0
 11
582.20419093510145
 21
382.69804680619359
 31
0.0
  0
LINE
  5
CA6
  8
0
  6
CONTINUOUS
 10
584.14576895019775
 20
384.75250269706788
 30
0.0
 11
585.45419093510134
 21
383.99708491187027
 31
0.0
  0
LINE
  5
CA7
  8
0
  6
CONTINUOUS
 10
584.64576895019775
 20
385.6185281008523
 30
0.0
 11
585.95419093510134
 21
384.86311031565469
 31
0.0
  0
LINE
  5
CA8
  8
0
  6
CONTINUOUS
 10
588.20419093510134
 20
386.16214842133132
 30
0.0
 11
588.20419093510134
 21
387.67298399172671
 31
0.0
  0
ARC
  5
CA9
  8
0
  6
CONTINUOUS
 10
588.70419093510134
 20
382.69804680619359
 30
0.0
 40
3.5
 50
98.213210701738234
 51
141.7867892982616
  0
ARC
  5
CAA
  8
0
  6
CONTINUOUS
 10
588.70419093510134
 20
382.69804680619359
 30
0.0
 40
3.5
 50
38.213210701738312
 51
81.786789298261766
  0
LINE
  5
CAB
  8
0
  6
CONTINUOUS
 10
592.76261292000481
 20
385.6185281008523
 30
0.0
 11
591.45419093510134
 21
384.86311031565469
 31
0.0
  0
LINE
  5
CAC
  8
0
  6
CONTINUOUS
 10
589.20419093510134
 20
386.16214842133132
 30
0.0
 11
589.20419093510134
 21
387.67298399172671
 31
0.0
  0
LINE
  5
CAD
  8
0
  6
CONTINUOUS
 10
593.2626129200047
 20
384.75250269706788
 30
0.0
 11
591.95419093510134
 21
383.99708491187027
 31
0.0
  0
LINE
  5
CAE
  8
HIDDED
  6
HIDDEN
 10
563.70419093510145
 20
487.16387932977472
 30
0.0
 11
581.70419093510145
 21
487.16387932977472
 31
0.0
  0
LINE
  5
CAF
  8
HIDDED
  6
HIDDEN
 10
563.70419093510134
 20
495.16387932977472
 30
0.0
 11
581.70419093510145
 21
495.16387932977472
 31
0.0
  0
LINE
  5
CB0
  8
0
 10
595.70419093510134
 20
481.91387932977477
 30
0.0
 11
563.70419093510134
 21
482.41387932977472
 31
0.0
  0
LINE
  5
CB1
  8
CENTER
  6
CENTER
 10
595.70419093510145
 20
491.16387932977449
 30
0.0
 11
560.70419093510134
 21
491.16387932977449
 31
0.0
  0
LINE
  5
CB2
  8
0
 10
563.70419093510134
 20
496.91387932977449
 30
0.0
 11
559.70419093510134
 21
496.91387932977449
 31
0.0
  0
ARC
  5
CB3
  8
0
 10
559.70419093510134
 20
497.91387932977449
 30
0.0
 40
1.0
 50
180.0
 51
270.0
  0
LINE
  5
CB4
  8
HIDDED
  6
HIDDEN
 10
569.70419093510145
 20
487.16387932977472
 30
0.0
 11
569.70419093510145
 21
495.16387932977472
 31
0.0
  0
LINE
  5
CB5
  8
HIDDED
  6
HIDDEN
 10
584.70419093510145
 20
494.56387932977458
 30
0.0
 11
586.66718185034608
 21
491.16387932977472
 31
0.0
  0
LINE
  5
CB6
  8
HIDDED
  6
HIDDEN
 10
584.70419093510145
 20
487.76387932977462
 30
0.0
 11
584.70419093510145
 21
494.56387932977458
 31
0.0
  0
LINE
  5
CB7
  8
HIDDED
  6
HIDDEN
 10
581.70419093510145
 20
487.16387932977472
 30
0.0
 11
581.70419093510145
 21
495.16387932977472
 31
0.0
  0
LINE
  5
CB8
  8
CENTER
  6
CENTER
 10
579.70419093510145
 20
479.15954864631721
 30
0.0
 11
579.70419093510145
 21
498.93397315008048
 31
0.0
  0
LINE
  5
CB9
  8
HIDDED
  6
HIDDEN
 10
569.70419093510145
 20
487.76387932977462
 30
0.0
 11
584.70419093510145
 21
487.76387932977462
 31
0.0
  0
LINE
  5
CBA
  8
CENTER
  6
CENTER
 10
588.70419093510134
 20
479.38141043898622
 30
0.0
 11
588.70419093510145
 21
499.12638949397183
 31
0.0
  0
LINE
  5
CBB
  8
HIDDED
  6
HIDDEN
 10
584.70419093510145
 20
487.76387932977462
 30
0.0
 11
586.66718185034608
 21
491.16387932977472
 31
0.0
  0
LINE
  5
CBC
  8
HIDDED
  6
HIDDEN
 10
569.70419093510145
 20
494.56387932977458
 30
0.0
 11
584.70419093510145
 21
494.56387932977458
 31
0.0
  0
LINE
  5
CBD
  8
DIM
  6
CONTINUOUS
 10
704.78523829443691
 20
420.19804680619342
 30
0.0
 11
659.70419093510122
 21
420.19804680619347
 31
0.0
  0
LINE
  5
CBE
  8
DIM
  6
CONTINUOUS
 10
680.80654373133837
 20
421.19804680619359
 30
0.0
 11
659.70419093510134
 21
421.19804680619359
 31
0.0
  0
LINE
  5
CBF
  8
DIM
  6
CONTINUOUS
 10
660.70419093510145
 20
427.6986473329211
 30
0.0
 11
660.70419093510134
 21
413.13886974235328
 31
0.0
  0
TEXT
  5
CC0
  8
DIM
  6
CONTINUOUS
 10
659.20419093510134
 20
414.35925781573081
 30
0.0
 40
3.0
  1
1
 50
90.0
  7
ROMANSS
 72
     1
 11
657.70419093510134
 21
414.71640067287359
 31
0.0
 73
     2
  0
SOLID
  5
CC1
  8
DIM
  6
CONTINUOUS
 10
660.20419093510122
 20
417.19804680619359
 30
0.0
 11
661.20419093510122
 21
417.19804680619359
 31
0.0
 12
660.70419093510111
 22
420.19804680619347
 32
0.0
 13
660.70419093510111
 23
420.19804680619347
 33
0.0
  0
SOLID
  5
CC2
  8
DIM
  6
CONTINUOUS
 10
660.20419093510134
 20
424.19804680619347
 30
0.0
 11
661.20419093510134
 21
424.19804680619347
 31
0.0
 12
660.70419093510134
 22
421.19804680619359
 32
0.0
 13
660.70419093510134
 23
421.19804680619359
 33
0.0
  0
LINE
  5
CC3
  8
0
 10
680.70419093510145
 20
420.19804680619347
 30
0.0
 11
680.70419093510145
 21
411.19804680619347
 31
0.0
  0
LINE
  5
CC4
  8
CENTER
  6
CENTER
 10
686.70419093510145
 20
413.47822816897622
 30
0.0
 11
686.70419093510145
 21
395.79467835575429
 31
0.0
  0
POLYLINE
  5
CC5
  8
0
  6
CONTINUOUS
 66
     1
 10
0.0
 20
0.0
 30
0.0
 70
     1
 40
1.0
 41
1.0
  0
VERTEX
  5
13C4
  8
0
  6
CONTINUOUS
 10
722.20419093510134
 20
373.69804680619347
 30
0.0
 42
1.0
  0
VERTEX
  5
13C5
  8
0
  6
CONTINUOUS
 10
721.20419093510134
 20
373.69804680619347
 30
0.0
 42
1.0
  0
SEQEND
  5
13C6
  8
0
  6
CONTINUOUS
  0
LINE
  5
CC9
  8
0
  6
CONTINUOUS
 10
681.70419093510145
 20
421.19804680619359
 30
0.0
 11
680.70419093510145
 21
420.19804680619347
 31
0.0
  0
LINE
  5
CCA
  8
CENTER
  6
CENTER
 10
700.20419093510145
 20
494.74024726447283
 30
0.0
 11
700.20419093510145
 21
470.14543885892272
 31
0.0
  0
ARC
  5
CCB
  8
0
  6
CONTINUOUS
 10
700.21023072589867
 20
466.91388054574361
 30
0.0
 40
14.999999999999989
 50
90.023070302298805
 51
109.495692233054
  0
LINE
  5
CCC
  8
0
  6
CONTINUOUS
 10
703.70419093509918
 20
473.91387932977449
 30
0.0
 11
696.70419093509895
 21
473.91387932977449
 31
0.0
  0
ARC
  5
CCD
  8
0
  6
CONTINUOUS
 10
700.21023072595403
 20
491.91387811380542
 30
0.0
 40
14.999999999999989
 50
250.50430776694631
 51
269.97692969770151
  0
LINE
  5
CCE
  8
0
  6
CONTINUOUS
 10
708.45419093509906
 20
476.91387932977449
 30
0.0
 11
691.95419093509895
 21
476.91387932977449
 31
0.0
  0
LINE
  5
CCF
  8
0
  6
CONTINUOUS
 10
705.20419093509906
 20
475.41387932977449
 30
0.0
 11
695.20419093509895
 21
475.41387932977449
 31
0.0
  0
LINE
  5
CD0
  8
0
  6
CONTINUOUS
 10
690.40419093504454
 20
481.01896016118297
 30
0.0
 11
691.95419093504381
 21
481.91387932977449
 31
0.0
  0
ARC
  5
CD1
  8
0
  6
CONTINUOUS
 10
692.89773172154639
 20
478.39210124638453
 30
0.0
 40
3.5220472269320542
 50
49.090720066529038
 51
119.2051441578367
  0
LINE
  5
CD2
  8
0
  6
CONTINUOUS
 10
695.20419093509918
 20
475.41387932977449
 30
0.0
 11
696.70419093509906
 21
473.91387932977449
 31
0.0
  0
LINE
  5
CD3
  8
0
  6
CONTINUOUS
 10
695.20419093509918
 20
476.91387932977449
 30
0.0
 11
695.20419093509918
 21
475.41387932977449
 31
0.0
  0
ARC
  5
CD4
  8
0
  6
CONTINUOUS
 10
692.89773172160164
 20
480.43565741316479
 30
0.0
 40
3.5220472269320542
 50
240.79485584216471
 51
310.90927993346833
  0
LINE
  5
CD5
  8
0
  6
CONTINUOUS
 10
690.4041909350999
 20
477.80879849836612
 30
0.0
 11
691.95419093509906
 21
476.91387932977449
 31
0.0
  0
LINE
  5
CD6
  8
0
  6
CONTINUOUS
 10
690.4041909350999
 20
481.01896016121498
 30
0.0
 11
690.4041909350999
 21
477.80879849836612
 31
0.0
  0
LINE
  5
CD7
  8
0
  6
CONTINUOUS
 10
696.20419093509906
 20
476.91387932977449
 30
0.0
 11
696.20419093509906
 21
474.41387932977449
 31
0.0
  0
LINE
  5
CD8
  8
0
  6
CONTINUOUS
 10
695.20419093509918
 20
481.05387932979369
 30
0.0
 11
695.20419093509918
 21
477.77387932977513
 31
0.0
  0
SOLID
  5
CD9
  8
DIM
  6
CONTINUOUS
 10
715.20419093510122
 20
529.4281631578408
 30
0.0
 11
715.20419093510122
 21
528.4281631578408
 31
0.0
 12
712.20419093510122
 22
528.9281631578408
 32
0.0
 13
712.20419093510122
 23
528.9281631578408
 33
0.0
  0
TEXT
  5
CDA
  8
DIM
  6
CONTINUOUS
 10
722.1830897214694
 20
530.42816315784069
 30
0.0
 40
3.0
  1
22
  7
ROMANSS
 72
     1
 11
724.61166115004085
 21
531.9281631578408
 31
0.0
 73
     2
  0
ARC
  5
CDB
  8
0
  6
CONTINUOUS
 10
707.51065014854123
 20
478.39210124638453
 30
0.0
 40
3.5220472269320542
 50
60.794855842163209
 51
130.90927993347091
  0
ARC
  5
CDC
  8
0
  6
CONTINUOUS
 10
707.5106501485966
 20
480.43565741316479
 30
0.0
 40
3.5220472269320542
 50
229.09072006653159
 51
299.20514415783521
  0
ARC
  5
CDD
  8
0
  6
CONTINUOUS
 10
700.19815114418884
 20
466.91388054574361
 30
0.0
 40
14.999999999999989
 50
70.504307766945956
 51
89.976929697701195
  0
LINE
  5
CDE
  8
0
  6
CONTINUOUS
 10
705.20419093509906
 20
475.41387932977449
 30
0.0
 11
703.70419093509918
 21
473.91387932977449
 31
0.0
  0
LINE
  5
CDF
  8
0
  6
CONTINUOUS
 10
705.20419093509906
 20
476.91387932977449
 30
0.0
 11
705.20419093509906
 21
475.41387932977449
 31
0.0
  0
ARC
  5
CE0
  8
0
  6
CONTINUOUS
 10
700.19815114424409
 20
491.91387811380542
 30
0.0
 40
14.999999999999989
 50
270.02307030229929
 51
289.4956922330544
  0
LINE
  5
CE1
  8
0
  6
CONTINUOUS
 10
704.20419093509918
 20
476.91387932977449
 30
0.0
 11
704.20419093509918
 21
474.41387932977449
 31
0.0
  0
LINE
  5
CE2
  8
0
  6
CONTINUOUS
 10
705.20419093509906
 20
481.05387932975441
 30
0.0
 11
705.20419093509906
 21
477.77387932977513
 31
0.0
  0
LINE
  5
CE3
  8
0
  6
CONTINUOUS
 10
710.00419093504297
 20
481.01896016118297
 30
0.0
 11
708.45419093504381
 21
481.91387932977449
 31
0.0
  0
LINE
  5
CE4
  8
0
  6
CONTINUOUS
 10
710.00419093509845
 20
477.80879849836612
 30
0.0
 11
708.45419093509906
 21
476.91387932977449
 31
0.0
  0
LINE
  5
CE5
  8
0
  6
CONTINUOUS
 10
710.00419093509845
 20
481.01896016115109
 30
0.0
 11
710.00419093509845
 21
477.80879849836612
 31
0.0
  0
LINE
  5
CE6
  8
CENTER
  6
CENTER
 10
686.70419093510145
 20
521.41387932977455
 30
0.0
 11
686.70419093510145
 21
507.41387932977449
 31
0.0
  0
CIRCLE
  5
CE7
  8
0
  6
CONTINUOUS
 10
686.70419093510145
 20
514.41387932977455
 30
0.0
 40
3.399999999999999
  0
ARC
  5
CE8
  8
0
  6
CONTINUOUS
 10
686.70419093510145
 20
514.41387932977455
 30
0.0
 40
4.0
 50
65.677517025119315
 51
24.771420425728412
  0
LINE
  5
CE9
  8
CENTER
  6
CENTER
 10
679.70419093510145
 20
514.41387932977455
 30
0.0
 11
693.70419093510145
 21
514.41387932977455
 31
0.0
  0
LINE
  5
CEA
  8
0
 10
676.70419093510122
 20
554.41387932977455
 30
0.0
 11
595.70419093510145
 21
554.41387932977455
 31
0.0
  0
LINE
  5
CEB
  8
HIDDED
  6
HIDDEN
 10
563.70419093510134
 20
543.66387932977455
 30
0.0
 11
581.70419093510145
 21
543.66387932977455
 31
0.0
  0
LINE
  5
CEC
  8
HIDDED
  6
HIDDEN
 10
563.70419093510145
 20
551.66387932977455
 30
0.0
 11
581.70419093510145
 21
551.66387932977455
 31
0.0
  0
LINE
  5
CED
  8
0
 10
595.70419093510134
 20
556.91387932977477
 30
0.0
 11
563.70419093510134
 21
556.41387932977477
 31
0.0
  0
LINE
  5
CEE
  8
CENTER
  6
CENTER
 10
595.70419093510145
 20
547.66387932977455
 30
0.0
 11
560.70419093510145
 21
547.66387932977455
 31
0.0
  0
ARC
  5
CEF
  8
0
 10
559.70419093510134
 20
540.91387932977455
 30
0.0
 40
1.0
 50
90.0
 51
180.0
  0
LINE
  5
CF0
  8
0
 10
563.70419093510145
 20
541.91387932977455
 30
0.0
 11
559.70419093510134
 21
541.91387932977455
 31
0.0
  0
LINE
  5
CF1
  8
HIDDED
  6
HIDDEN
 10
569.70419093510145
 20
551.06387932977464
 30
0.0
 11
584.70419093510145
 21
551.06387932977464
 31
0.0
  0
LINE
  5
CF2
  8
HIDDED
  6
HIDDEN
 10
569.70419093510145
 20
544.26387932977468
 30
0.0
 11
584.70419093510145
 21
544.26387932977468
 31
0.0
  0
LINE
  5
CF3
  8
HIDDED
  6
HIDDEN
 10
569.70419093510145
 20
551.66387932977455
 30
0.0
 11
569.70419093510145
 21
543.66387932977455
 31
0.0
  0
LINE
  5
CF4
  8
HIDDED
  6
HIDDEN
 10
584.70419093510145
 20
544.26387932977468
 30
0.0
 11
586.66718185034608
 21
547.66387932977455
 31
0.0
  0
LINE
  5
CF5
  8
HIDDED
  6
HIDDEN
 10
581.70419093510145
 20
551.66387932977455
 30
0.0
 11
581.70419093510145
 21
543.66387932977455
 31
0.0
  0
LINE
  5
CF6
  8
HIDDED
  6
HIDDEN
 10
584.70419093510145
 20
551.06387932977464
 30
0.0
 11
584.70419093510145
 21
544.26387932977468
 31
0.0
  0
LINE
  5
CF7
  8
HIDDED
  6
HIDDEN
 10
584.70419093510145
 20
551.06387932977464
 30
0.0
 11
586.66718185034608
 21
547.66387932977455
 31
0.0
  0
SOLID
  5
CF8
  8
DIM
  6
CONTINUOUS
 10
815.20375437877715
 20
546.425694928138
 30
0.0
 11
816.20350885849291
 21
546.40353685311777
 31
0.0
 12
815.77010584369543
 22
549.41387932977466
 32
0.0
 13
815.77010584369543
 23
549.41387932977466
 33
0.0
  0
ARC
  5
CF9
  8
0
  6
CONTINUOUS
 10
686.70419093510145
 20
584.41387932977455
 30
0.0
 40
4.0
 50
65.677517025119315
 51
24.771420425728412
  0
CIRCLE
  5
CFA
  8
0
  6
CONTINUOUS
 10
686.70419093510145
 20
584.41387932977455
 30
0.0
 40
3.399999999999999
  0
LINE
  5
CFB
  8
CENTER
  6
CENTER
 10
686.70419093510145
 20
591.41387932977455
 30
0.0
 11
686.70419093510145
 21
577.41387932977455
 31
0.0
  0
CIRCLE
  5
CFC
  8
0
  6
CONTINUOUS
 10
698.01611376535186
 20
573.10195649952402
 30
0.0
 40
2.5
  0
ARC
  5
CFD
  8
0
  6
CONTINUOUS
 10
698.01611376535186
 20
573.10195649952402
 30
0.0
 40
3.0
 50
210.845012326004
 51
153.036401108983
  0
LINE
  5
CFE
  8
CENTER
  6
CENTER
 10
693.77347307823266
 20
577.34459718664334
 30
0.0
 11
702.25875445247129
 21
568.8593158124047
 31
0.0
  0
LINE
  5
CFF
  8
CENTER
  6
CENTER
 10
679.70419093510145
 20
584.41387932977455
 30
0.0
 11
693.70419093510145
 21
584.41387932977455
 31
0.0
  0
LINE
  5
D00
  8
DIM
  6
CONTINUOUS
 10
686.70419093510145
 20
592.41387932977455
 30
0.0
 11
686.70419093510145
 21
600.91387932977466
 31
0.0
  0
SOLID
  5
D01
  8
DIM
  6
CONTINUOUS
 10
689.70419093510145
 20
600.41387932977466
 30
0.0
 11
689.70419093510145
 21
599.41387932977466
 31
0.0
 12
686.70419093510145
 22
599.91387932977466
 32
0.0
 13
686.70419093510145
 23
599.91387932977466
 33
0.0
  0
TEXT
  5
D02
  8
DIM
  6
CONTINUOUS
 10
719.27561950653001
 20
601.41387932977466
 30
0.0
 40
3.0
  1
70
  7
ROMANSS
 72
     1
 11
721.70419093510145
 21
602.91387932977477
 31
0.0
 73
     2
  0
TEXT
  5
D03
  8
DIM
  6
CONTINUOUS
 10
938.45978000652678
 20
369.12661823476492
 30
0.0
 40
3.0
  1
56.5
 50
90.0
  7
ROMANSS
 72
     1
 11
936.9597800065269
 21
373.69804680619342
 31
0.0
 73
     2
  0
LINE
  5
D04
  8
DIM
  6
CONTINUOUS
 10
939.9597800065269
 20
348.44804680619347
 30
0.0
 11
939.9597800065269
 21
398.94804680619342
 31
0.0
  0
LINE
  5
D05
  8
DIM
  6
CONTINUOUS
 10
1073.9597800065269
 20
319.23081844512342
 30
0.0
 11
1073.9597800065269
 21
428.80968216612769
 31
0.0
  0
TEXT
  5
D06
  8
DIM
  6
CONTINUOUS
 10
891.20419093510145
 20
369.91233252047931
 30
0.0
 40
3.0
  1
%%c45
 50
90.0
  7
ROMANSS
 72
     1
 11
889.70419093510145
 21
373.69804680619347
 31
0.0
 73
     2
  0
LINE
  5
D07
  8
DIM
  6
CONTINUOUS
 10
892.70419093510145
 20
354.19804680619359
 30
0.0
 11
892.70419093510145
 21
393.19804680619359
 31
0.0
  0
LINE
  5
D08
  8
CENTER
  6
CENTER
 10
1023.459780006527
 20
424.6225440637823
 30
0.0
 11
1023.459780006527
 21
323.1980468061933
 31
0.0
  0
LINE
  5
D09
  8
0
 10
1065.9597800065269
 20
411.19804680619347
 30
0.0
 11
1065.9597800065269
 21
336.1980468061933
 31
0.0
  0
LINE
  5
D0A
  8
0
 10
955.9597800065269
 20
411.19804680619347
 30
0.0
 11
955.9597800065269
 21
336.1980468061933
 31
0.0
  0
LINE
  5
D0B
  8
0
 10
766.70419093510145
 20
411.19804680619347
 30
0.0
 11
766.70419093510145
 21
336.19804680619347
 31
0.0
  0
LINE
  5
D0C
  8
0
 10
1030.459780006526
 20
401.69804680619347
 30
0.0
 11
1030.459780006526
 21
345.69804680619342
 31
0.0
  0
LINE
  5
D0D
  8
0
 10
1030.959780006526
 20
401.69804680619347
 30
0.0
 11
1030.959780006526
 21
345.69804680619342
 31
0.0
  0
LINE
  5
D0E
  8
0
 10
1027.959780006526
 20
371.1980468061933
 30
0.0
 11
1027.959780006526
 21
355.36961422268553
 31
0.0
  0
LINE
  5
D0F
  8
0
 10
956.45978000652701
 20
401.69804680619347
 30
0.0
 11
956.45978000652701
 21
345.69804680619342
 31
0.0
  0
LINE
  5
D10
  8
0
 10
955.9597800065269
 20
401.69804680619347
 30
0.0
 11
955.9597800065269
 21
345.69804680619342
 31
0.0
  0
LINE
  5
D11
  8
0
 10
958.95978000652678
 20
371.19804680619342
 30
0.0
 11
958.95978000652678
 21
355.36961422268553
 31
0.0
  0
CIRCLE
  5
D12
  8
0
 10
993.4597800065269
 20
373.69804680619342
 30
0.0
 40
22.499999999999979
  0
CIRCLE
  5
D13
  8
0
 10
993.4597800065269
 20
373.69804680619342
 30
0.0
 40
22.999999999999979
  0
LINE
  5
D14
  8
CENTER
  6
CENTER
 10
854.70419093510145
 20
358.19804680619359
 30
0.0
 11
854.70419093510145
 21
371.19804680619347
 31
0.0
  0
LINE
  5
D15
  8
CENTER
  6
CENTER
 10
863.70419093510122
 20
368.19804680619359
 30
0.0
 11
863.70419093510145
 21
393.19804680619359
 31
0.0
  0
CIRCLE
  5
D16
  8
0
 10
863.70419093510145
 20
380.69804680619359
 30
0.0
 40
11.5
  0
LINE
  5
D17
  8
0
 10
847.70419093510122
 20
411.19804680619347
 30
0.0
 11
847.70419093510134
 21
336.19804680619347
 31
0.0
  0
LINE
  5
D18
  8
0
 10
884.70419093510145
 20
395.19804680619359
 30
0.0
 11
884.70419093510145
 21
352.19804680619347
 31
0.0
  0
LINE
  5
D19
  8
0
 10
879.70419093510122
 20
410.69804680619347
 30
0.0
 11
879.70419093510145
 21
336.69804680619347
 31
0.0
  0
LINE
  5
D1A
  8
0
 10
847.70419093510122
 20
408.69804680619359
 30
0.0
 11
847.70419093510122
 21
338.6980468061937
 31
0.0
  0
LINE
  5
D1B
  8
CENTER
  6
CENTER
 10
993.4597800065269
 20
414.19804680619347
 30
0.0
 11
993.4597800065269
 21
333.19804680619342
 31
0.0
  0
LINE
  5
D1C
  8
DIM
  6
CONTINUOUS
 10
958.95978000652678
 20
310.19804680619359
 30
0.0
 11
1027.959780006526
 21
310.19804680619359
 31
0.0
  0
LINE
  5
D1D
  8
DIM
  6
CONTINUOUS
 10
958.95978000652678
 20
302.19804680619347
 30
0.0
 11
1062.959780006526
 21
302.19804680619347
 31
0.0
  0
LINE
  5
D1E
  8
0
  6
CONTINUOUS
 10
955.9597800065269
 20
336.19804680619342
 30
0.0
 11
1065.9597800065269
 21
336.19804680619342
 31
0.0
  0
LINE
  5
D1F
  8
0
  6
CONTINUOUS
 10
982.4597800065269
 20
327.1980468061933
 30
0.0
 11
1064.459780006526
 21
327.1980468061933
 31
0.0
  0
LINE
  5
D20
  8
0
  6
CONTINUOUS
 10
983.4597800065269
 20
326.1980468061933
 30
0.0
 11
1063.459780006526
 21
326.1980468061933
 31
0.0
  0
LINE
  5
D21
  8
0
 10
995.9597800065269
 20
339.19804680619342
 30
0.0
 11
1011.788212590035
 21
339.19804680619342
 31
0.0
  0
LINE
  5
D22
  8
0
 10
965.4597800065269
 20
336.69804680619342
 30
0.0
 11
1021.459780006526
 21
336.69804680619342
 31
0.0
  0
LINE
  5
D23
  8
0
 10
766.70419093510145
 20
150.42902846355969
 30
0.0
 11
766.70419093510145
 21
260.42902846355992
 31
0.0
  0
LINE
  5
D24
  8
CENTER
  6
CENTER
 10
749.70419093510145
 20
157.9290284635598
 30
0.0
 11
763.70419093510145
 21
157.9290284635598
 31
0.0
  0
LINE
  5
D25
  8
CENTER
  6
CENTER
 10
756.70419093510145
 20
150.9290284635598
 30
0.0
 11
756.70419093510145
 21
164.9290284635598
 31
0.0
  0
ARC
  5
D26
  8
0
  6
CONTINUOUS
 10
756.70419093510145
 20
157.9290284635598
 30
0.0
 40
4.0
 50
245.22857957427121
 51
204.3224829748799
  0
CIRCLE
  5
D27
  8
0
  6
CONTINUOUS
 10
756.70419093510145
 20
157.9290284635598
 30
0.0
 40
3.399999999999999
  0
LINE
  5
D28
  8
0
 10
766.70419093510145
 20
187.9290284635598
 30
0.0
 11
847.70419093510122
 21
187.9290284635598
 31
0.0
  0
LINE
  5
D29
  8
0
 10
766.70419093510145
 20
257.9290284635598
 30
0.0
 11
847.70419093510122
 21
257.9290284635598
 31
0.0
  0
LINE
  5
D2A
  8
0
 10
766.70419093510145
 20
241.71913792213309
 30
0.0
 11
847.70419093510122
 21
241.71913792213309
 31
0.0
  0
LINE
  5
D2B
  8
0
 10
766.70419093510145
 20
204.13891900498629
 30
0.0
 11
847.70419093510122
 21
204.13891900498629
 31
0.0
  0
LINE
  5
D2C
  8
0
 10
766.70419093510145
 20
354.90793734762008
 30
0.0
 11
847.70419093510122
 21
354.90793734762008
 31
0.0
  0
LINE
  5
D2D
  8
0
 10
766.70419093510145
 20
338.69804680619347
 30
0.0
 11
847.70419093510122
 21
338.6980468061937
 31
0.0
  0
LINE
  5
D2E
  8
CENTER
  6
CENTER
 10
753.87782300040305
 20
171.4290284635598
 30
0.0
 11
778.47263140595328
 21
171.4290284635598
 31
0.0
  0
LINE
  5
D2F
  8
CENTER
  6
CENTER
 10
749.70419093510145
 20
227.92902846355989
 30
0.0
 11
763.70419093510145
 21
227.92902846355989
 31
0.0
  0
ARC
  5
D30
  8
0
  6
CONTINUOUS
 10
745.39226810485059
 20
216.61710563330919
 30
0.0
 40
3.0
 50
206.96359889101501
 51
149.15498767399501
  0
CIRCLE
  5
D31
  8
0
  6
CONTINUOUS
 10
745.39226810485059
 20
216.61710563330919
 30
0.0
 40
2.5
  0
LINE
  5
D32
  8
CENTER
  6
CENTER
 10
741.14962741773138
 20
212.3744649461899
 30
0.0
 11
749.63490879197002
 21
220.8597463204284
 31
0.0
  0
LINE
  5
D33
  8
CENTER
  6
CENTER
 10
756.70419093510145
 20
220.9290284635598
 30
0.0
 11
756.70419093510145
 21
234.92902846355989
 31
0.0
  0
ARC
  5
D34
  8
0
  6
CONTINUOUS
 10
756.70419093510145
 20
227.92902846355989
 30
0.0
 40
4.0
 50
335.22857957427448
 51
294.32248297488059
  0
CIRCLE
  5
D35
  8
0
  6
CONTINUOUS
 10
756.70419093510145
 20
227.92902846355989
 30
0.0
 40
3.399999999999999
  0
LINE
  5
D36
  8
DIM
  6
CONTINUOUS
 10
766.70419093510145
 20
335.19804680619359
 30
0.0
 11
766.70419093510145
 21
309.19804680619347
 31
0.0
  0
LINE
  5
D37
  8
DIM
  6
CONTINUOUS
 10
762.70419093510145
 20
326.19804680619347
 30
0.0
 11
762.70419093510145
 21
317.19804680619347
 31
0.0
  0
ARC
  5
D38
  8
0
  6
CONTINUOUS
 10
781.70418971913216
 20
171.43506825436859
 30
0.0
 40
14.999999999999989
 50
180.02307030229881
 51
199.495692233054
  0
LINE
  5
D39
  8
0
  6
CONTINUOUS
 10
773.20419093510145
 20
166.42902846345831
 30
0.0
 11
774.70419093510145
 21
167.92902846345839
 31
0.0
  0
ARC
  5
D3A
  8
0
  6
CONTINUOUS
 10
756.70419215107063
 20
171.43506825431319
 30
0.0
 40
14.999999999999989
 50
340.50430776694651
 51
359.97692969770151
  0
LINE
  5
D3B
  8
0
  6
CONTINUOUS
 10
773.20419093510145
 20
166.42902846345831
 30
0.0
 11
773.20419093510145
 21
176.42902846345839
 31
0.0
  0
LINE
  5
D3C
  8
0
  6
CONTINUOUS
 10
771.70419093510145
 20
163.17902846345831
 30
0.0
 11
771.70419093510145
 21
179.67902846345839
 31
0.0
  0
LINE
  5
D3D
  8
0
  6
CONTINUOUS
 10
773.20419093510145
 20
176.42902846345839
 30
0.0
 11
774.70419093510145
 21
174.92902846345831
 31
0.0
  0
ARC
  5
D3E
  8
0
  6
CONTINUOUS
 10
781.70418971913216
 20
171.42298867265859
 30
0.0
 40
14.999999999999989
 50
160.50430776694591
 51
179.97692969770111
  0
ARC
  5
D3F
  8
0
  6
CONTINUOUS
 10
756.70419215107063
 20
171.42298867260331
 30
0.0
 40
14.999999999999989
 50
0.0230703022992633
 51
19.495692233054459
  0
LINE
  5
D40
  8
0
  6
CONTINUOUS
 10
767.56419093508237
 20
176.4290284634582
 30
0.0
 11
770.84419093510087
 21
176.42902846345839
 31
0.0
  0
LINE
  5
D41
  8
0
  6
CONTINUOUS
 10
767.59911010366113
 20
181.22902846345761
 30
0.0
 11
770.80927176650994
 21
181.22902846345761
 31
0.0
  0
LINE
  5
D42
  8
0
  6
CONTINUOUS
 10
767.59911010369285
 20
181.22902846351289
 30
0.0
 11
766.70419093510145
 21
179.67902846351359
 31
0.0
  0
ARC
  5
D43
  8
0
  6
CONTINUOUS
 10
770.22596901849147
 20
178.73548767701101
 30
0.0
 40
3.5220472269320542
 50
150.79485584216229
 51
220.90927993347091
  0
LINE
  5
D44
  8
0
  6
CONTINUOUS
 10
771.70419093510145
 20
176.42902846345839
 30
0.0
 11
773.20419093510145
 21
176.42902846345839
 31
0.0
  0
ARC
  5
D45
  8
0
  6
CONTINUOUS
 10
768.18241285171143
 20
178.73548767695581
 30
0.0
 40
3.5220472269320542
 50
319.090720066529
 51
29.20514415783769
  0
LINE
  5
D46
  8
0
  6
CONTINUOUS
 10
770.80927176650994
 20
181.22902846345761
 30
0.0
 11
771.70419093510145
 21
179.67902846345839
 31
0.0
  0
LINE
  5
D47
  8
0
  6
CONTINUOUS
 10
771.70419093510145
 20
175.42902846345839
 30
0.0
 11
774.20419093510145
 21
175.42902846345839
 31
0.0
  0
LINE
  5
D48
  8
0
  6
CONTINUOUS
 10
774.70419093510145
 20
167.92902846345839
 30
0.0
 11
774.70419093510145
 21
174.92902846345831
 31
0.0
  0
LINE
  5
D49
  8
0
  6
CONTINUOUS
 10
767.59911010372502
 20
161.62902846345909
 30
0.0
 11
770.80927176650994
 21
161.62902846345909
 31
0.0
  0
LINE
  5
D4A
  8
0
  6
CONTINUOUS
 10
767.59911010369285
 20
161.62902846351429
 30
0.0
 11
766.70419093510145
 21
163.17902846351359
 31
0.0
  0
LINE
  5
D4B
  8
0
  6
CONTINUOUS
 10
770.80927176650994
 20
161.62902846345909
 30
0.0
 11
771.70419093510145
 21
163.17902846345831
 31
0.0
  0
LINE
  5
D4C
  8
0
  6
CONTINUOUS
 10
767.56419093512159
 20
166.4290284634582
 30
0.0
 11
770.84419093510087
 21
166.42902846345831
 31
0.0
  0
LINE
  5
D4D
  8
0
  6
CONTINUOUS
 10
771.70419093510145
 20
166.42902846345831
 30
0.0
 11
773.20419093510145
 21
166.42902846345831
 31
0.0
  0
LINE
  5
D4E
  8
0
  6
CONTINUOUS
 10
771.70419093510145
 20
167.42902846345831
 30
0.0
 11
774.20419093510145
 21
167.42902846345831
 31
0.0
  0
ARC
  5
D4F
  8
0
  6
CONTINUOUS
 10
770.22596901849147
 20
164.1225692500162
 30
0.0
 40
3.5220472269320542
 50
139.090720066529
 51
209.20514415783771
  0
ARC
  5
D50
  8
0
  6
CONTINUOUS
 10
768.18241285171143
 20
164.12256924996089
 30
0.0
 40
3.5220472269320542
 50
330.79485584216218
 51
40.909279933470948
  0
SOLID
  5
D51
  8
DIM
  6
CONTINUOUS
 10
759.70419093510145
 20
318.69804680619359
 30
0.0
 11
759.70419093510145
 21
317.69804680619347
 31
0.0
 12
762.70419093510145
 22
318.19804680619359
 32
0.0
 13
762.70419093510145
 23
318.19804680619359
 33
0.0
  0
SOLID
  5
D52
  8
DIM
  6
CONTINUOUS
 10
763.70419093510145
 20
310.69804680619347
 30
0.0
 11
763.70419093510145
 21
309.69804680619359
 31
0.0
 12
766.70419093510145
 22
310.19804680619359
 32
0.0
 13
766.70419093510145
 23
310.19804680619359
 33
0.0
  0
POLYLINE
  5
D53
  8
0
  6
CONTINUOUS
 66
     1
 10
0.0
 20
0.0
 30
0.0
 70
     1
  0
VERTEX
  5
13C7
  8
0
  6
CONTINUOUS
 10
1040.0597800065259
 20
362.6850957632808
 30
0.0
  0
VERTEX
  5
13C8
  8
0
  6
CONTINUOUS
 10
1035.1597800065269
 20
354.19804680619319
 30
0.0
  0
VERTEX
  5
13C9
  8
0
  6
CONTINUOUS
 10
1040.0597800065259
 20
345.71099784910558
 30
0.0
  0
VERTEX
  5
13CA
  8
0
  6
CONTINUOUS
 10
1049.8597800065261
 20
345.71099784910558
 30
0.0
  0
VERTEX
  5
13CB
  8
0
  6
CONTINUOUS
 10
1054.7597800065259
 20
354.19804680619319
 30
0.0
  0
VERTEX
  5
13CC
  8
0
  6
CONTINUOUS
 10
1049.8597800065261
 20
362.6850957632808
 30
0.0
  0
SEQEND
  5
13CD
  8
0
  6
CONTINUOUS
  0
CIRCLE
  5
D5B
  8
0
  6
CONTINUOUS
 10
1044.959780006526
 20
354.19804680619319
 30
0.0
 40
8.25
  0
LINE
  5
D5C
  8
CENTER
  6
CENTER
 10
1044.959780006526
 20
369.19804680619319
 30
0.0
 11
1044.959780006526
 21
339.19804680619319
 31
0.0
  0
LINE
  5
D5D
  8
CENTER
  6
CENTER
 10
756.70419093510111
 20
333.9178654434109
 30
0.0
 11
756.70419093510145
 21
351.0332276761585
 31
0.0
  0
LINE
  5
D5E
  8
0
 10
762.70419093510145
 20
336.19804680619347
 30
0.0
 11
762.70419093510145
 21
327.19804680619347
 31
0.0
  0
LINE
  5
D5F
  8
0
  6
CONTINUOUS
 10
762.70419093510145
 20
327.19804680619347
 30
0.0
 11
761.70419093510145
 21
326.19804680619347
 31
0.0
  0
CIRCLE
  5
D60
  8
0
  6
CONTINUOUS
 10
1044.959780006526
 20
354.19804680619319
 30
0.0
 40
5.0
  0
ARC
  5
D61
  8
0
  6
CONTINUOUS
 10
1044.959780006526
 20
354.19804680619319
 30
0.0
 40
4.25
 50
69.487813016515403
 51
22.414620147485479
  0
POLYLINE
  5
D62
  8
0
  6
CONTINUOUS
 66
     1
 10
0.0
 20
0.0
 30
0.0
 70
     1
  0
VERTEX
  5
13CE
  8
0
  6
CONTINUOUS
 10
1043.5164043335519
 20
356.69804680619319
 30
0.0
  0
VERTEX
  5
13CF
  8
0
  6
CONTINUOUS
 10
1042.0730286605781
 20
354.19804680619319
 30
0.0
  0
VERTEX
  5
13D0
  8
0
  6
CONTINUOUS
 10
1043.5164043335519
 20
351.69804680619319
 30
0.0
  0
VERTEX
  5
13D1
  8
0
  6
CONTINUOUS
 10
1046.4031556795001
 20
351.69804680619319
 30
0.0
  0
VERTEX
  5
13D2
  8
0
  6
CONTINUOUS
 10
1047.8465313524739
 20
354.19804680619319
 30
0.0
  0
VERTEX
  5
13D3
  8
0
  6
CONTINUOUS
 10
1046.4031556795001
 20
356.69804680619319
 30
0.0
  0
SEQEND
  5
13D4
  8
0
  6
CONTINUOUS
  0
LINE
  5
D6A
  8
0
 10
879.70419093510122
 20
185.92902846355969
 30
0.0
 11
879.70419093510145
 21
259.9290284635598
 31
0.0
  0
LINE
  5
D6B
  8
0
 10
847.70419093510122
 20
185.42902846355969
 30
0.0
 11
847.70419093510134
 21
260.42902846355969
 31
0.0
  0
LINE
  5
D6C
  8
0
 10
847.70419093510122
 20
187.92902846355969
 30
0.0
 11
847.70419093510122
 21
257.9290284635598
 31
0.0
  0
LINE
  5
D6D
  8
0
 10
884.70419093510145
 20
201.4290284635598
 30
0.0
 11
884.70419093510145
 21
244.42902846355989
 31
0.0
  0
LINE
  5
D6E
  8
0
 10
847.70419093510134
 20
185.42902846355969
 30
0.0
 11
879.70419093510145
 21
185.92902846355969
 31
0.0
  0
LINE
  5
D6F
  8
0
 10
879.70419093510122
 20
200.4290284635598
 30
0.0
 11
883.70419093510145
 21
200.4290284635598
 31
0.0
  0
ARC
  5
D70
  8
0
 10
883.70419093510145
 20
201.4290284635598
 30
0.0
 40
1.0
 50
270.0
 51
0.0
  0
LINE
  5
D71
  8
0
 10
879.70419093510145
 20
245.42902846355989
 30
0.0
 11
883.70419093510145
 21
245.42902846355989
 31
0.0
  0
ARC
  5
D72
  8
0
 10
883.70419093510145
 20
244.42902846355989
 30
0.0
 40
1.0
 50
0.0
 51
90.0
  0
LINE
  5
D73
  8
DIM
  6
CONTINUOUS
 10
884.70419093510145
 20
350.12032388200367
 30
0.0
 11
884.70419093510145
 21
301.19804680619347
 31
0.0
  0
LINE
  5
D74
  8
DIM
  6
CONTINUOUS
 10
879.70419093510145
 20
335.69804680619347
 30
0.0
 11
879.70419093510145
 21
301.19804680619347
 31
0.0
  0
LINE
  5
D75
  8
0
 10
847.70419093510134
 20
260.42902846355969
 30
0.0
 11
879.70419093510145
 21
259.9290284635598
 31
0.0
  0
SOLID
  5
D76
  8
DIM
  6
CONTINUOUS
 10
876.70419093510145
 20
302.69804680619347
 30
0.0
 11
876.70419093510145
 21
301.69804680619359
 31
0.0
 12
879.70419093510145
 22
302.19804680619347
 32
0.0
 13
879.70419093510145
 23
302.19804680619347
 33
0.0
  0
SOLID
  5
D77
  8
DIM
  6
CONTINUOUS
 10
887.70419093510145
 20
302.69804680619347
 30
0.0
 11
887.70419093510145
 21
301.69804680619359
 31
0.0
 12
884.70419093510145
 22
302.19804680619347
 32
0.0
 13
884.70419093510145
 23
302.19804680619347
 33
0.0
  0
TEXT
  5
D78
  8
DIM
  6
CONTINUOUS
 10
890.07944265517881
 20
303.69804680619359
 30
0.0
 40
3.0
  1
5
  7
ROMANSS
 72
     1
 11
891.07944265517881
 21
305.19804680619347
 31
0.0
 73
     2
  0
LINE
  5
D79
  8
0
 10
847.70419093510134
 20
336.19804680619347
 30
0.0
 11
879.70419093510145
 21
336.69804680619347
 31
0.0
  0
ARC
  5
D7A
  8
0
  6
CONTINUOUS
 10
854.70419093510145
 20
364.69804680619347
 30
0.0
 40
3.5
 50
38.213210701738312
 51
81.786789298261766
  0
ARC
  5
D7B
  8
0
  6
CONTINUOUS
 10
854.70419093510145
 20
364.69804680619347
 30
0.0
 40
3.5
 50
278.21321070173809
 51
321.78678929826162
  0
POLYLINE
  5
D7C
  8
0
  6
CONTINUOUS
 66
     1
 10
0.0
 20
0.0
 30
0.0
 70
     1
  0
VERTEX
  5
13D5
  8
0
  6
CONTINUOUS
 10
853.83816553131703
 20
366.19804680619359
 30
0.0
  0
VERTEX
  5
13D6
  8
0
  6
CONTINUOUS
 10
852.97214012753261
 20
364.69804680619347
 30
0.0
  0
VERTEX
  5
13D7
  8
0
  6
CONTINUOUS
 10
853.83816553131703
 20
363.19804680619347
 30
0.0
  0
VERTEX
  5
13D8
  8
0
  6
CONTINUOUS
 10
855.57021633888576
 20
363.19804680619347
 30
0.0
  0
VERTEX
  5
13D9
  8
0
  6
CONTINUOUS
 10
856.43624174267029
 20
364.69804680619347
 30
0.0
  0
VERTEX
  5
13DA
  8
0
  6
CONTINUOUS
 10
855.57021633888576
 20
366.19804680619359
 30
0.0
  0
SEQEND
  5
13DB
  8
0
  6
CONTINUOUS
  0
CIRCLE
  5
D84
  8
0
 10
854.70419093510145
 20
364.69804680619347
 30
0.0
 40
5.2999999999999989
  0
CIRCLE
  5
D85
  8
0
 10
854.70419093510145
 20
364.69804680619347
 30
0.0
 40
5.0
  0
CIRCLE
  5
D86
  8
0
  6
CONTINUOUS
 10
854.70419093510145
 20
364.69804680619347
 30
0.0
 40
2.5
  0
LINE
  5
D87
  8
CENTER
  6
CENTER
 10
848.20419093510088
 20
364.69804680619347
 30
0.0
 11
861.20419093510111
 21
364.69804680619347
 31
0.0
  0
LINE
  5
D88
  8
0
  6
CONTINUOUS
 10
854.20419093510145
 20
369.67298399172671
 30
0.0
 11
854.20419093510145
 21
368.16214842133132
 31
0.0
  0
LINE
  5
D89
  8
0
  6
CONTINUOUS
 10
855.20419093510145
 20
369.67298399172671
 30
0.0
 11
855.20419093510145
 21
368.16214842133132
 31
0.0
  0
LINE
  5
D8A
  8
0
  6
CONTINUOUS
 10
854.20419093510145
 20
361.23394519105591
 30
0.0
 11
854.20419093510145
 21
359.72310962066058
 31
0.0
  0
LINE
  5
D8B
  8
0
  6
CONTINUOUS
 10
855.20419093510145
 20
361.23394519105591
 30
0.0
 11
855.20419093510145
 21
359.72310962066058
 31
0.0
  0
LINE
  5
D8C
  8
0
  6
CONTINUOUS
 10
851.95419093510145
 20
366.86311031565458
 30
0.0
 11
850.64576895019775
 21
367.6185281008523
 31
0.0
  0
ARC
  5
D8D
  8
0
  6
CONTINUOUS
 10
854.70419093510145
 20
364.69804680619347
 30
0.0
 40
3.5
 50
158.21321070173769
 51
201.78678929826219
  0
LINE
  5
D8E
  8
0
  6
CONTINUOUS
 10
851.45419093510145
 20
365.99708491187022
 30
0.0
 11
850.14576895019786
 21
366.75250269706788
 31
0.0
  0
LINE
  5
D8F
  8
0
  6
CONTINUOUS
 10
850.64576895019775
 20
361.77756551153482
 30
0.0
 11
851.95419093510145
 21
362.5329832967326
 31
0.0
  0
LINE
  5
D90
  8
0
  6
CONTINUOUS
 10
850.14576895019786
 20
362.64359091531918
 30
0.0
 11
851.45419093510145
 21
363.3990087005169
 31
0.0
  0
ARC
  5
D91
  8
0
  6
CONTINUOUS
 10
854.70419093510145
 20
364.69804680619347
 30
0.0
 40
3.5
 50
98.213210701738234
 51
141.78678929826239
  0
ARC
  5
D92
  8
0
  6
CONTINUOUS
 10
854.70419093510145
 20
364.69804680619347
 30
0.0
 40
3.5
 50
218.21321070173829
 51
261.78678929826179
  0
ARC
  5
D93
  8
0
  6
CONTINUOUS
 10
854.70419093510145
 20
364.69804680619347
 30
0.0
 40
3.5
 50
338.21321070173769
 51
21.786789298260508
  0
LINE
  5
D94
  8
0
  6
CONTINUOUS
 10
857.45419093510145
 20
366.86311031565458
 30
0.0
 11
858.76261292000493
 21
367.6185281008523
 31
0.0
  0
LINE
  5
D95
  8
0
  6
CONTINUOUS
 10
857.95419093510145
 20
365.99708491187022
 30
0.0
 11
859.26261292000504
 21
366.75250269706788
 31
0.0
  0
LINE
  5
D96
  8
0
  6
CONTINUOUS
 10
858.76261292000493
 20
361.77756551153482
 30
0.0
 11
857.45419093510145
 21
362.5329832967326
 31
0.0
  0
LINE
  5
D97
  8
0
  6
CONTINUOUS
 10
859.26261292000504
 20
362.64359091531918
 30
0.0
 11
857.95419093510145
 21
363.3990087005169
 31
0.0
  0
LINE
  5
D98
  8
0
 10
879.70419093510145
 20
351.19804680619347
 30
0.0
 11
883.70419093510145
 21
351.19804680619342
 31
0.0
  0
LINE
  5
D99
  8
DIM
  6
CONTINUOUS
 10
885.32867877233639
 20
351.19804680619347
 30
0.0
 11
893.70419093510145
 21
351.19804680619347
 31
0.0
  0
ARC
  5
D9A
  8
0
 10
883.70419093510145
 20
352.19804680619347
 30
0.0
 40
1.0
 50
270.0
 51
0.0
  0
SOLID
  5
D9B
  8
DIM
  6
CONTINUOUS
 10
892.20419093510145
 20
354.19804680619359
 30
0.0
 11
893.20419093510134
 21
354.19804680619359
 31
0.0
 12
892.70419093510145
 22
351.19804680619347
 32
0.0
 13
892.70419093510145
 23
351.19804680619347
 33
0.0
  0
LINE
  5
D9C
  8
DIM
  6
CONTINUOUS
 10
955.9597800065269
 20
335.19804680619342
 30
0.0
 11
955.9597800065269
 21
301.19804680619347
 31
0.0
  0
LINE
  5
D9D
  8
DIM
  6
CONTINUOUS
 10
993.4597800065269
 20
332.19804680619342
 30
0.0
 11
993.4597800065269
 21
317.19804680619347
 31
0.0
  0
SOLID
  5
D9E
  8
DIM
  6
CONTINUOUS
 10
958.95978000652678
 20
310.69804680619347
 30
0.0
 11
958.95978000652678
 21
309.69804680619359
 31
0.0
 12
955.9597800065269
 22
310.19804680619359
 32
0.0
 13
955.9597800065269
 23
310.19804680619359
 33
0.0
  0
SOLID
  5
D9F
  8
DIM
  6
CONTINUOUS
 10
958.95978000652678
 20
302.69804680619347
 30
0.0
 11
958.95978000652678
 21
301.69804680619359
 31
0.0
 12
955.9597800065269
 22
302.19804680619347
 32
0.0
 13
955.9597800065269
 23
302.19804680619347
 33
0.0
  0
POLYLINE
  5
DA0
  8
DIM
  6
CONTINUOUS
 66
     1
 10
0.0
 20
0.0
 30
0.0
 70
     1
  0
VERTEX
  5
13DC
  8
DIM
  6
CONTINUOUS
 10
987.28691348424161
 20
314.2337446241084
 30
0.0
  0
VERTEX
  5
13DD
  8
DIM
  6
CONTINUOUS
 10
987.28691348424161
 20
311.58972356395498
 30
0.0
  0
VERTEX
  5
13DE
  8
DIM
  6
CONTINUOUS
 10
989.69228466814843
 20
311.58972356395498
 30
0.0
  0
VERTEX
  5
13DF
  8
DIM
  6
CONTINUOUS
 10
989.69228466814843
 20
314.2337446241084
 30
0.0
  0
SEQEND
  5
13E0
  8
DIM
  6
CONTINUOUS
  0
TEXT
  5
DA6
  8
DIM
  6
CONTINUOUS
 10
991.03120857795545
 20
311.69804680619347
 30
0.0
 40
3.0
  1
75
  7
ROMANSS
 72
     1
 11
993.4597800065269
 21
313.19804680619347
 31
0.0
 73
     2
  0
SOLID
  5
DA7
  8
DIM
  6
CONTINUOUS
 10
996.45978000652678
 20
318.69804680619359
 30
0.0
 11
996.45978000652678
 21
317.69804680619347
 31
0.0
 12
993.4597800065269
 22
318.19804680619359
 32
0.0
 13
993.4597800065269
 23
318.19804680619359
 33
0.0
  0
LINE
  5
DA8
  8
CENTER
  6
CENTER
 10
952.76848592318697
 20
364.69804680619347
 30
0.0
 11
976.43314334428464
 21
364.69804680619347
 31
0.0
  0
POLYLINE
  5
DA9
  8
0
  6
CONTINUOUS
 66
     1
 10
0.0
 20
0.0
 30
0.0
 70
     1
  0
VERTEX
  5
13E1
  8
0
  6
CONTINUOUS
 10
962.90037892976852
 20
349.44804680619342
 30
0.0
  0
VERTEX
  5
13E2
  8
0
  6
CONTINUOUS
 10
960.59097785300992
 20
345.44804680619342
 30
0.0
  0
VERTEX
  5
13E3
  8
0
  6
CONTINUOUS
 10
962.90037892976852
 20
341.44804680619342
 30
0.0
  0
VERTEX
  5
13E4
  8
0
  6
CONTINUOUS
 10
967.51918108328539
 20
341.44804680619342
 30
0.0
  0
VERTEX
  5
13E5
  8
0
  6
CONTINUOUS
 10
969.82858216004388
 20
345.44804680619342
 30
0.0
  0
VERTEX
  5
13E6
  8
0
  6
CONTINUOUS
 10
967.51918108328539
 20
349.44804680619342
 30
0.0
  0
SEQEND
  5
13E7
  8
0
  6
CONTINUOUS
  0
CIRCLE
  5
DB1
  8
0
  6
CONTINUOUS
 10
965.20978000652678
 20
345.44804680619342
 30
0.0
 40
3.399999999999999
  0
ARC
  5
DB2
  8
0
  6
CONTINUOUS
 10
965.20978000652678
 20
345.44804680619342
 30
0.0
 40
4.0
 50
57.77418116062497
 51
14.453881156675809
  0
CIRCLE
  5
DB3
  8
0
 10
965.20978000652678
 20
345.44804680619342
 30
0.0
 40
6.5
  0
LINE
  5
DB4
  8
0
 10
960.4597800065269
 20
368.19804680619342
 30
0.0
 11
969.61129997110334
 21
368.19804680619342
 31
0.0
  0
ARC
  5
DB5
  8
0
 10
965.20978000652678
 20
345.44804680619342
 30
0.0
 40
9.5
 50
59.477512185929669
 51
115.58300197738799
  0
LINE
  5
DB6
  8
CENTER
  6
CENTER
 10
957.7097800065269
 20
345.44804680619342
 30
0.0
 11
972.7097800065269
 21
345.44804680619342
 31
0.0
  0
ARC
  5
DB7
  8
0
  6
CONTINUOUS
 10
961.13200222875503
 20
349.94804680619359
 30
0.0
 40
10.19983357405331
 50
155.3752531507765
 51
204.6247468492239
  0
LINE
  5
DB8
  8
0
  6
CONTINUOUS
 10
950.95978000652678
 20
345.69804680619359
 30
0.0
 11
950.95978000652678
 21
362.69804680619347
 31
0.0
  0
ARC
  5
DB9
  8
0
  6
CONTINUOUS
 10
945.787557784299
 20
349.94804680619359
 30
0.0
 40
10.19983357405331
 50
335.37525315077852
 51
24.624746849221388
  0
SOLID
  5
DBA
  8
DIM
  6
CONTINUOUS
 10
939.45978000652678
 20
348.44804680619347
 30
0.0
 11
940.4597800065269
 21
348.44804680619347
 31
0.0
 12
939.9597800065269
 22
345.44804680619342
 32
0.0
 13
939.9597800065269
 23
345.44804680619342
 33
0.0
  0
LINE
  5
DBB
  8
CENTER
  6
CENTER
 10
965.20978000652678
 20
352.94804680619342
 30
0.0
 11
965.20978000652678
 21
337.94804680619347
 31
0.0
  0
LINE
  5
DBC
  8
0
  6
CONTINUOUS
 10
950.95978000652678
 20
345.69804680619359
 30
0.0
 11
955.9597800065269
 21
345.69804680619359
 31
0.0
  0
LINE
  5
DBD
  8
DIM
  6
CONTINUOUS
 10
956.7097800065269
 20
345.44804680619342
 30
0.0
 11
938.51663338358526
 21
345.44804680619342
 31
0.0
  0
ARC
  5
DBE
  8
0
 10
965.4597800065269
 20
345.69804680619342
 30
0.0
 40
9.0
 50
180.0
 51
270.0
  0
ARC
  5
DBF
  8
0
 10
965.4597800065269
 20
345.69804680619342
 30
0.0
 40
9.5
 50
180.0
 51
270.0
  0
LINE
  5
DC0
  8
CENTER
  6
CENTER
 10
967.09679983482613
 20
354.19804680619359
 30
0.0
 11
944.9597800065269
 21
354.19804680619359
 31
0.0
  0
ARC
  5
DC1
  8
0
  6
CONTINUOUS
 10
961.13200222875503
 20
358.44804680619347
 30
0.0
 40
10.19983357405331
 50
155.3752531507765
 51
204.6247468492239
  0
LINE
  5
DC2
  8
0
  6
CONTINUOUS
 10
950.95978000652678
 20
362.69804680619347
 30
0.0
 11
955.9597800065269
 21
362.69804680619347
 31
0.0
  0
LINE
  5
DC3
  8
0
  6
CONTINUOUS
 10
949.4597800065269
 20
359.19804680619347
 30
0.0
 11
947.9597800065269
 21
357.69804680619359
 31
0.0
  0
LINE
  5
DC4
  8
0
  6
CONTINUOUS
 10
949.4597800065269
 20
349.19804680619347
 30
0.0
 11
949.4597800065269
 21
359.19804680619347
 31
0.0
  0
LINE
  5
DC5
  8
0
  6
CONTINUOUS
 10
949.4597800065269
 20
349.19804680619347
 30
0.0
 11
947.9597800065269
 21
350.69804680619347
 31
0.0
  0
LINE
  5
DC6
  8
0
  6
CONTINUOUS
 10
950.95978000652678
 20
350.19804680619347
 30
0.0
 11
948.4597800065269
 21
350.19804680619347
 31
0.0
  0
LINE
  5
DC7
  8
0
  6
CONTINUOUS
 10
950.95978000652678
 20
358.19804680619359
 30
0.0
 11
948.4597800065269
 21
358.19804680619359
 31
0.0
  0
LINE
  5
DC8
  8
0
  6
CONTINUOUS
 10
950.95978000652678
 20
349.19804680619347
 30
0.0
 11
949.4597800065269
 21
349.19804680619347
 31
0.0
  0
LINE
  5
DC9
  8
0
  6
CONTINUOUS
 10
947.9597800065269
 20
350.69804680619347
 30
0.0
 11
947.9597800065269
 21
357.69804680619359
 31
0.0
  0
POLYLINE
  5
DCA
  8
DIM
  6
CONTINUOUS
 66
     1
 10
0.0
 20
0.0
 30
0.0
 70
     1
  0
VERTEX
  5
13E8
  8
DIM
  6
CONTINUOUS
 10
935.74970114078576
 20
368.31599759349513
 30
0.0
  0
VERTEX
  5
13E9
  8
DIM
  6
CONTINUOUS
 10
935.74970114078576
 20
365.67197653334171
 30
0.0
  0
VERTEX
  5
13EA
  8
DIM
  6
CONTINUOUS
 10
938.1550723246927
 20
365.67197653334171
 30
0.0
  0
VERTEX
  5
13EB
  8
DIM
  6
CONTINUOUS
 10
938.1550723246927
 20
368.31599759349513
 30
0.0
  0
SEQEND
  5
13EC
  8
DIM
  6
CONTINUOUS
  0
LINE
  5
DD0
  8
0
  6
CONTINUOUS
 10
950.95978000652678
 20
359.19804680619347
 30
0.0
 11
949.4597800065269
 21
359.19804680619347
 31
0.0
  0
ARC
  5
DD1
  8
0
  6
CONTINUOUS
 10
945.787557784299
 20
358.44804680619359
 30
0.0
 40
10.19983357405331
 50
335.37525315077852
 51
24.624746849221388
  0
ARC
  5
DD2
  8
0
 10
960.4597800065269
 20
355.36961422268553
 30
0.0
 40
1.5
 50
180.0
 51
295.58300197742682
  0
LINE
  5
DD3
  8
0
 10
955.9597800065269
 20
348.69804680619342
 30
0.0
 11
956.45978000652701
 21
348.69804680619342
 31
0.0
  0
ARC
  5
DD4
  8
0
 10
960.4597800065269
 20
366.69804680619342
 30
0.0
 40
1.5
 50
90.0
 51
180.0
  0
LINE
  5
DD5
  8
CENTER
  6
CENTER
 10
988.45978000652678
 20
333.91786544341068
 30
0.0
 11
988.45978000652678
 21
347.91786544341068
 31
0.0
  0
LINE
  5
DD6
  8
0
 10
994.4597800065269
 20
340.69804680619342
 30
0.0
 11
994.4597800065269
 21
349.3259315922856
 31
0.0
  0
LINE
  5
DD7
  8
0
 10
983.4597800065269
 20
340.69804680619342
 30
0.0
 11
983.4597800065269
 21
352.06473915340962
 31
0.0
  0
LINE
  5
DD8
  8
0
 10
992.4597800065269
 20
340.69804680619342
 30
0.0
 11
992.4597800065269
 21
349.3259315922856
 31
0.0
  0
ARC
  5
DD9
  8
0
 10
965.20978000652678
 20
345.44804680619342
 30
0.0
 40
9.5
 50
334.41699802261212
 51
30.52248781406956
  0
LINE
  5
DDA
  8
0
 10
990.95978000652678
 20
339.19804680619342
 30
0.0
 11
975.13134742301895
 21
339.19804680619342
 31
0.0
  0
LINE
  5
DDB
  8
0
 10
982.4597800065269
 20
327.1980468061933
 30
0.0
 11
982.4597800065269
 21
336.19804680619342
 31
0.0
  0
LINE
  5
DDC
  8
0
  6
CONTINUOUS
 10
983.4597800065269
 20
326.1980468061933
 30
0.0
 11
982.4597800065269
 21
327.1980468061933
 31
0.0
  0
ARC
  5
DDD
  8
0
 10
975.13134742301895
 20
340.69804680619342
 30
0.0
 40
1.5
 50
154.4169980225779
 51
270.0
  0
ARC
  5
DDE
  8
0
 10
981.9597800065269
 20
340.69804680619342
 30
0.0
 40
1.5
 50
270.0
 51
0.0
  0
ARC
  5
DDF
  8
0
 10
990.95978000652678
 20
340.69804680619342
 30
0.0
 40
1.5
 50
270.0
 51
0.0
  0
ARC
  5
DE0
  8
0
 10
995.9597800065269
 20
340.69804680619342
 30
0.0
 40
1.5
 50
180.0
 51
270.0
  0
ARC
  5
DE1
  8
0
 10
974.30059869144111
 20
358.4279527876335
 30
0.0
 40
1.5
 50
314.99999999999687
 51
38.555259660229609
  0
LINE
  5
DE2
  8
0
 10
977.1290258161871
 20
355.5995256628874
 30
0.0
 11
973.62484864870612
 21
352.0953484954062
 31
0.0
  0
ARC
  5
DE3
  8
0
 10
974.68550882048578
 20
351.03468832362643
 30
0.0
 40
1.5
 50
134.99999999999841
 51
210.52248781406951
  0
ARC
  5
DE4
  8
0
 10
970.79642152395991
 20
354.92377562015241
 30
0.0
 40
1.5
 50
239.47751218593231
 51
314.99999999999687
  0
LINE
  5
DE5
  8
0
 10
975.36125886322077
 20
357.36729261585361
 30
0.0
 11
971.85708169573968
 21
353.86311544837253
 31
0.0
  0
ARC
  5
DE6
  8
0
 10
981.9597800065269
 20
352.06473915340962
 30
0.0
 40
1.5
 50
0.0
 51
62.005438267749533
  0
ARC
  5
DE7
  8
0
 10
978.18968598796687
 20
354.53886549110752
 30
0.0
 40
1.5
 50
51.444740339770391
 51
134.99999999999841
  0
ARC
  5
DE8
  8
0
 10
969.61129997110334
 20
366.19804680619342
 30
0.0
 40
2.0
 50
17.457603123722262
 51
90.0
  0
ARC
  5
DE9
  8
0
 10
990.95978000652678
 20
349.3259315922856
 30
0.0
 40
1.5
 50
0.0
 51
84.143298090078574
  0
ARC
  5
DEA
  8
0
 10
995.9597800065269
 20
349.3259315922856
 30
0.0
 40
1.5
 50
95.856701909921412
 51
180.0
  0
LINE
  5
DEB
  8
DIM
  6
CONTINUOUS
 10
1064.459780006526
 20
326.1980468061933
 30
0.0
 11
1082.9597800065269
 21
326.1980468061933
 31
0.0
  0
LINE
  5
DEC
  8
DIM
  6
CONTINUOUS
 10
1030.959780006526
 20
342.55480335195517
 30
0.0
 11
1030.959780006526
 21
319.88060539520791
 31
0.0
  0
LINE
  5
DED
  8
DIM
  6
CONTINUOUS
 10
1065.9597800065269
 20
335.19804680619342
 30
0.0
 11
1065.9597800065269
 21
301.19804680619347
 31
0.0
  0
LINE
  5
DEE
  8
DIM
  6
CONTINUOUS
 10
993.45978000652667
 20
318.19804680619359
 30
0.0
 11
1062.959780006526
 21
318.19804680619359
 31
0.0
  0
TEXT
  5
DEF
  8
DIM
  6
CONTINUOUS
 10
1007.674065720812
 20
303.69804680619359
 30
0.0
 40
3.0
  1
110
  7
ROMANSS
 72
     1
 11
1010.959780006527
 21
305.19804680619347
 31
0.0
 73
     2
  0
TEXT
  5
DF0
  8
DIM
  6
CONTINUOUS
 10
1006.031208577955
 20
319.69804680619347
 30
0.0
 40
3.0
  1
30
  7
ROMANSS
 72
     1
 11
1008.459780006526
 21
321.19804680619347
 31
0.0
 73
     2
  0
LINE
  5
DF1
  8
DIM
  6
CONTINUOUS
 10
1030.959780006526
 20
316.27512186391527
 30
0.0
 11
1030.959780006526
 21
309.19804680619347
 31
0.0
  0
SOLID
  5
DF2
  8
DIM
  6
CONTINUOUS
 10
1027.959780006526
 20
310.69804680619347
 30
0.0
 11
1027.959780006526
 21
309.69804680619359
 31
0.0
 12
1030.959780006526
 22
310.19804680619359
 32
0.0
 13
1030.959780006526
 23
310.19804680619359
 33
0.0
  0
SOLID
  5
DF3
  8
DIM
  6
CONTINUOUS
 10
1026.459780006526
 20
318.69804680619359
 30
0.0
 11
1026.459780006526
 21
317.69804680619347
 31
0.0
 12
1023.459780006527
 22
318.19804680619359
 32
0.0
 13
1023.459780006527
 23
318.19804680619359
 33
0.0
  0
LINE
  5
DF4
  8
DIM
  6
CONTINUOUS
 10
1023.459780006527
 20
322.1980468061933
 30
0.0
 11
1023.459780006527
 21
317.19804680619347
 31
0.0
  0
SOLID
  5
DF5
  8
DIM
  6
CONTINUOUS
 10
1020.459780006526
 20
318.69804680619359
 30
0.0
 11
1020.459780006526
 21
317.69804680619347
 31
0.0
 12
1023.459780006527
 22
318.19804680619359
 32
0.0
 13
1023.459780006527
 23
318.19804680619359
 33
0.0
  0
LINE
  5
DF6
  8
DIM
  6
CONTINUOUS
 10
1023.459780006527
 20
322.1980468061933
 30
0.0
 11
1023.459780006527
 21
317.19804680619347
 31
0.0
  0
TEXT
  5
DF7
  8
DIM
  6
CONTINUOUS
 10
1040.138351435098
 20
319.69804680619347
 30
0.0
 40
3.0
  1
42.5
  7
ROMANSS
 72
     1
 11
1044.709780006526
 21
321.19804680619347
 31
0.0
 73
     2
  0
SOLID
  5
DF8
  8
DIM
  6
CONTINUOUS
 10
1062.959780006526
 20
302.69804680619347
 30
0.0
 11
1062.959780006526
 21
301.69804680619359
 31
0.0
 12
1065.9597800065269
 22
302.19804680619347
 32
0.0
 13
1065.9597800065269
 23
302.19804680619347
 33
0.0
  0
SOLID
  5
DF9
  8
DIM
  6
CONTINUOUS
 10
1062.959780006526
 20
318.69804680619359
 30
0.0
 11
1062.959780006526
 21
317.69804680619347
 31
0.0
 12
1065.9597800065269
 22
318.19804680619359
 32
0.0
 13
1065.9597800065269
 23
318.19804680619359
 33
0.0
  0
POLYLINE
  5
DFA
  8
0
  6
CONTINUOUS
 66
     1
 10
0.0
 20
0.0
 30
0.0
 70
     1
  0
VERTEX
  5
13ED
  8
0
  6
CONTINUOUS
 10
1019.400378929768
 20
349.44804680619342
 30
0.0
  0
VERTEX
  5
13EE
  8
0
  6
CONTINUOUS
 10
1017.090977853009
 20
345.44804680619342
 30
0.0
  0
VERTEX
  5
13EF
  8
0
  6
CONTINUOUS
 10
1019.400378929768
 20
341.44804680619342
 30
0.0
  0
VERTEX
  5
13F0
  8
0
  6
CONTINUOUS
 10
1024.019181083285
 20
341.44804680619342
 30
0.0
  0
VERTEX
  5
13F1
  8
0
  6
CONTINUOUS
 10
1026.328582160043
 20
345.44804680619342
 30
0.0
  0
VERTEX
  5
13F2
  8
0
  6
CONTINUOUS
 10
1024.019181083285
 20
349.44804680619342
 30
0.0
  0
SEQEND
  5
13F3
  8
0
  6
CONTINUOUS
  0
CIRCLE
  5
E02
  8
0
  6
CONTINUOUS
 10
1021.709780006527
 20
345.44804680619342
 30
0.0
 40
3.399999999999999
  0
ARC
  5
E03
  8
0
  6
CONTINUOUS
 10
1021.709780006527
 20
345.44804680619342
 30
0.0
 40
4.0
 50
57.77418116062497
 51
14.453881156675809
  0
CIRCLE
  5
E04
  8
0
 10
1021.709780006527
 20
345.44804680619342
 30
0.0
 40
6.5
  0
ARC
  5
E05
  8
0
 10
1021.709780006527
 20
345.44804680619342
 30
0.0
 40
9.5
 50
149.4775121859295
 51
205.58300197738259
  0
LINE
  5
E06
  8
CENTER
  6
CENTER
 10
1021.709780006527
 20
352.94804680619342
 30
0.0
 11
1021.709780006527
 21
337.94804680619347
 31
0.0
  0
LINE
  5
E07
  8
0
 10
1003.459780006527
 20
340.69804680619342
 30
0.0
 11
1003.459780006527
 21
352.06473915340962
 31
0.0
  0
LINE
  5
E08
  8
CENTER
  6
CENTER
 10
1014.209780006526
 20
345.44804680619342
 30
0.0
 11
1029.209780006526
 21
345.44804680619342
 31
0.0
  0
ARC
  5
E09
  8
0
 10
1004.959780006527
 20
340.69804680619342
 30
0.0
 40
1.5
 50
180.0
 51
270.0
  0
ARC
  5
E0A
  8
0
 10
1011.788212590035
 20
340.69804680619342
 30
0.0
 40
1.5
 50
270.0
 51
25.58300197741622
  0
ARC
  5
E0B
  8
0
 10
1021.459780006526
 20
345.69804680619342
 30
0.0
 40
9.0
 50
270.0
 51
0.0
  0
ARC
  5
E0C
  8
0
 10
1021.459780006526
 20
345.69804680619342
 30
0.0
 40
9.5
 50
270.0
 51
0.0
  0
LINE
  5
E0D
  8
0
 10
1026.459780006526
 20
363.6980468061933
 30
0.0
 11
1015.09308765931
 21
363.6980468061933
 31
0.0
  0
ARC
  5
E0E
  8
0
 10
1021.709780006527
 20
345.44804680619342
 30
0.0
 40
9.5
 50
64.416998022605981
 51
120.5224878140703
  0
ARC
  5
E0F
  8
0
 10
1012.618961321612
 20
358.42795278763339
 30
0.0
 40
1.5
 50
141.44474033977031
 51
225.00000000000301
  0
ARC
  5
E10
  8
0
 10
1008.729874025086
 20
354.53886549110752
 30
0.0
 40
1.5
 50
45.000000000001521
 51
128.55525966022961
  0
ARC
  5
E11
  8
0
 10
1004.959780006527
 20
352.06473915340962
 30
0.0
 40
1.5
 50
117.9945617322504
 51
180.0
  0
ARC
  5
E12
  8
0
 10
1016.123138489094
 20
354.9237756201523
 30
0.0
 40
1.5
 50
225.00000000000301
 51
300.52248781406757
  0
ARC
  5
E13
  8
0
 10
1012.234051192568
 20
351.03468832362643
 30
0.0
 40
1.5
 50
329.47751218593049
 51
45.000000000001521
  0
LINE
  5
E14
  8
0
 10
1009.790534196866
 20
355.5995256628874
 30
0.0
 11
1013.294711364348
 21
352.0953484954062
 31
0.0
  0
LINE
  5
E15
  8
0
 10
1011.558301149832
 20
357.36729261585361
 30
0.0
 11
1015.062478317314
 21
353.86311544837253
 31
0.0
  0
ARC
  5
E16
  8
0
 10
1015.09308765931
 20
362.1980468061933
 30
0.0
 40
1.5
 50
90.0
 51
152.0054382677456
  0
ARC
  5
E17
  8
0
 10
1026.459780006526
 20
355.36961422268553
 30
0.0
 40
1.5
 50
244.4169980225731
 51
0.0
  0
ARC
  5
E18
  8
0
 10
1026.459780006526
 20
362.1980468061933
 30
0.0
 40
1.5
 50
0.0
 51
90.0
  0
LINE
  5
E19
  8
CENTER
  6
CENTER
 10
1058.459780006526
 20
333.91786544341079
 30
0.0
 11
1058.459780006526
 21
347.91786544341079
 31
0.0
  0
LINE
  5
E1A
  8
0
 10
1064.459780006526
 20
327.1980468061933
 30
0.0
 11
1064.459780006526
 21
336.19804680619342
 31
0.0
  0
LINE
  5
E1B
  8
0
  6
CONTINUOUS
 10
1063.459780006526
 20
326.1980468061933
 30
0.0
 11
1064.459780006526
 21
327.1980468061933
 31
0.0
  0
SOLID
  5
E1C
  8
DIM
  6
CONTINUOUS
 10
1073.4597800065269
 20
323.1980468061933
 30
0.0
 11
1074.4597800065269
 21
323.1980468061933
 31
0.0
 12
1073.9597800065269
 22
326.1980468061933
 32
0.0
 13
1073.9597800065269
 23
326.1980468061933
 33
0.0
  0
TEXT
  5
E1D
  8
DIM
  6
CONTINUOUS
 10
1072.4597800065269
 20
329.04728573134997
 30
0.0
 40
3.0
  1
10
 50
90.0
  7
ROMANSS
 72
     1
 11
1070.9597800065269
 21
331.1901428742072
 31
0.0
 73
     2
  0
SOLID
  5
E1E
  8
DIM
  6
CONTINUOUS
 10
1081.4597800065269
 20
329.1980468061933
 30
0.0
 11
1082.4597800065269
 21
329.1980468061933
 31
0.0
 12
1081.9597800065269
 22
326.1980468061933
 32
0.0
 13
1081.9597800065269
 23
326.1980468061933
 33
0.0
  0
LINE
  5
E1F
  8
DIM
  6
CONTINUOUS
 10
1066.959780006526
 20
336.1980468061933
 30
0.0
 11
1074.9597800065269
 21
336.1980468061933
 31
0.0
  0
SOLID
  5
E20
  8
DIM
  6
CONTINUOUS
 10
1073.4597800065269
 20
339.1980468061933
 30
0.0
 11
1074.4597800065269
 21
339.1980468061933
 31
0.0
 12
1073.9597800065269
 22
336.1980468061933
 32
0.0
 13
1073.9597800065269
 23
336.1980468061933
 33
0.0
  0
LINE
  5
E21
  8
0
  6
CONTINUOUS
 10
955.9597800065269
 20
411.19804680619347
 30
0.0
 11
1065.9597800065269
 21
411.19804680619347
 31
0.0
  0
LINE
  5
E22
  8
0
  6
CONTINUOUS
 10
983.4597800065269
 20
421.19804680619359
 30
0.0
 11
1063.459780006526
 21
421.19804680619359
 31
0.0
  0
LINE
  5
E23
  8
0
  6
CONTINUOUS
 10
982.4597800065269
 20
420.19804680619347
 30
0.0
 11
1064.459780006526
 21
420.19804680619347
 31
0.0
  0
LINE
  5
E24
  8
0
 10
995.9597800065269
 20
408.19804680619342
 30
0.0
 11
1011.788212590035
 21
408.19804680619342
 31
0.0
  0
LINE
  5
E25
  8
0
 10
965.4597800065269
 20
410.69804680619347
 30
0.0
 11
1021.459780006526
 21
410.69804680619347
 31
0.0
  0
LINE
  5
E26
  8
CENTER
  6
CENTER
 10
952.9597800065269
 20
373.69804680619347
 30
0.0
 11
1068.9597800065269
 21
373.69804680619342
 31
0.0
  0
LINE
  5
E27
  8
0
 10
766.70419093510145
 20
591.91387932977466
 30
0.0
 11
766.70419093510145
 21
481.91387932977449
 31
0.0
  0
LINE
  5
E28
  8
0
 10
847.70419093510122
 20
556.91387932977477
 30
0.0
 11
847.70419093510134
 21
481.91387932977477
 31
0.0
  0
LINE
  5
E29
  8
0
 10
884.70419093510145
 20
540.91387932977455
 30
0.0
 11
884.70419093510145
 21
497.91387932977449
 31
0.0
  0
LINE
  5
E2A
  8
0
 10
879.70419093510122
 20
556.41387932977477
 30
0.0
 11
879.70419093510145
 21
482.41387932977472
 31
0.0
  0
LINE
  5
E2B
  8
0
 10
847.70419093510122
 20
554.41387932977466
 30
0.0
 11
847.70419093510122
 21
484.41387932977472
 31
0.0
  0
LINE
  5
E2C
  8
0
 10
766.70419093510145
 20
538.20398878834817
 30
0.0
 11
847.70419093510122
 21
538.20398878834817
 31
0.0
  0
LINE
  5
E2D
  8
0
 10
766.70419093510145
 20
500.62376987120138
 30
0.0
 11
847.70419093510122
 21
500.62376987120138
 31
0.0
  0
LINE
  5
E2E
  8
0
 10
766.70419093510145
 20
484.41387932977472
 30
0.0
 11
847.70419093510122
 21
484.41387932977472
 31
0.0
  0
LINE
  5
E2F
  8
0
 10
766.70419093510145
 20
392.48815626476693
 30
0.0
 11
847.70419093510122
 21
392.48815626476693
 31
0.0
  0
LINE
  5
E30
  8
0
 10
766.70419093510145
 20
408.69804680619359
 30
0.0
 11
847.70419093510122
 21
408.69804680619359
 31
0.0
  0
LINE
  5
E31
  8
0
 10
762.70419093510145
 20
420.19804680619347
 30
0.0
 11
762.70419093510145
 21
411.19804680619347
 31
0.0
  0
LINE
  5
E32
  8
CENTER
  6
CENTER
 10
756.70419093510145
 20
413.47822816897622
 30
0.0
 11
756.70419093510145
 21
395.4644787973167
 31
0.0
  0
LINE
  5
E33
  8
0
  6
CONTINUOUS
 10
761.70419093510145
 20
421.19804680619359
 30
0.0
 11
762.70419093510145
 21
420.19804680619347
 31
0.0
  0
LINE
  5
E34
  8
CENTER
  6
CENTER
 10
753.87782300040305
 20
570.91387932977455
 30
0.0
 11
778.47263140595317
 21
570.91387932977455
 31
0.0
  0
SOLID
  5
E35
  8
DIM
  6
CONTINUOUS
 10
731.20419093510145
 20
529.4281631578408
 30
0.0
 11
731.20419093510145
 21
528.4281631578408
 31
0.0
 12
734.20419093510145
 22
528.9281631578408
 32
0.0
 13
734.20419093510145
 23
528.9281631578408
 33
0.0
  0
ARC
  5
E36
  8
0
  6
CONTINUOUS
 10
781.70418971913205
 20
570.90783953901769
 30
0.0
 40
14.999999999999989
 50
160.50430776694631
 51
179.97692969770159
  0
ARC
  5
E37
  8
0
  6
CONTINUOUS
 10
756.70419215107052
 20
570.90783953907294
 30
0.0
 40
14.999999999999989
 50
0.023070302298829
 51
19.495692233054051
  0
LINE
  5
E38
  8
0
  6
CONTINUOUS
 10
773.20419093510134
 20
575.91387932992779
 30
0.0
 11
774.70419093510134
 21
574.41387932992791
 31
0.0
  0
LINE
  5
E39
  8
0
  6
CONTINUOUS
 10
773.20419093510134
 20
575.91387932992779
 30
0.0
 11
773.20419093510134
 21
565.91387932992779
 31
0.0
  0
LINE
  5
E3A
  8
0
  6
CONTINUOUS
 10
771.70419093510134
 20
579.16387932992791
 30
0.0
 11
771.70419093510134
 21
562.66387932992768
 31
0.0
  0
LINE
  5
E3B
  8
0
  6
CONTINUOUS
 10
773.20419093510134
 20
565.91387932992791
 30
0.0
 11
774.70419093510134
 21
567.41387932992779
 31
0.0
  0
ARC
  5
E3C
  8
0
  6
CONTINUOUS
 10
781.70418971913205
 20
570.91991912072763
 30
0.0
 40
14.999999999999989
 50
180.0230703022992
 51
199.4956922330544
  0
ARC
  5
E3D
  8
0
  6
CONTINUOUS
 10
756.70419215107052
 20
570.91991912078288
 30
0.0
 40
14.999999999999989
 50
340.50430776694589
 51
359.97692969770111
  0
LINE
  5
E3E
  8
0
  6
CONTINUOUS
 10
767.56419093508225
 20
565.91387932992802
 30
0.0
 11
770.84419093510076
 21
565.91387932992791
 31
0.0
  0
LINE
  5
E3F
  8
0
  6
CONTINUOUS
 10
767.59911010366079
 20
561.11387932992864
 30
0.0
 11
770.80927176650982
 21
561.11387932992864
 31
0.0
  0
LINE
  5
E40
  8
0
  6
CONTINUOUS
 10
767.59911010369285
 20
561.11387932987316
 30
0.0
 11
766.70419093510134
 21
562.66387932987254
 31
0.0
  0
ARC
  5
E41
  8
0
  6
CONTINUOUS
 10
770.22596901849136
 20
563.60742011637512
 30
0.0
 40
3.5220472269320542
 50
139.090720066529
 51
209.20514415783671
  0
LINE
  5
E42
  8
0
  6
CONTINUOUS
 10
771.70419093510134
 20
565.91387932992791
 30
0.0
 11
773.20419093510134
 21
565.91387932992791
 31
0.0
  0
ARC
  5
E43
  8
0
  6
CONTINUOUS
 10
768.18241285171132
 20
563.60742011643038
 30
0.0
 40
3.5220472269320542
 50
330.7948558421632
 51
40.909279933470948
  0
LINE
  5
E44
  8
0
  6
CONTINUOUS
 10
770.80927176650982
 20
561.11387932992864
 30
0.0
 11
771.70419093510134
 21
562.66387932992791
 31
0.0
  0
LINE
  5
E45
  8
0
  6
CONTINUOUS
 10
771.70419093510134
 20
566.91387932992779
 30
0.0
 11
774.20419093510134
 21
566.91387932992779
 31
0.0
  0
LINE
  5
E46
  8
0
  6
CONTINUOUS
 10
774.70419093510134
 20
574.41387932992791
 30
0.0
 11
774.70419093510134
 21
567.41387932992768
 31
0.0
  0
LINE
  5
E47
  8
0
  6
CONTINUOUS
 10
767.59911010372491
 20
580.71387932992707
 30
0.0
 11
770.80927176650982
 21
580.71387932992707
 31
0.0
  0
LINE
  5
E48
  8
0
  6
CONTINUOUS
 10
767.59911010369285
 20
580.71387932987182
 30
0.0
 11
766.70419093510134
 21
579.16387932987254
 31
0.0
  0
LINE
  5
E49
  8
0
  6
CONTINUOUS
 10
770.80927176650982
 20
580.71387932992707
 30
0.0
 11
771.70419093510134
 21
579.16387932992791
 31
0.0
  0
LINE
  5
E4A
  8
0
  6
CONTINUOUS
 10
767.56419093512136
 20
575.91387932992802
 30
0.0
 11
770.84419093510076
 21
575.91387932992779
 31
0.0
  0
LINE
  5
E4B
  8
0
  6
CONTINUOUS
 10
771.70419093510134
 20
575.91387932992779
 30
0.0
 11
773.20419093510134
 21
575.91387932992779
 31
0.0
  0
LINE
  5
E4C
  8
0
  6
CONTINUOUS
 10
771.70419093510134
 20
574.91387932992791
 30
0.0
 11
774.20419093510134
 21
574.91387932992791
 31
0.0
  0
ARC
  5
E4D
  8
0
  6
CONTINUOUS
 10
770.22596901849136
 20
578.22033854336996
 30
0.0
 40
3.5220472269320542
 50
150.7948558421632
 51
220.90927993347091
  0
ARC
  5
E4E
  8
0
  6
CONTINUOUS
 10
768.18241285171132
 20
578.22033854342533
 30
0.0
 40
3.5220472269320542
 50
319.090720066529
 51
29.205144157836791
  0
LINE
  5
E4F
  8
CENTER
  6
CENTER
 10
749.70419093510145
 20
514.41387932977455
 30
0.0
 11
763.70419093510145
 21
514.41387932977455
 31
0.0
  0
LINE
  5
E50
  8
CENTER
  6
CENTER
 10
756.70419093510145
 20
521.41387932977455
 30
0.0
 11
756.70419093510145
 21
507.41387932977449
 31
0.0
  0
CIRCLE
  5
E51
  8
0
  6
CONTINUOUS
 10
756.70419093510145
 20
514.41387932977455
 30
0.0
 40
3.399999999999999
  0
ARC
  5
E52
  8
0
  6
CONTINUOUS
 10
756.70419093510145
 20
514.41387932977455
 30
0.0
 40
4.0
 50
65.677517025119315
 51
24.771420425728412
  0
LINE
  5
E53
  8
CENTER
  6
CENTER
 10
741.14962741773138
 20
529.9684428471445
 30
0.0
 11
749.63490879197002
 21
521.48316147290586
 31
0.0
  0
CIRCLE
  5
E54
  8
0
  6
CONTINUOUS
 10
745.39226810485059
 20
525.7258021600253
 30
0.0
 40
2.5
  0
ARC
  5
E55
  8
0
  6
CONTINUOUS
 10
745.39226810485059
 20
525.7258021600253
 30
0.0
 40
3.0
 50
210.845012326004
 51
153.036401108983
  0
LINE
  5
E56
  8
DIM
  6
CONTINUOUS
 10
869.31321675153595
 20
389.5737314873914
 30
0.0
 11
890.94658138448597
 21
425.03714386241461
 31
0.0
  0
CIRCLE
  5
E57
  8
0
 10
863.70419093510145
 20
380.6980468061937
 30
0.0
 40
6.5
  0
CIRCLE
  5
E58
  8
0
 10
863.70419093510145
 20
380.69804680619359
 30
0.0
 40
7.5
  0
ARC
  5
E59
  8
0
 10
863.70419093510145
 20
380.69804680619359
 30
0.0
 40
8.25
 50
257.92480383695369
 51
198.66239316544471
  0
LINE
  5
E5A
  8
0
 10
847.70419093510134
 20
411.19804680619347
 30
0.0
 11
879.70419093510145
 21
410.69804680619347
 31
0.0
  0
LINE
  5
E5B
  8
CENTER
  6
CENTER
 10
851.20419093510145
 20
380.69804680619359
 30
0.0
 11
876.20419093510145
 21
380.69804680619359
 31
0.0
  0
CIRCLE
  5
E5C
  8
0
 10
863.70419093510145
 20
380.69804680619359
 30
0.0
 40
8.4999999999999574
  0
SOLID
  5
E5D
  8
DIM
  6
CONTINUOUS
 10
892.20419093510145
 20
393.19804680619359
 30
0.0
 11
893.20419093510134
 21
393.19804680619359
 31
0.0
 12
892.70419093510145
 22
396.19804680619359
 32
0.0
 13
892.70419093510145
 23
396.19804680619359
 33
0.0
  0
SOLID
  5
E5E
  8
DIM
  6
CONTINUOUS
 10
869.74006490122974
 20
389.31334589427428
 30
0.0
 11
868.88636860184215
 21
389.83411708050852
 31
0.0
 12
867.75090319283345
 22
387.01264258922839
 32
0.0
 13
867.75090319283345
 23
387.01264258922839
 33
0.0
  0
LINE
  5
E5F
  8
0
 10
879.70419093510122
 20
396.19804680619359
 30
0.0
 11
883.70419093510145
 21
396.19804680619359
 31
0.0
  0
LINE
  5
E60
  8
DIM
  6
CONTINUOUS
 10
885.32867877233639
 20
396.19804680619359
 30
0.0
 11
893.70419093510145
 21
396.19804680619359
 31
0.0
  0
ARC
  5
E61
  8
0
 10
883.70419093510145
 20
395.19804680619359
 30
0.0
 40
1.0
 50
0.0
 51
90.0
  0
TEXT
  5
E62
  8
DIM
  6
CONTINUOUS
 10
873.94398962772925
 20
426.5371438624145
 30
0.0
 40
3.0
  1
2-G3/8
  7
ROMANSS
 11
873.94398962772925
 21
428.03714386241461
 31
0.0
 73
     2
  0
LINE
  5
E63
  8
DIM
  6
CONTINUOUS
 10
873.40476895198299
 20
425.03714386241461
 30
0.0
 11
890.94658138448597
 21
425.03714386241461
 31
0.0
  0
LINE
  5
E64
  8
DIM
  6
CONTINUOUS
 10
961.70573299745388
 20
408.00483395802331
 30
0.0
 11
947.52184284956604
 21
430.82000654717109
 31
0.0
  0
LINE
  5
E65
  8
0
 10
982.4597800065269
 20
420.19804680619347
 30
0.0
 11
982.4597800065269
 21
411.19804680619347
 31
0.0
  0
LINE
  5
E66
  8
CENTER
  6
CENTER
 10
952.90505807475859
 20
380.69804680619359
 30
0.0
 11
976.43314334428464
 21
380.69804680619359
 31
0.0
  0
POLYLINE
  5
E67
  8
0
  6
CONTINUOUS
 66
     1
 10
0.0
 20
0.0
 30
0.0
 70
     1
  0
VERTEX
  5
13F4
  8
0
  6
CONTINUOUS
 10
962.90037892976852
 20
405.94804680619342
 30
0.0
  0
VERTEX
  5
13F5
  8
0
  6
CONTINUOUS
 10
960.59097785300992
 20
401.94804680619342
 30
0.0
  0
VERTEX
  5
13F6
  8
0
  6
CONTINUOUS
 10
962.90037892976852
 20
397.94804680619342
 30
0.0
  0
VERTEX
  5
13F7
  8
0
  6
CONTINUOUS
 10
967.51918108328539
 20
397.94804680619342
 30
0.0
  0
VERTEX
  5
13F8
  8
0
  6
CONTINUOUS
 10
969.82858216004388
 20
401.94804680619342
 30
0.0
  0
VERTEX
  5
13F9
  8
0
  6
CONTINUOUS
 10
967.51918108328539
 20
405.94804680619342
 30
0.0
  0
SEQEND
  5
13FA
  8
0
  6
CONTINUOUS
  0
CIRCLE
  5
E6F
  8
0
  6
CONTINUOUS
 10
965.20978000652678
 20
401.94804680619342
 30
0.0
 40
3.399999999999999
  0
ARC
  5
E70
  8
0
  6
CONTINUOUS
 10
965.20978000652678
 20
401.94804680619342
 30
0.0
 40
4.0
 50
57.77418116062497
 51
14.453881156675809
  0
CIRCLE
  5
E71
  8
0
 10
965.20978000652678
 20
401.94804680619342
 30
0.0
 40
6.5
  0
ARC
  5
E72
  8
0
 10
965.20978000652678
 20
401.94804680619342
 30
0.0
 40
9.5
 50
244.41699802260129
 51
300.52248781407019
  0
LINE
  5
E73
  8
CENTER
  6
CENTER
 10
957.7097800065269
 20
401.94804680619342
 30
0.0
 11
972.7097800065269
 21
401.94804680619342
 31
0.0
  0
LINE
  5
E74
  8
0
 10
960.4597800065269
 20
374.69804680619342
 30
0.0
 11
968.64043271454534
 21
374.69804680619342
 31
0.0
  0
LINE
  5
E75
  8
0
 10
960.4597800065269
 20
372.69804680619342
 30
0.0
 11
969.08766479261897
 21
372.69804680619342
 31
0.0
  0
ARC
  5
E76
  8
0
 10
960.4597800065269
 20
392.02647938970142
 30
0.0
 40
1.5
 50
64.416998022602257
 51
180.0
  0
LINE
  5
E77
  8
0
 10
958.95978000652678
 20
392.02647938970142
 30
0.0
 11
958.95978000652678
 21
376.19804680619342
 31
0.0
  0
ARC
  5
E78
  8
0
 10
960.4597800065269
 20
371.19804680619342
 30
0.0
 40
1.5
 50
90.0
 51
180.0
  0
ARC
  5
E79
  8
0
 10
960.4597800065269
 20
376.19804680619342
 30
0.0
 40
1.5
 50
180.0
 51
270.0
  0
LINE
  5
E7A
  8
DIM
  6
CONTINUOUS
 10
956.7097800065269
 20
401.94804680619342
 30
0.0
 11
938.51663338358526
 21
401.94804680619342
 31
0.0
  0
SOLID
  5
E7B
  8
DIM
  6
CONTINUOUS
 10
939.45978000652678
 20
398.94804680619342
 30
0.0
 11
940.4597800065269
 21
398.94804680619342
 31
0.0
 12
939.9597800065269
 22
401.94804680619342
 32
0.0
 13
939.9597800065269
 23
401.94804680619342
 33
0.0
  0
LINE
  5
E7C
  8
CENTER
  6
CENTER
 10
965.20978000652678
 20
409.44804680619342
 30
0.0
 11
965.20978000652678
 21
394.44804680619342
 31
0.0
  0
ARC
  5
E7D
  8
0
 10
965.4597800065269
 20
401.69804680619347
 30
0.0
 40
9.0
 50
90.0
 51
180.0
  0
ARC
  5
E7E
  8
0
 10
965.4597800065269
 20
401.69804680619347
 30
0.0
 40
9.5
 50
90.0
 51
180.0
  0
LINE
  5
E7F
  8
0
 10
955.9597800065269
 20
398.69804680619342
 30
0.0
 11
956.45978000652701
 21
398.69804680619342
 31
0.0
  0
SOLID
  5
E80
  8
DIM
  6
CONTINUOUS
 10
962.1303632627521
 20
408.2688209610987
 30
0.0
 11
961.28110273215566
 21
407.74084695494781
 31
0.0
 12
963.28965501590665
 22
405.457052366234
 32
0.0
 13
963.28965501590665
 23
405.457052366234
 33
0.0
  0
LINE
  5
E81
  8
0
 10
975.04823981272989
 20
390.3418200470241
 30
0.0
 11
971.85708169573968
 21
393.53297816401431
 31
0.0
  0
LINE
  5
E82
  8
0
 10
977.1290258161871
 20
391.79656794949949
 30
0.0
 11
973.62484864870612
 21
395.30074511698069
 31
0.0
  0
ARC
  5
E83
  8
0
 10
968.64043271454534
 20
376.69804680619342
 30
0.0
 40
2.0
 50
270.0
 51
353.10789742065339
  0
ARC
  5
E84
  8
0
 10
969.08766479261897
 20
371.19804680619342
 30
0.0
 40
1.5
 50
5.856701909916878
 51
90.0
  0
ARC
  5
E85
  8
0
 10
973.63402625035667
 20
388.92760648465099
 30
0.0
 40
2.0
 50
322.46959231641563
 51
45.0
  0
ARC
  5
E86
  8
0
 10
978.18968598796687
 20
392.85722812127932
 30
0.0
 40
1.5
 50
225.00000000000301
 51
308.55525966022958
  0
LINE
  5
E87
  8
0
 10
990.95978000652678
 20
408.19804680619342
 30
0.0
 11
975.13134742301895
 21
408.19804680619342
 31
0.0
  0
LINE
  5
E88
  8
0
 10
983.4597800065269
 20
406.69804680619347
 30
0.0
 11
983.4597800065269
 21
395.33135445897727
 31
0.0
  0
ARC
  5
E89
  8
0
 10
965.20978000652678
 20
401.94804680619342
 30
0.0
 40
9.5
 50
329.47751218592981
 51
25.58300197739279
  0
ARC
  5
E8A
  8
0
 10
974.68550882048578
 20
396.36140528876041
 30
0.0
 40
1.5
 50
149.47751218593049
 51
225.00000000000151
  0
ARC
  5
E8B
  8
0
 10
970.79642152395991
 20
392.47231799223459
 30
0.0
 40
1.5
 50
44.999999999995389
 51
120.5224878140676
  0
ARC
  5
E8C
  8
0
 10
981.9597800065269
 20
395.33135445897727
 30
0.0
 40
1.5
 50
297.99456173225042
 51
0.0
  0
ARC
  5
E8D
  8
0
 10
975.13134742301895
 20
406.69804680619347
 30
0.0
 40
1.5
 50
90.0
 51
205.58300197742969
  0
ARC
  5
E8E
  8
0
 10
981.9597800065269
 20
406.69804680619347
 30
0.0
 40
1.5
 50
0.0
 51
90.0
  0
LINE
  5
E8F
  8
CENTER
  6
CENTER
 10
988.45978000652678
 20
413.47822816897622
 30
0.0
 11
988.45978000652678
 21
399.47822816897622
 31
0.0
  0
LINE
  5
E90
  8
0
 10
992.4597800065269
 20
406.69804680619347
 30
0.0
 11
992.4597800065269
 21
398.07016202010129
 31
0.0
  0
LINE
  5
E91
  8
0
 10
994.4597800065269
 20
406.69804680619347
 30
0.0
 11
994.4597800065269
 21
398.07016202010129
 31
0.0
  0
ARC
  5
E92
  8
0
 10
990.95978000652678
 20
398.07016202010129
 30
0.0
 40
1.5
 50
275.8567019099213
 51
0.0
  0
ARC
  5
E93
  8
0
 10
995.9597800065269
 20
398.07016202010129
 30
0.0
 40
1.5
 50
180.0
 51
264.14329809007847
  0
ARC
  5
E94
  8
0
 10
990.95978000652678
 20
406.69804680619347
 30
0.0
 40
1.5
 50
0.0
 51
90.0
  0
ARC
  5
E95
  8
0
 10
995.9597800065269
 20
406.69804680619347
 30
0.0
 40
1.5
 50
90.0
 51
180.0
  0
TEXT
  5
E96
  8
DIM
  6
CONTINUOUS
 10
945.98417596702609
 20
432.32000654717109
 30
0.0
 40
3.0
  1
2x4-M8x15L
  7
ROMANSS
 72
     2
 11
973.41274739559753
 21
433.82000654717109
 31
0.0
 73
     2
  0
LINE
  5
E97
  8
DIM
  6
CONTINUOUS
 10
973.56329574452343
 20
430.82000654717109
 30
0.0
 11
947.52184284956604
 21
430.82000654717109
 31
0.0
  0
LINE
  5
E98
  8
0
  6
CONTINUOUS
 10
983.4597800065269
 20
421.19804680619359
 30
0.0
 11
982.4597800065269
 21
420.19804680619347
 31
0.0
  0
LINE
  5
E99
  8
0
 10
847.70419093510134
 20
481.91387932977477
 30
0.0
 11
879.70419093510145
 21
482.41387932977472
 31
0.0
  0
LINE
  5
E9A
  8
0
 10
879.70419093510145
 20
496.91387932977449
 30
0.0
 11
883.70419093510145
 21
496.91387932977449
 31
0.0
  0
ARC
  5
E9B
  8
0
 10
883.70419093510145
 20
497.91387932977449
 30
0.0
 40
1.0
 50
270.0
 51
0.0
  0
LINE
  5
E9C
  8
0
 10
766.70419093510145
 20
554.41387932977455
 30
0.0
 11
847.70419093510122
 21
554.41387932977455
 31
0.0
  0
TEXT
  5
E9D
  8
DIM
  6
CONTINUOUS
 10
774.66138378635685
 20
601.95834349765732
 30
0.0
 40
3.0
  1
2x4-M8x15L
  7
ROMANSS
 11
774.66138378635685
 21
603.45834349765732
 31
0.0
 73
     2
  0
LINE
  5
E9E
  8
DIM
  6
CONTINUOUS
 10
774.57138378635705
 20
600.45834349765732
 30
0.0
 11
799.28638378635685
 21
600.45834349765732
 31
0.0
  0
CIRCLE
  5
E9F
  8
0
  6
CONTINUOUS
 10
756.70419093510145
 20
584.41387932977455
 30
0.0
 40
3.399999999999999
  0
ARC
  5
EA0
  8
0
  6
CONTINUOUS
 10
756.70419093510145
 20
584.41387932977455
 30
0.0
 40
4.0
 50
155.67751702511919
 51
114.77142042572839
  0
LINE
  5
EA1
  8
CENTER
  6
CENTER
 10
756.70419093510145
 20
591.41387932977455
 30
0.0
 11
756.70419093510145
 21
577.41387932977455
 31
0.0
  0
LINE
  5
EA2
  8
CENTER
  6
CENTER
 10
749.70419093510145
 20
584.41387932977455
 30
0.0
 11
763.70419093510145
 21
584.41387932977455
 31
0.0
  0
LINE
  5
EA3
  8
DIM
  6
CONTINUOUS
 10
770.70419093510145
 20
549.41387932977455
 30
0.0
 11
817.32309053836332
 21
549.41387932977455
 31
0.0
  0
SOLID
  5
EA4
  8
DIM
  6
CONTINUOUS
 10
724.69237533673834
 20
455.91431588609862
 30
0.0
 11
724.71453341175845
 21
454.91456140638297
 31
0.0
 12
721.70419093510145
 22
455.34796442118062
 32
0.0
 13
721.70419093510145
 23
455.34796442118062
 33
0.0
  0
LINE
  5
EA5
  8
DIM
  6
CONTINUOUS
 10
761.7251596761763
 20
589.26670242891032
 30
0.0
 11
771.57138378635705
 21
600.45834349765732
 31
0.0
  0
LINE
  5
EA6
  8
DIM
  6
CONTINUOUS
 10
756.70419093510145
 20
592.41387932977455
 30
0.0
 11
756.70419093510145
 21
600.91387932977466
 31
0.0
  0
SOLID
  5
EA7
  8
DIM
  6
CONTINUOUS
 10
762.10055668955283
 20
588.93643423130709
 30
0.0
 11
761.34976266279989
 21
589.59697062651344
 31
0.0
 12
759.74355049055748
 22
587.01432034865161
 32
0.0
 13
759.74355049055748
 23
587.01432034865161
 33
0.0
  0
SOLID
  5
EA8
  8
DIM
  6
CONTINUOUS
 10
753.70419093510145
 20
600.41387932977466
 30
0.0
 11
753.70419093510145
 21
599.41387932977466
 31
0.0
 12
756.70419093510145
 22
599.91387932977466
 32
0.0
 13
756.70419093510145
 23
599.91387932977466
 33
0.0
  0
LINE
  5
EA9
  8
DIM
  6
CONTINUOUS
 10
771.57138378635705
 20
600.45834349765732
 30
0.0
 11
774.57138378635705
 21
600.45834349765732
 31
0.0
  0
LINE
  5
EAA
  8
0
 10
847.70419093510134
 20
556.91387932977477
 30
0.0
 11
879.70419093510145
 21
556.41387932977477
 31
0.0
  0
LINE
  5
EAB
  8
0
 10
879.70419093510122
 20
541.91387932977455
 30
0.0
 11
883.70419093510145
 21
541.91387932977455
 31
0.0
  0
ARC
  5
EAC
  8
0
 10
883.70419093510145
 20
540.91387932977455
 30
0.0
 40
1.0
 50
0.0
 51
90.0
  0
LINE
  5
EAD
  8
0
 10
1064.459780006526
 20
420.19804680619347
 30
0.0
 11
1064.459780006526
 21
411.19804680619347
 31
0.0
  0
ARC
  5
EAE
  8
0
 10
1026.459780006526
 20
392.02647938970142
 30
0.0
 40
1.5
 50
0.0
 51
115.5830019774171
  0
LINE
  5
EAF
  8
0
 10
1011.558301149833
 20
390.02880099653322
 30
0.0
 11
1015.062478317314
 21
393.53297816401431
 31
0.0
  0
LINE
  5
EB0
  8
0
 10
1009.790534196866
 20
391.79656794949949
 30
0.0
 11
1013.294711364348
 21
395.30074511698069
 31
0.0
  0
ARC
  5
EB1
  8
0
 10
1021.709780006527
 20
401.94804680619342
 30
0.0
 40
9.5
 50
239.47751218592961
 51
295.58300197738799
  0
LINE
  5
EB2
  8
0
 10
1026.459780006526
 20
383.69804680619342
 30
0.0
 11
1015.09308765931
 21
383.69804680619342
 31
0.0
  0
ARC
  5
EB3
  8
0
 10
1017.831895220434
 20
376.19804680619342
 30
0.0
 40
1.5
 50
185.8567019099211
 51
270.0
  0
ARC
  5
EB4
  8
0
 10
1017.831895220434
 20
371.1980468061933
 30
0.0
 40
1.5
 50
90.0
 51
174.14329809008311
  0
ARC
  5
EB5
  8
0
 10
1008.729874025086
 20
392.85722812127932
 30
0.0
 40
1.5
 50
231.44474033977039
 51
314.99999999999687
  0
ARC
  5
EB6
  8
0
 10
1015.09308765931
 20
385.19804680619342
 30
0.0
 40
1.5
 50
207.99456173225431
 51
270.0
  0
ARC
  5
EB7
  8
0
 10
1012.618961321612
 20
388.96814082475328
 30
0.0
 40
1.5
 50
134.99999999999841
 51
218.55525966023399
  0
LINE
  5
EB8
  8
0
 10
1027.959780006526
 20
376.19804680619342
 30
0.0
 11
1027.959780006526
 21
392.02647938970142
 31
0.0
  0
LINE
  5
EB9
  8
0
 10
1026.459780006526
 20
374.69804680619342
 30
0.0
 11
1017.831895220434
 21
374.69804680619342
 31
0.0
  0
LINE
  5
EBA
  8
0
 10
1026.459780006526
 20
372.6980468061933
 30
0.0
 11
1017.831895220434
 21
372.6980468061933
 31
0.0
  0
ARC
  5
EBB
  8
0
 10
1026.459780006526
 20
376.19804680619342
 30
0.0
 40
1.5
 50
270.0
 51
0.0
  0
ARC
  5
EBC
  8
0
 10
1026.459780006526
 20
371.1980468061933
 30
0.0
 40
1.5
 50
0.0
 51
90.0
  0
ARC
  5
EBD
  8
0
 10
1026.459780006526
 20
385.19804680619342
 30
0.0
 40
1.5
 50
270.0
 51
0.0
  0
POLYLINE
  5
EBE
  8
0
  6
CONTINUOUS
 66
     1
 10
0.0
 20
0.0
 30
0.0
 70
     1
  0
VERTEX
  5
13FB
  8
0
  6
CONTINUOUS
 10
1019.400378929768
 20
405.94804680619342
 30
0.0
  0
VERTEX
  5
13FC
  8
0
  6
CONTINUOUS
 10
1017.090977853009
 20
401.94804680619342
 30
0.0
  0
VERTEX
  5
13FD
  8
0
  6
CONTINUOUS
 10
1019.400378929768
 20
397.94804680619342
 30
0.0
  0
VERTEX
  5
13FE
  8
0
  6
CONTINUOUS
 10
1024.019181083285
 20
397.94804680619342
 30
0.0
  0
VERTEX
  5
13FF
  8
0
  6
CONTINUOUS
 10
1026.328582160043
 20
401.94804680619342
 30
0.0
  0
VERTEX
  5
1400
  8
0
  6
CONTINUOUS
 10
1024.019181083285
 20
405.94804680619342
 30
0.0
  0
SEQEND
  5
1401
  8
0
  6
CONTINUOUS
  0
CIRCLE
  5
EC6
  8
0
 10
1021.709780006527
 20
401.94804680619342
 30
0.0
 40
6.5
  0
LINE
  5
EC7
  8
CENTER
  6
CENTER
 10
1014.209780006526
 20
401.94804680619342
 30
0.0
 11
1029.209780006526
 21
401.94804680619342
 31
0.0
  0
ARC
  5
EC8
  8
0
 10
1021.709780006527
 20
401.94804680619342
 30
0.0
 40
9.5
 50
154.41699802261181
 51
210.5224878140705
  0
LINE
  5
EC9
  8
0
 10
1003.459780006527
 20
406.69804680619347
 30
0.0
 11
1003.459780006527
 21
395.33135445897727
 31
0.0
  0
ARC
  5
ECA
  8
0
 10
1004.959780006527
 20
395.33135445897727
 30
0.0
 40
1.5
 50
180.0
 51
242.0054382677495
  0
ARC
  5
ECB
  8
0
 10
1012.234051192568
 20
396.36140528876041
 30
0.0
 40
1.5
 50
314.99999999999841
 51
30.522487814069471
  0
ARC
  5
ECC
  8
0
 10
1016.123138489094
 20
392.47231799223442
 30
0.0
 40
1.5
 50
59.47751218593239
 51
134.99999999999841
  0
ARC
  5
ECD
  8
0
 10
1004.959780006527
 20
406.69804680619347
 30
0.0
 40
1.5
 50
90.0
 51
180.0
  0
ARC
  5
ECE
  8
0
 10
1011.788212590035
 20
406.69804680619347
 30
0.0
 40
1.5
 50
334.4169980225779
 51
90.0
  0
CIRCLE
  5
ECF
  8
0
  6
CONTINUOUS
 10
1021.709780006527
 20
401.94804680619342
 30
0.0
 40
3.399999999999999
  0
ARC
  5
ED0
  8
0
  6
CONTINUOUS
 10
1021.709780006527
 20
401.94804680619342
 30
0.0
 40
4.0
 50
57.77418116062497
 51
14.453881156675809
  0
LINE
  5
ED1
  8
CENTER
  6
CENTER
 10
1021.709780006527
 20
409.44804680619342
 30
0.0
 11
1021.709780006527
 21
394.44804680619342
 31
0.0
  0
ARC
  5
ED2
  8
0
 10
1021.459780006526
 20
401.69804680619347
 30
0.0
 40
9.0
 50
0.0
 51
90.0
  0
ARC
  5
ED3
  8
0
 10
1021.459780006526
 20
401.69804680619347
 30
0.0
 40
9.5
 50
0.0
 51
90.0
  0
LINE
  5
ED4
  8
CENTER
  6
CENTER
 10
1058.459780006526
 20
413.47822816897622
 30
0.0
 11
1058.459780006526
 21
399.47822816897622
 31
0.0
  0
LINE
  5
ED5
  8
0
  6
CONTINUOUS
 10
1063.459780006526
 20
421.19804680619359
 30
0.0
 11
1064.459780006526
 21
420.19804680619347
 31
0.0
  0
TEXT
  5
ED6
  8
DIM
  6
CONTINUOUS
 10
1072.4597800065269
 20
413.77741177957938
 30
0.0
 40
3.0
  1
10
 50
90.0
  7
ROMANSS
 72
     1
 11
1070.9597800065269
 21
415.92026892243661
 31
0.0
 73
     2
  0
TEXT
  5
ED7
  8
DIM
  6
CONTINUOUS
 10
1080.4597800065269
 20
371.07619448279439
 30
0.0
 40
3.0
  1
95
 50
90.0
  7
ROMANSS
 72
     1
 11
1078.9597800065269
 21
373.50476591136578
 31
0.0
 73
     2
  0
TEXT
  5
ED8
  8
DIM
  6
CONTINUOUS
 10
1072.4597800065269
 20
371.12663348911161
 30
0.0
 40
3.0
  1
75
 50
90.0
  7
ROMANSS
 72
     1
 11
1070.9597800065269
 21
373.55520491768311
 31
0.0
 73
     2
  0
LINE
  5
ED9
  8
DIM
  6
CONTINUOUS
 10
1066.959780006526
 20
411.19804680619347
 30
0.0
 11
1074.9597800065269
 21
411.19804680619347
 31
0.0
  0
SOLID
  5
EDA
  8
DIM
  6
CONTINUOUS
 10
1073.4597800065269
 20
408.19804680619347
 30
0.0
 11
1074.4597800065269
 21
408.19804680619347
 31
0.0
 12
1073.9597800065269
 22
411.19804680619347
 32
0.0
 13
1073.9597800065269
 23
411.19804680619347
 33
0.0
  0
SOLID
  5
EDB
  8
DIM
  6
CONTINUOUS
 10
1073.4597800065269
 20
424.19804680619347
 30
0.0
 11
1074.4597800065269
 21
424.19804680619347
 31
0.0
 12
1073.9597800065269
 22
421.19804680619359
 32
0.0
 13
1073.9597800065269
 23
421.19804680619359
 33
0.0
  0
TEXT
  5
EDC
  8
DIM
  6
CONTINUOUS
 10
765.3101927029528
 20
468.31474528205399
 30
0.0
 40
3.0
  1
90%%p5%%d
 50
31.740610158881879
  7
ROMANSS
 72
     1
 11
769.98818519693361
 21
472.97231083054629
 31
0.0
 73
     2
  0
LINE
  5
EDF
  8
HIDDED
  6
HIDDEN
 10
879.70419093510168
 20
487.16387932977472
 30
0.0
 11
861.70419093510156
 21
487.16387932977472
 31
0.0
  0
LINE
  5
EE0
  8
HIDDED
  6
HIDDEN
 10
879.70419093510168
 20
495.16387932977472
 30
0.0
 11
861.70419093510156
 21
495.16387932977472
 31
0.0
  0
LINE
  5
EE1
  8
CENTER
  6
CENTER
 10
847.70419093510168
 20
491.16387932977449
 30
0.0
 11
882.70419093510179
 21
491.16387932977449
 31
0.0
  0
LINE
  5
EE2
  8
HIDDED
  6
HIDDEN
 10
873.70419093510168
 20
487.16387932977472
 30
0.0
 11
873.70419093510168
 21
495.16387932977472
 31
0.0
  0
LINE
  5
EE3
  8
HIDDED
  6
HIDDEN
 10
858.70419093510156
 20
494.56387932977458
 30
0.0
 11
856.74120001985693
 21
491.16387932977472
 31
0.0
  0
LINE
  5
EE4
  8
HIDDED
  6
HIDDEN
 10
858.70419093510156
 20
487.76387932977462
 30
0.0
 11
858.70419093510156
 21
494.56387932977458
 31
0.0
  0
LINE
  5
EE5
  8
HIDDED
  6
HIDDEN
 10
861.70419093510156
 20
487.16387932977472
 30
0.0
 11
861.70419093510156
 21
495.16387932977472
 31
0.0
  0
LINE
  5
EE6
  8
CENTER
  6
CENTER
 10
863.70419093510145
 20
479.15954864631721
 30
0.0
 11
863.70419093510168
 21
498.93397315008048
 31
0.0
  0
LINE
  5
EE7
  8
HIDDED
  6
HIDDEN
 10
873.70419093510168
 20
487.76387932977462
 30
0.0
 11
858.70419093510156
 21
487.76387932977462
 31
0.0
  0
LINE
  5
EE8
  8
CENTER
  6
CENTER
 10
854.70419093510168
 20
479.38141043898622
 30
0.0
 11
854.70419093510168
 21
499.12638949397183
 31
0.0
  0
LINE
  5
EE9
  8
HIDDED
  6
HIDDEN
 10
858.70419093510156
 20
487.76387932977462
 30
0.0
 11
856.74120001985693
 21
491.16387932977472
 31
0.0
  0
LINE
  5
EEA
  8
HIDDED
  6
HIDDEN
 10
873.70419093510168
 20
494.56387932977458
 30
0.0
 11
858.70419093510156
 21
494.56387932977458
 31
0.0
  0
LINE
  5
EEB
  8
HIDDED
  6
HIDDEN
 10
879.70419093510168
 20
543.66387932977455
 30
0.0
 11
861.70419093510156
 21
543.66387932977455
 31
0.0
  0
LINE
  5
EEC
  8
HIDDED
  6
HIDDEN
 10
879.70419093510168
 20
551.66387932977455
 30
0.0
 11
861.70419093510156
 21
551.66387932977455
 31
0.0
  0
LINE
  5
EED
  8
CENTER
  6
CENTER
 10
847.70419093510168
 20
547.66387932977455
 30
0.0
 11
882.70419093510168
 21
547.66387932977455
 31
0.0
  0
LINE
  5
EEE
  8
HIDDED
  6
HIDDEN
 10
873.70419093510168
 20
551.06387932977464
 30
0.0
 11
858.70419093510156
 21
551.06387932977464
 31
0.0
  0
LINE
  5
EEF
  8
HIDDED
  6
HIDDEN
 10
873.70419093510168
 20
544.26387932977468
 30
0.0
 11
858.70419093510156
 21
544.26387932977468
 31
0.0
  0
LINE
  5
EF0
  8
HIDDED
  6
HIDDEN
 10
873.70419093510168
 20
551.66387932977455
 30
0.0
 11
873.70419093510168
 21
543.66387932977455
 31
0.0
  0
LINE
  5
EF1
  8
HIDDED
  6
HIDDEN
 10
858.70419093510156
 20
544.26387932977468
 30
0.0
 11
856.74120001985693
 21
547.66387932977455
 31
0.0
  0
LINE
  5
EF2
  8
HIDDED
  6
HIDDEN
 10
861.70419093510156
 20
551.66387932977455
 30
0.0
 11
861.70419093510156
 21
543.66387932977455
 31
0.0
  0
LINE
  5
EF3
  8
HIDDED
  6
HIDDEN
 10
858.70419093510156
 20
551.06387932977464
 30
0.0
 11
858.70419093510156
 21
544.26387932977468
 31
0.0
  0
LINE
  5
EF4
  8
HIDDED
  6
HIDDEN
 10
858.70419093510156
 20
551.06387932977464
 30
0.0
 11
856.74120001985693
 21
547.66387932977455
 31
0.0
  0
LINE
  5
EF5
  8
HIDDED
  6
HIDDEN
 10
563.70419093510145
 20
341.44804680619359
 30
0.0
 11
581.70419093510145
 21
341.44804680619359
 31
0.0
  0
LINE
  5
EF6
  8
HIDDED
  6
HIDDEN
 10
563.70419093510122
 20
349.4480468061937
 30
0.0
 11
581.70419093510145
 21
349.4480468061937
 31
0.0
  0
LINE
  5
EF7
  8
CENTER
  6
CENTER
 10
595.70419093510145
 20
345.44804680619342
 30
0.0
 11
560.70419093510111
 21
345.44804680619342
 31
0.0
  0
LINE
  5
EF8
  8
HIDDED
  6
HIDDEN
 10
569.70419093510145
 20
341.44804680619359
 30
0.0
 11
569.70419093510145
 21
349.4480468061937
 31
0.0
  0
LINE
  5
EF9
  8
HIDDED
  6
HIDDEN
 10
584.70419093510145
 20
348.84804680619351
 30
0.0
 11
586.66718185034608
 21
345.44804680619359
 31
0.0
  0
LINE
  5
EFA
  8
HIDDED
  6
HIDDEN
 10
584.70419093510145
 20
342.04804680619361
 30
0.0
 11
584.70419093510145
 21
348.84804680619351
 31
0.0
  0
LINE
  5
EFB
  8
HIDDED
  6
HIDDEN
 10
581.70419093510145
 20
341.44804680619359
 30
0.0
 11
581.70419093510145
 21
349.4480468061937
 31
0.0
  0
LINE
  5
EFC
  8
HIDDED
  6
HIDDEN
 10
569.70419093510145
 20
342.04804680619361
 30
0.0
 11
584.70419093510145
 21
342.04804680619361
 31
0.0
  0
LINE
  5
EFD
  8
HIDDED
  6
HIDDEN
 10
584.70419093510145
 20
342.04804680619361
 30
0.0
 11
586.66718185034608
 21
345.44804680619359
 31
0.0
  0
LINE
  5
EFE
  8
HIDDED
  6
HIDDEN
 10
569.70419093510145
 20
348.84804680619351
 30
0.0
 11
584.70419093510145
 21
348.84804680619351
 31
0.0
  0
LINE
  5
EFF
  8
HIDDED
  6
HIDDEN
 10
563.70419093510122
 20
397.94804680619342
 30
0.0
 11
581.70419093510145
 21
397.94804680619342
 31
0.0
  0
LINE
  5
F00
  8
HIDDED
  6
HIDDEN
 10
563.70419093510145
 20
405.94804680619342
 30
0.0
 11
581.70419093510145
 21
405.94804680619342
 31
0.0
  0
LINE
  5
F01
  8
CENTER
  6
CENTER
 10
595.70419093510145
 20
401.94804680619342
 30
0.0
 11
560.70419093510145
 21
401.94804680619342
 31
0.0
  0
LINE
  5
F02
  8
HIDDED
  6
HIDDEN
 10
569.70419093510145
 20
405.34804680619351
 30
0.0
 11
584.70419093510145
 21
405.34804680619351
 31
0.0
  0
LINE
  5
F03
  8
HIDDED
  6
HIDDEN
 10
569.70419093510145
 20
398.54804680619361
 30
0.0
 11
584.70419093510145
 21
398.54804680619361
 31
0.0
  0
LINE
  5
F04
  8
HIDDED
  6
HIDDEN
 10
569.70419093510145
 20
405.94804680619342
 30
0.0
 11
569.70419093510145
 21
397.94804680619342
 31
0.0
  0
LINE
  5
F05
  8
HIDDED
  6
HIDDEN
 10
584.70419093510145
 20
398.54804680619361
 30
0.0
 11
586.66718185034608
 21
401.94804680619342
 31
0.0
  0
LINE
  5
F06
  8
HIDDED
  6
HIDDEN
 10
581.70419093510145
 20
405.94804680619342
 30
0.0
 11
581.70419093510145
 21
397.94804680619342
 31
0.0
  0
LINE
  5
F07
  8
HIDDED
  6
HIDDEN
 10
584.70419093510145
 20
405.34804680619351
 30
0.0
 11
584.70419093510145
 21
398.54804680619361
 31
0.0
  0
LINE
  5
F08
  8
HIDDED
  6
HIDDEN
 10
584.70419093510145
 20
405.34804680619351
 30
0.0
 11
586.66718185034608
 21
401.94804680619342
 31
0.0
  0
LINE
  5
F09
  8
HIDDED
  6
HIDDEN
 10
879.70419093510168
 20
341.44804680619359
 30
0.0
 11
861.70419093510156
 21
341.44804680619359
 31
0.0
  0
LINE
  5
F0A
  8
HIDDED
  6
HIDDEN
 10
879.70419093510168
 20
349.4480468061937
 30
0.0
 11
861.70419093510156
 21
349.4480468061937
 31
0.0
  0
LINE
  5
F0B
  8
CENTER
  6
CENTER
 10
847.70419093510168
 20
345.44804680619342
 30
0.0
 11
882.70419093510168
 21
345.44804680619342
 31
0.0
  0
LINE
  5
F0C
  8
HIDDED
  6
HIDDEN
 10
873.70419093510168
 20
341.44804680619359
 30
0.0
 11
873.70419093510168
 21
349.4480468061937
 31
0.0
  0
LINE
  5
F0D
  8
HIDDED
  6
HIDDEN
 10
858.70419093510156
 20
348.84804680619351
 30
0.0
 11
856.74120001985693
 21
345.44804680619359
 31
0.0
  0
LINE
  5
F0E
  8
HIDDED
  6
HIDDEN
 10
858.70419093510156
 20
342.04804680619361
 30
0.0
 11
858.70419093510156
 21
348.84804680619351
 31
0.0
  0
LINE
  5
F0F
  8
HIDDED
  6
HIDDEN
 10
861.70419093510156
 20
341.44804680619359
 30
0.0
 11
861.70419093510156
 21
349.4480468061937
 31
0.0
  0
LINE
  5
F10
  8
HIDDED
  6
HIDDEN
 10
873.70419093510168
 20
342.04804680619361
 30
0.0
 11
858.70419093510156
 21
342.04804680619361
 31
0.0
  0
LINE
  5
F11
  8
HIDDED
  6
HIDDEN
 10
858.70419093510156
 20
342.04804680619361
 30
0.0
 11
856.74120001985693
 21
345.44804680619359
 31
0.0
  0
LINE
  5
F12
  8
HIDDED
  6
HIDDEN
 10
873.70419093510168
 20
348.84804680619351
 30
0.0
 11
858.70419093510156
 21
348.84804680619351
 31
0.0
  0
LINE
  5
F13
  8
HIDDED
  6
HIDDEN
 10
879.70419093510168
 20
397.94804680619342
 30
0.0
 11
861.70419093510156
 21
397.94804680619342
 31
0.0
  0
LINE
  5
F14
  8
HIDDED
  6
HIDDEN
 10
879.70419093510168
 20
405.94804680619342
 30
0.0
 11
861.70419093510156
 21
405.94804680619342
 31
0.0
  0
LINE
  5
F15
  8
CENTER
  6
CENTER
 10
847.70419093510168
 20
401.94804680619342
 30
0.0
 11
882.70419093510168
 21
401.94804680619342
 31
0.0
  0
LINE
  5
F16
  8
HIDDED
  6
HIDDEN
 10
873.70419093510168
 20
405.34804680619351
 30
0.0
 11
858.70419093510156
 21
405.34804680619351
 31
0.0
  0
LINE
  5
F17
  8
HIDDED
  6
HIDDEN
 10
873.70419093510168
 20
398.54804680619361
 30
0.0
 11
858.70419093510156
 21
398.54804680619361
 31
0.0
  0
LINE
  5
F18
  8
HIDDED
  6
HIDDEN
 10
873.70419093510168
 20
405.94804680619342
 30
0.0
 11
873.70419093510168
 21
397.94804680619342
 31
0.0
  0
LINE
  5
F19
  8
HIDDED
  6
HIDDEN
 10
858.70419093510156
 20
398.54804680619361
 30
0.0
 11
856.74120001985693
 21
401.94804680619342
 31
0.0
  0
LINE
  5
F1A
  8
HIDDED
  6
HIDDEN
 10
861.70419093510156
 20
405.94804680619342
 30
0.0
 11
861.70419093510156
 21
397.94804680619342
 31
0.0
  0
LINE
  5
F1B
  8
HIDDED
  6
HIDDEN
 10
858.70419093510156
 20
405.34804680619351
 30
0.0
 11
858.70419093510156
 21
398.54804680619361
 31
0.0
  0
LINE
  5
F1C
  8
HIDDED
  6
HIDDEN
 10
858.70419093510156
 20
405.34804680619351
 30
0.0
 11
856.74120001985693
 21
401.94804680619342
 31
0.0
  0
LINE
  5
F1D
  8
HIDDED
  6
HIDDEN
 10
563.70419093510145
 20
190.67902846356
 30
0.0
 11
581.70419093510145
 21
190.67902846356
 31
0.0
  0
LINE
  5
F1E
  8
HIDDED
  6
HIDDEN
 10
563.70419093510134
 20
198.67902846356
 30
0.0
 11
581.70419093510145
 21
198.67902846356
 31
0.0
  0
LINE
  5
F1F
  8
CENTER
  6
CENTER
 10
595.70419093510145
 20
194.67902846355969
 30
0.0
 11
560.70419093510134
 21
194.67902846355969
 31
0.0
  0
LINE
  5
F20
  8
HIDDED
  6
HIDDEN
 10
569.70419093510145
 20
190.67902846356
 30
0.0
 11
569.70419093510145
 21
198.67902846356
 31
0.0
  0
LINE
  5
F21
  8
HIDDED
  6
HIDDEN
 10
584.70419093510145
 20
198.07902846355989
 30
0.0
 11
586.66718185034608
 21
194.67902846356
 31
0.0
  0
LINE
  5
F22
  8
HIDDED
  6
HIDDEN
 10
584.70419093510145
 20
191.27902846355991
 30
0.0
 11
584.70419093510145
 21
198.07902846355989
 31
0.0
  0
LINE
  5
F23
  8
HIDDED
  6
HIDDEN
 10
581.70419093510145
 20
190.67902846356
 30
0.0
 11
581.70419093510145
 21
198.67902846356
 31
0.0
  0
LINE
  5
F24
  8
HIDDED
  6
HIDDEN
 10
569.70419093510145
 20
191.27902846355991
 30
0.0
 11
584.70419093510145
 21
191.27902846355991
 31
0.0
  0
LINE
  5
F25
  8
HIDDED
  6
HIDDEN
 10
584.70419093510145
 20
191.27902846355991
 30
0.0
 11
586.66718185034608
 21
194.67902846356
 31
0.0
  0
LINE
  5
F26
  8
HIDDED
  6
HIDDEN
 10
569.70419093510145
 20
198.07902846355989
 30
0.0
 11
584.70419093510145
 21
198.07902846355989
 31
0.0
  0
LINE
  5
F27
  8
HIDDED
  6
HIDDEN
 10
563.70419093510134
 20
247.1790284635598
 30
0.0
 11
581.70419093510145
 21
247.1790284635598
 31
0.0
  0
LINE
  5
F28
  8
HIDDED
  6
HIDDEN
 10
563.70419093510145
 20
255.1790284635598
 30
0.0
 11
581.70419093510145
 21
255.1790284635598
 31
0.0
  0
LINE
  5
F29
  8
CENTER
  6
CENTER
 10
595.70419093510145
 20
251.1790284635598
 30
0.0
 11
560.70419093510145
 21
251.1790284635598
 31
0.0
  0
LINE
  5
F2A
  8
HIDDED
  6
HIDDEN
 10
569.70419093510145
 20
254.57902846355981
 30
0.0
 11
584.70419093510145
 21
254.57902846355981
 31
0.0
  0
LINE
  5
F2B
  8
HIDDED
  6
HIDDEN
 10
569.70419093510145
 20
247.77902846355991
 30
0.0
 11
584.70419093510145
 21
247.77902846355991
 31
0.0
  0
LINE
  5
F2C
  8
HIDDED
  6
HIDDEN
 10
569.70419093510145
 20
255.1790284635598
 30
0.0
 11
569.70419093510145
 21
247.1790284635598
 31
0.0
  0
LINE
  5
F2D
  8
HIDDED
  6
HIDDEN
 10
584.70419093510145
 20
247.77902846355991
 30
0.0
 11
586.66718185034608
 21
251.1790284635598
 31
0.0
  0
LINE
  5
F2E
  8
HIDDED
  6
HIDDEN
 10
581.70419093510145
 20
255.1790284635598
 30
0.0
 11
581.70419093510145
 21
247.1790284635598
 31
0.0
  0
LINE
  5
F2F
  8
HIDDED
  6
HIDDEN
 10
584.70419093510145
 20
254.57902846355981
 30
0.0
 11
584.70419093510145
 21
247.77902846355991
 31
0.0
  0
LINE
  5
F30
  8
HIDDED
  6
HIDDEN
 10
584.70419093510145
 20
254.57902846355981
 30
0.0
 11
586.66718185034608
 21
251.1790284635598
 31
0.0
  0
LINE
  5
F31
  8
HIDDED
  6
HIDDEN
 10
879.70419093510168
 20
190.67902846356
 30
0.0
 11
861.70419093510156
 21
190.67902846356
 31
0.0
  0
LINE
  5
F32
  8
HIDDED
  6
HIDDEN
 10
879.70419093510168
 20
198.67902846356
 30
0.0
 11
861.70419093510156
 21
198.67902846356
 31
0.0
  0
LINE
  5
F33
  8
CENTER
  6
CENTER
 10
847.70419093510168
 20
194.67902846355969
 30
0.0
 11
882.70419093510179
 21
194.67902846355969
 31
0.0
  0
LINE
  5
F34
  8
HIDDED
  6
HIDDEN
 10
873.70419093510168
 20
190.67902846356
 30
0.0
 11
873.70419093510168
 21
198.67902846356
 31
0.0
  0
LINE
  5
F35
  8
HIDDED
  6
HIDDEN
 10
858.70419093510156
 20
198.07902846355989
 30
0.0
 11
856.74120001985693
 21
194.67902846356
 31
0.0
  0
LINE
  5
F36
  8
HIDDED
  6
HIDDEN
 10
858.70419093510156
 20
191.27902846355991
 30
0.0
 11
858.70419093510156
 21
198.07902846355989
 31
0.0
  0
LINE
  5
F37
  8
HIDDED
  6
HIDDEN
 10
861.70419093510156
 20
190.67902846356
 30
0.0
 11
861.70419093510156
 21
198.67902846356
 31
0.0
  0
LINE
  5
F38
  8
HIDDED
  6
HIDDEN
 10
873.70419093510168
 20
191.27902846355991
 30
0.0
 11
858.70419093510156
 21
191.27902846355991
 31
0.0
  0
LINE
  5
F39
  8
HIDDED
  6
HIDDEN
 10
858.70419093510156
 20
191.27902846355991
 30
0.0
 11
856.74120001985693
 21
194.67902846356
 31
0.0
  0
LINE
  5
F3A
  8
HIDDED
  6
HIDDEN
 10
873.70419093510168
 20
198.07902846355989
 30
0.0
 11
858.70419093510156
 21
198.07902846355989
 31
0.0
  0
LINE
  5
F3B
  8
HIDDED
  6
HIDDEN
 10
879.70419093510168
 20
247.1790284635598
 30
0.0
 11
861.70419093510156
 21
247.1790284635598
 31
0.0
  0
LINE
  5
F3C
  8
HIDDED
  6
HIDDEN
 10
879.70419093510168
 20
255.1790284635598
 30
0.0
 11
861.70419093510156
 21
255.1790284635598
 31
0.0
  0
LINE
  5
F3D
  8
CENTER
  6
CENTER
 10
847.70419093510168
 20
251.1790284635598
 30
0.0
 11
882.70419093510168
 21
251.1790284635598
 31
0.0
  0
LINE
  5
F3E
  8
HIDDED
  6
HIDDEN
 10
873.70419093510168
 20
254.57902846355981
 30
0.0
 11
858.70419093510156
 21
254.57902846355981
 31
0.0
  0
LINE
  5
F3F
  8
HIDDED
  6
HIDDEN
 10
873.70419093510168
 20
247.77902846355991
 30
0.0
 11
858.70419093510156
 21
247.77902846355991
 31
0.0
  0
LINE
  5
F40
  8
HIDDED
  6
HIDDEN
 10
873.70419093510168
 20
255.1790284635598
 30
0.0
 11
873.70419093510168
 21
247.1790284635598
 31
0.0
  0
LINE
  5
F41
  8
HIDDED
  6
HIDDEN
 10
858.70419093510156
 20
247.77902846355991
 30
0.0
 11
856.74120001985693
 21
251.1790284635598
 31
0.0
  0
LINE
  5
F42
  8
HIDDED
  6
HIDDEN
 10
861.70419093510156
 20
255.1790284635598
 30
0.0
 11
861.70419093510156
 21
247.1790284635598
 31
0.0
  0
LINE
  5
F43
  8
HIDDED
  6
HIDDEN
 10
858.70419093510156
 20
254.57902846355981
 30
0.0
 11
858.70419093510156
 21
247.77902846355991
 31
0.0
  0
LINE
  5
F44
  8
HIDDED
  6
HIDDEN
 10
858.70419093510156
 20
254.57902846355981
 30
0.0
 11
856.74120001985693
 21
251.1790284635598
 31
0.0
  0
LINE
  5
F45
  8
CENTER
  6
CENTER
 10
579.70419093510145
 20
263.1833591470172
 30
0.0
 11
579.70419093510145
 21
243.4089346432539
 31
0.0
  0
LINE
  5
F46
  8
CENTER
  6
CENTER
 10
588.70419093510134
 20
262.96149735434818
 30
0.0
 11
588.70419093510145
 21
243.2165182993626
 31
0.0
  0
LINE
  5
F47
  8
CENTER
  6
CENTER
 10
863.70419093510145
 20
263.1833591470172
 30
0.0
 11
863.70419093510168
 21
243.4089346432539
 31
0.0
  0
LINE
  5
F48
  8
CENTER
  6
CENTER
 10
854.70419093510168
 20
262.96149735434818
 30
0.0
 11
854.70419093510168
 21
243.2165182993626
 31
0.0
  0
CIRCLE
  5
F49
  8
0
  6
CONTINUOUS
 10
721.70419093510145
 20
515.91387932977455
 30
0.0
 40
5.0
  0
CIRCLE
  5
F4A
  8
0
  6
CONTINUOUS
 10
721.70419093510145
 20
515.91387932977455
 30
0.0
 40
4.5381062355658202
  0
POLYLINE
  5
F4B
  8
0
  6
CONTINUOUS
 66
     1
 10
0.0
 20
0.0
 30
0.0
 70
     1
  0
VERTEX
  5
1402
  8
0
  6
CONTINUOUS
 10
720.26081526212727
 20
518.41387932977455
 30
0.0
  0
VERTEX
  5
1403
  8
0
  6
CONTINUOUS
 10
718.8174395891532
 20
515.91387932977455
 30
0.0
  0
VERTEX
  5
1404
  8
0
  6
CONTINUOUS
 10
720.26081526212727
 20
513.41387932977455
 30
0.0
  0
VERTEX
  5
1405
  8
0
  6
CONTINUOUS
 10
723.14756660807552
 20
513.41387932977455
 30
0.0
  0
VERTEX
  5
1406
  8
0
  6
CONTINUOUS
 10
724.59094228104959
 20
515.91387932977455
 30
0.0
  0
VERTEX
  5
1407
  8
0
  6
CONTINUOUS
 10
723.14756660807552
 20
518.41387932977455
 30
0.0
  0
SEQEND
  5
1408
  8
0
  6
CONTINUOUS
  0
CIRCLE
  5
F53
  8
0
  6
CONTINUOUS
 10
721.70419093510145
 20
582.91387932977455
 30
0.0
 40
5.0
  0
CIRCLE
  5
F54
  8
0
  6
CONTINUOUS
 10
721.70419093510145
 20
582.91387932977455
 30
0.0
 40
4.5381062355658202
  0
POLYLINE
  5
F55
  8
0
  6
CONTINUOUS
 66
     1
 10
0.0
 20
0.0
 30
0.0
 70
     1
  0
VERTEX
  5
1409
  8
0
  6
CONTINUOUS
 10
720.26081526212727
 20
585.41387932977455
 30
0.0
  0
VERTEX
  5
140A
  8
0
  6
CONTINUOUS
 10
718.8174395891532
 20
582.91387932977455
 30
0.0
  0
VERTEX
  5
140B
  8
0
  6
CONTINUOUS
 10
720.26081526212727
 20
580.41387932977455
 30
0.0
  0
VERTEX
  5
140C
  8
0
  6
CONTINUOUS
 10
723.14756660807552
 20
580.41387932977455
 30
0.0
  0
VERTEX
  5
140D
  8
0
  6
CONTINUOUS
 10
724.59094228104959
 20
582.91387932977455
 30
0.0
  0
VERTEX
  5
140E
  8
0
  6
CONTINUOUS
 10
723.14756660807552
 20
585.41387932977455
 30
0.0
  0
SEQEND
  5
140F
  8
0
  6
CONTINUOUS
  0
CIRCLE
  5
F5D
  8
0
  6
CONTINUOUS
 10
688.20419093510145
 20
549.41387932977455
 30
0.0
 40
5.0
  0
CIRCLE
  5
F5E
  8
0
  6
CONTINUOUS
 10
688.20419093510145
 20
549.41387932977455
 30
0.0
 40
4.5381062355658202
  0
POLYLINE
  5
F5F
  8
0
  6
CONTINUOUS
 66
     1
 10
0.0
 20
0.0
 30
0.0
 70
     1
  0
VERTEX
  5
1410
  8
0
  6
CONTINUOUS
 10
686.76081526212727
 20
551.91387932977455
 30
0.0
  0
VERTEX
  5
1411
  8
0
  6
CONTINUOUS
 10
685.3174395891532
 20
549.41387932977455
 30
0.0
  0
VERTEX
  5
1412
  8
0
  6
CONTINUOUS
 10
686.76081526212727
 20
546.91387932977455
 30
0.0
  0
VERTEX
  5
1413
  8
0
  6
CONTINUOUS
 10
689.64756660807552
 20
546.91387932977455
 30
0.0
  0
VERTEX
  5
1414
  8
0
  6
CONTINUOUS
 10
691.09094228104959
 20
549.41387932977455
 30
0.0
  0
VERTEX
  5
1415
  8
0
  6
CONTINUOUS
 10
689.64756660807552
 20
551.91387932977455
 30
0.0
  0
SEQEND
  5
1416
  8
0
  6
CONTINUOUS
  0
CIRCLE
  5
F67
  8
0
  6
CONTINUOUS
 10
755.20419093510145
 20
549.41387932977455
 30
0.0
 40
5.0
  0
CIRCLE
  5
F68
  8
0
  6
CONTINUOUS
 10
755.20419093510145
 20
549.41387932977455
 30
0.0
 40
4.5381062355658202
  0
POLYLINE
  5
F69
  8
0
  6
CONTINUOUS
 66
     1
 10
0.0
 20
0.0
 30
0.0
 70
     1
  0
VERTEX
  5
1417
  8
0
  6
CONTINUOUS
 10
753.76081526212738
 20
551.91387932977455
 30
0.0
  0
VERTEX
  5
1418
  8
0
  6
CONTINUOUS
 10
752.3174395891532
 20
549.41387932977455
 30
0.0
  0
VERTEX
  5
1419
  8
0
  6
CONTINUOUS
 10
753.76081526212738
 20
546.91387932977455
 30
0.0
  0
VERTEX
  5
141A
  8
0
  6
CONTINUOUS
 10
756.64756660807552
 20
546.91387932977455
 30
0.0
  0
VERTEX
  5
141B
  8
0
  6
CONTINUOUS
 10
758.09094228104959
 20
549.41387932977455
 30
0.0
  0
VERTEX
  5
141C
  8
0
  6
CONTINUOUS
 10
756.64756660807552
 20
551.91387932977455
 30
0.0
  0
SEQEND
  5
141D
  8
0
  6
CONTINUOUS
  0
CIRCLE
  5
F71
  8
0
  6
CONTINUOUS
 10
721.70419093510145
 20
159.4290284635598
 30
0.0
 40
5.0
  0
CIRCLE
  5
F72
  8
0
  6
CONTINUOUS
 10
721.70419093510145
 20
159.4290284635598
 30
0.0
 40
4.5381062355658202
  0
POLYLINE
  5
F73
  8
0
  6
CONTINUOUS
 66
     1
 10
0.0
 20
0.0
 30
0.0
 70
     1
  0
VERTEX
  5
141E
  8
0
  6
CONTINUOUS
 10
720.26081526212727
 20
156.9290284635598
 30
0.0
  0
VERTEX
  5
141F
  8
0
  6
CONTINUOUS
 10
718.8174395891532
 20
159.4290284635598
 30
0.0
  0
VERTEX
  5
1420
  8
0
  6
CONTINUOUS
 10
720.26081526212727
 20
161.9290284635598
 30
0.0
  0
VERTEX
  5
1421
  8
0
  6
CONTINUOUS
 10
723.14756660807552
 20
161.9290284635598
 30
0.0
  0
VERTEX
  5
1422
  8
0
  6
CONTINUOUS
 10
724.59094228104959
 20
159.4290284635598
 30
0.0
  0
VERTEX
  5
1423
  8
0
  6
CONTINUOUS
 10
723.14756660807552
 20
156.9290284635598
 30
0.0
  0
SEQEND
  5
1424
  8
0
  6
CONTINUOUS
  0
CIRCLE
  5
F7B
  8
0
  6
CONTINUOUS
 10
688.20419093510145
 20
192.9290284635598
 30
0.0
 40
5.0
  0
CIRCLE
  5
F7C
  8
0
  6
CONTINUOUS
 10
688.20419093510145
 20
192.9290284635598
 30
0.0
 40
4.5381062355658202
  0
POLYLINE
  5
F7D
  8
0
  6
CONTINUOUS
 66
     1
 10
0.0
 20
0.0
 30
0.0
 70
     1
  0
VERTEX
  5
1425
  8
0
  6
CONTINUOUS
 10
686.76081526212727
 20
190.4290284635598
 30
0.0
  0
VERTEX
  5
1426
  8
0
  6
CONTINUOUS
 10
685.3174395891532
 20
192.9290284635598
 30
0.0
  0
VERTEX
  5
1427
  8
0
  6
CONTINUOUS
 10
686.76081526212727
 20
195.4290284635598
 30
0.0
  0
VERTEX
  5
1428
  8
0
  6
CONTINUOUS
 10
689.64756660807552
 20
195.4290284635598
 30
0.0
  0
VERTEX
  5
1429
  8
0
  6
CONTINUOUS
 10
691.09094228104959
 20
192.9290284635598
 30
0.0
  0
VERTEX
  5
142A
  8
0
  6
CONTINUOUS
 10
689.64756660807552
 20
190.4290284635598
 30
0.0
  0
SEQEND
  5
142B
  8
0
  6
CONTINUOUS
  0
CIRCLE
  5
F85
  8
0
  6
CONTINUOUS
 10
721.70419093510145
 20
226.42902846355989
 30
0.0
 40
5.0
  0
CIRCLE
  5
F86
  8
0
  6
CONTINUOUS
 10
721.70419093510145
 20
226.42902846355989
 30
0.0
 40
4.5381062355658202
  0
POLYLINE
  5
F87
  8
0
  6
CONTINUOUS
 66
     1
 10
0.0
 20
0.0
 30
0.0
 70
     1
  0
VERTEX
  5
142C
  8
0
  6
CONTINUOUS
 10
720.26081526212727
 20
223.92902846355989
 30
0.0
  0
VERTEX
  5
142D
  8
0
  6
CONTINUOUS
 10
718.8174395891532
 20
226.42902846355989
 30
0.0
  0
VERTEX
  5
142E
  8
0
  6
CONTINUOUS
 10
720.26081526212727
 20
228.92902846355989
 30
0.0
  0
VERTEX
  5
142F
  8
0
  6
CONTINUOUS
 10
723.14756660807552
 20
228.92902846355989
 30
0.0
  0
VERTEX
  5
1430
  8
0
  6
CONTINUOUS
 10
724.59094228104959
 20
226.42902846355989
 30
0.0
  0
VERTEX
  5
1431
  8
0
  6
CONTINUOUS
 10
723.14756660807552
 20
223.92902846355989
 30
0.0
  0
SEQEND
  5
1432
  8
0
  6
CONTINUOUS
  0
CIRCLE
  5
F8F
  8
0
  6
CONTINUOUS
 10
755.20419093510145
 20
192.9290284635598
 30
0.0
 40
5.0
  0
CIRCLE
  5
F90
  8
0
  6
CONTINUOUS
 10
755.20419093510145
 20
192.9290284635598
 30
0.0
 40
4.5381062355658202
  0
POLYLINE
  5
F91
  8
0
  6
CONTINUOUS
 66
     1
 10
0.0
 20
0.0
 30
0.0
 70
     1
  0
VERTEX
  5
1433
  8
0
  6
CONTINUOUS
 10
753.76081526212738
 20
190.4290284635598
 30
0.0
  0
VERTEX
  5
1434
  8
0
  6
CONTINUOUS
 10
752.3174395891532
 20
192.9290284635598
 30
0.0
  0
VERTEX
  5
1435
  8
0
  6
CONTINUOUS
 10
753.76081526212738
 20
195.4290284635598
 30
0.0
  0
VERTEX
  5
1436
  8
0
  6
CONTINUOUS
 10
756.64756660807552
 20
195.4290284635598
 30
0.0
  0
VERTEX
  5
1437
  8
0
  6
CONTINUOUS
 10
758.09094228104959
 20
192.9290284635598
 30
0.0
  0
VERTEX
  5
1438
  8
0
  6
CONTINUOUS
 10
756.64756660807552
 20
190.4290284635598
 30
0.0
  0
SEQEND
  5
1439
  8
0
  6
CONTINUOUS
  0
LINE
  5
F99
  8
DIM
  6
CONTINUOUS
 10
1064.459780006526
 20
421.19804680619342
 30
0.0
 11
1082.9597800065269
 21
421.19804680619342
 31
0.0
  0
SOLID
  5
F9A
  8
DIM
  6
CONTINUOUS
 10
1081.4597800065269
 20
418.19804680619347
 30
0.0
 11
1082.4597800065269
 21
418.19804680619347
 31
0.0
 12
1081.9597800065269
 22
421.19804680619342
 32
0.0
 13
1081.9597800065269
 23
421.19804680619342
 33
0.0
  0
LINE
  5
F9B
  8
DIM
  6
CONTINUOUS
 10
1081.9597800065269
 20
326.1980468061933
 30
0.0
 11
1081.9597800065269
 21
421.19804680619359
 31
0.0
  0
CIRCLE
  5
F9C
  8
0
  6
CONTINUOUS
 10
721.70419093510145
 20
549.41387932977455
 30
0.0
 40
15.00000000000005
  0
LINE
  5
F9D
  8
DIM
  6
CONTINUOUS
 10
744.70419093510168
 20
541.02714485066838
 30
0.0
 11
744.70419093510168
 21
560.50738290689048
 31
0.0
  0
LINE
  5
F9E
  8
0
 10
734.20419093510145
 20
552.41387932977455
 30
0.0
 11
734.20419093510145
 21
546.41387932977455
 31
0.0
  0
SOLID
  5
F9F
  8
DIM
  6
CONTINUOUS
 10
745.20419093510168
 20
543.41387932977455
 30
0.0
 11
744.20419093510168
 21
543.41387932977455
 31
0.0
 12
744.70419093510168
 22
546.41387932977455
 32
0.0
 13
744.70419093510168
 23
546.41387932977455
 33
0.0
  0
LINE
  5
FA0
  8
DIM
  6
CONTINUOUS
 10
735.36268805888096
 20
546.41387932977455
 30
0.0
 11
745.70419093510156
 21
546.41387932977455
 31
0.0
  0
LINE
  5
FA1
  8
0
 10
734.20419093510145
 20
546.41387932977455
 30
0.0
 11
730.71806912376144
 21
546.41387932977455
 31
0.0
  0
SOLID
  5
FA2
  8
DIM
  6
CONTINUOUS
 10
745.20419093510168
 20
555.41387932977455
 30
0.0
 11
744.20419093510168
 21
555.41387932977455
 31
0.0
 12
744.70419093510168
 22
552.41387932977455
 32
0.0
 13
744.70419093510168
 23
552.41387932977455
 33
0.0
  0
LINE
  5
FA3
  8
DIM
  6
CONTINUOUS
 10
735.37627767727577
 20
552.41387932977455
 30
0.0
 11
745.70419093510156
 21
552.41387932977455
 31
0.0
  0
LINE
  5
FA4
  8
0
 10
734.20419093510145
 20
552.41387932977455
 30
0.0
 11
730.71806912376155
 21
552.41387932977455
 31
0.0
  0
TEXT
  5
FA5
  8
DIM
  6
CONTINUOUS
 10
743.20419093510156
 20
556.61818788675839
 30
0.0
 40
3.0
  1
6
 50
90.0
  7
ROMANSS
 72
     1
 11
741.70419093510156
 21
557.54675931532984
 31
0.0
 73
     2
  0
ARC
  5
FA6
  8
0
  6
CONTINUOUS
 10
721.70419093510145
 20
549.41387932977455
 30
0.0
 40
9.5000000000000568
 50
18.408480170585811
 51
341.5915198294141
  0
LINE
  5
FA7
  8
HIDDED
  6
HIDDEN
 10
706.70419093510145
 20
421.19804680619359
 30
0.0
 11
706.70419093510134
 21
326.19804680619347
 31
0.0
  0
LINE
  5
FA8
  8
HIDDED
  6
HIDDEN
 10
712.20419093510134
 20
420.19804680619347
 30
0.0
 11
712.20419093510145
 21
327.19804680619359
 31
0.0
  0
LINE
  5
FA9
  8
HIDDED
  6
HIDDEN
 10
730.71806912376155
 20
420.19804680619347
 30
0.0
 11
730.71806912376144
 21
327.19804680619359
 31
0.0
  0
LINE
  5
FAA
  8
HIDDED
  6
HIDDEN
 10
734.20419093510145
 20
420.19804680619347
 30
0.0
 11
734.20419093510145
 21
327.19804680619359
 31
0.0
  0
LINE
  5
FAB
  8
HIDDED
  6
HIDDEN
 10
736.70419093510134
 20
421.19804680619359
 30
0.0
 11
736.70419093510134
 21
326.19804680619347
 31
0.0
  0
CIRCLE
  5
FAC
  8
0
  6
CONTINUOUS
 10
721.70419093510145
 20
192.9290284635598
 30
0.0
 40
15.00000000000005
  0
LINE
  5
FAD
  8
0
 10
734.20419093510145
 20
195.9290284635598
 30
0.0
 11
734.20419093510145
 21
189.9290284635598
 31
0.0
  0
LINE
  5
FAE
  8
0
 10
734.20419093510145
 20
189.9290284635598
 30
0.0
 11
730.71806912376144
 21
189.9290284635598
 31
0.0
  0
LINE
  5
FAF
  8
0
 10
734.20419093510145
 20
195.9290284635598
 30
0.0
 11
730.71806912376155
 21
195.9290284635598
 31
0.0
  0
ARC
  5
FB0
  8
0
  6
CONTINUOUS
 10
721.70419093510145
 20
192.9290284635598
 30
0.0
 40
9.5000000000000568
 50
18.408480170585811
 51
341.59151982941449
  0
LINE
  5
FB1
  8
DIM
  6
CONTINUOUS
 10
715.42909518064073
 20
542.28133607562245
 30
0.0
 11
735.03286942871773
 21
564.56382756902383
 31
0.0
  0
SOLID
  5
FB2
  8
DIM
  6
CONTINUOUS
 10
717.78610137963676
 20
544.20344995827872
 30
0.0
 11
717.03530735288405
 21
544.86398635348485
 31
0.0
 12
715.42909518064153
 22
542.28133607562313
 32
0.0
 13
715.42909518064153
 23
542.28133607562313
 33
0.0
  0
SOLID
  5
FB3
  8
DIM
  6
CONTINUOUS
 10
725.62228049056534
 20
554.62430870127037
 30
0.0
 11
726.37307451731806
 21
553.96377230606413
 31
0.0
 12
727.97928668956069
 22
556.54642258392585
 32
0.0
 13
727.97928668956069
 23
556.54642258392585
 33
0.0
  0
LINE
  5
FB4
  8
DIM
  6
CONTINUOUS
 10
731.61223686319715
 20
538.15196892848155
 30
0.0
 11
708.40921102158552
 21
564.52552431604181
 31
0.0
  0
SOLID
  5
FB5
  8
DIM
  6
CONTINUOUS
 10
729.25523066420146
 20
540.07408281113783
 30
0.0
 11
730.0060246909544
 21
540.73461920634406
 31
0.0
 12
731.61223686319693
 22
538.15196892848223
 32
0.0
 13
731.61223686319693
 23
538.15196892848223
 33
0.0
  0
SOLID
  5
FB6
  8
DIM
  6
CONTINUOUS
 10
714.15315120600212
 20
558.75367584841058
 30
0.0
 11
713.40235717924929
 21
558.09313945320434
 31
0.0
 12
711.79614500700666
 22
560.67578973106629
 32
0.0
 13
711.79614500700666
 23
560.67578973106629
 33
0.0
  0
TEXT
  5
FB7
  8
DIM
  6
CONTINUOUS
 10
735.31770920745009
 20
566.06382756902372
 30
0.0
 40
3.0
  1
%%c19H7
  7
ROMANSS
 11
735.31770920745009
 21
567.56382756902372
 31
0.0
 73
     2
  0
LINE
  5
FB8
  8
DIM
  6
CONTINUOUS
 10
735.03286942871773
 20
564.56382756902383
 30
0.0
 11
749.74249727958534
 21
564.56382756902372
 31
0.0
  0
TEXT
  5
FB9
  8
DIM
  6
CONTINUOUS
 10
693.88382035801328
 20
566.02552431604192
 30
0.0
 40
3.0
  1
%%c30x1dp
  7
ROMANSS
 11
693.88382035801328
 21
567.52552431604192
 31
0.0
 73
     2
  0
LINE
  5
FBA
  8
DIM
  6
CONTINUOUS
 10
693.51817580746331
 20
564.52552431604204
 30
0.0
 11
708.40921102158552
 21
564.52552431604181
 31
0.0
  0
LINE
  5
FBB
  8
DIM
  6
CONTINUOUS
 10
712.20419093510122
 20
546.92816315784069
 30
0.0
 11
712.20419093510122
 21
527.9281631578408
 31
0.0
  0
LINE
  5
FBC
  8
DIM
  6
CONTINUOUS
 10
734.20419093510145
 20
544.9281631578408
 30
0.0
 11
734.20419093510145
 21
527.9281631578408
 31
0.0
  0
LINE
  5
FBD
  8
DIM
  6
CONTINUOUS
 10
734.20419093510145
 20
528.9281631578408
 30
0.0
 11
712.20419093510122
 21
528.9281631578408
 31
0.0
  0
LINE
  5
FBE
  8
HIDDED
  6
HIDDEN
 10
706.70419093510134
 20
420.19804680619347
 30
0.0
 11
736.70419093510134
 21
420.19804680619347
 31
0.0
  0
LINE
  5
FBF
  8
DIM
  6
CONTINUOUS
 10
704.78523829443691
 20
327.19804680619359
 30
0.0
 11
659.70419093510122
 21
327.19804680619359
 31
0.0
  0
LINE
  5
FC0
  8
DIM
  6
CONTINUOUS
 10
680.80654373133837
 20
326.1980468061937
 30
0.0
 11
659.70419093510134
 21
326.1980468061937
 31
0.0
  0
LINE
  5
FC1
  8
DIM
  6
CONTINUOUS
 10
660.70419093510145
 20
319.69744627946602
 30
0.0
 11
660.70419093510134
 21
334.25722387003378
 31
0.0
  0
SOLID
  5
FC2
  8
DIM
  6
CONTINUOUS
 10
660.20419093510122
 20
330.1980468061937
 30
0.0
 11
661.20419093510122
 21
330.1980468061937
 31
0.0
 12
660.70419093510111
 22
327.19804680619359
 32
0.0
 13
660.70419093510111
 23
327.19804680619359
 33
0.0
  0
SOLID
  5
FC3
  8
DIM
  6
CONTINUOUS
 10
660.20419093510134
 20
323.1980468061937
 30
0.0
 11
661.20419093510134
 21
323.1980468061937
 31
0.0
 12
660.70419093510134
 22
326.1980468061937
 32
0.0
 13
660.70419093510134
 23
326.1980468061937
 33
0.0
  0
LINE
  5
FC4
  8
HIDDED
  6
HIDDEN
 10
706.70419093510134
 20
327.19804680619359
 30
0.0
 11
736.70419093510134
 21
327.19804680619359
 31
0.0
  0
TEXT
  5
FC5
  8
DIM
  6
CONTINUOUS
 10
659.20419093510134
 20
331.86377122659292
 30
0.0
 40
3.0
  1
1
 50
90.0
  7
ROMANSS
 72
     1
 11
657.70419093510134
 21
332.22091408373581
 31
0.0
 73
     2
  0
LINE
  5
FC6
  8
DIM
  6
CONTINUOUS
 10
721.70419093510122
 20
476.42816315784069
 30
0.0
 11
721.70419093510122
 21
453.14853577345991
 31
0.0
  0
ARC
  5
FC7
  8
DIM
  6
CONTINUOUS
 10
721.70419093510145
 20
549.41387932977455
 30
0.0
 40
94.065914908593953
 50
270.0
 51
0.0
  0
LINE
  5
FC8
  8
DIM
  6
CONTINUOUS
 10
669.48375422563333
 20
517.41387932977455
 30
0.0
 11
669.48375422563333
 21
581.41387932977455
 31
0.0
  0
LINE
  5
FC9
  8
DIM
  6
CONTINUOUS
 10
678.70419093510088
 20
514.41387932977455
 30
0.0
 11
667.54274944181645
 21
514.41387932977455
 31
0.0
  0
SOLID
  5
FCA
  8
DIM
  6
CONTINUOUS
 10
669.98375422563333
 20
517.41387932977455
 30
0.0
 11
668.98375422563333
 21
517.41387932977455
 31
0.0
 12
669.48375422563333
 22
514.41387932977455
 32
0.0
 13
669.48375422563333
 23
514.41387932977455
 33
0.0
  0
LINE
  5
FCB
  8
DIM
  6
CONTINUOUS
 10
678.70419093510088
 20
584.41387932977455
 30
0.0
 11
667.93385753719372
 21
584.41387932977455
 31
0.0
  0
SOLID
  5
FCC
  8
DIM
  6
CONTINUOUS
 10
669.98375422563333
 20
581.41387932977455
 30
0.0
 11
668.98375422563333
 21
581.41387932977455
 31
0.0
 12
669.48375422563333
 22
584.41387932977455
 32
0.0
 13
669.48375422563333
 23
584.41387932977455
 33
0.0
  0
TEXT
  5
FCD
  8
DIM
  6
CONTINUOUS
 10
667.98375422563333
 20
556.83186902168461
 30
0.0
 40
3.0
  1
70
 50
90.0
  7
ROMANSS
 72
     1
 11
666.48375422563333
 21
559.26044045025606
 31
0.0
 73
     2
  0
TEXT
  5
FD2
  8
LOGO
 62
     6
 10
1011.326039869467
 20
17.01821090553933
 30
0.0
 40
16.81940101895993
  1
作動角度
 41
0.9
  7
CHINESET
 72
     4
 11
1041.600961703595
 21
24.90299490520021
 31
0.0
  0
LINE
  5
FD3
  8
LOGO
 62
     6
 10
1085.0337391342839
 20
-6.6333820053495307
 30
0.0
 11
998.16818427290593
 21
-6.6333820053496586
 31
0.0
  0
LINE
  5
FD4
  8
LOGO
 62
     6
 10
1085.0337391342839
 20
39.619970796790291
 30
0.0
 11
998.16818427290593
 21
39.619970796790291
 31
0.0
  0
TEXT
  5
FD5
  8
LOGO
  6
CONTINUOUS
 62
     6
 10
1001.955230730332
 20
0.374701752550314
 30
0.0
 40
10.51212563684995
  1
Rotary angle
 41
0.8
  7
CHINESET
 72
     4
 11
1041.600961703595
 21
3.8787436315002992
 31
0.0
  0
TEXT
  5
FD6
  8
LOGO
  6
CONTINUOUS
 62
     7
 10
1026.5435937138809
 20
66.713081118359895
 30
0.0
 40
21.02425127369991
  1
90
  7
CHINESET
 72
     1
 11
1043.563225697352
 21
77.225206755209854
 31
0.0
 73
     2
  0
LINE
  5
FD7
  8
LOGO
 62
     6
 10
1076.6240386248039
 20
96.385449235780058
 30
0.0
 11
1006.577884782386
 21
96.385449235780058
 31
0.0
  0
LINE
  5
FD8
  8
LOGO
 62
     6
 10
1076.6240386248039
 20
58.541796943120168
 30
0.0
 11
1006.577884782386
 21
58.541796943120197
 31
0.0
  0
LINE
  5
FD9
  8
LOGO
 62
     1
 10
1107.0
 20
109.0
 30
0.0
 11
327.0
 21
109.0
 31
0.0
  0
LINE
  5
FDA
  8
LOGO
 62
     1
 10
1107.0
 20
-17.14550764219949
 30
0.0
 11
327.0
 21
-17.14550764219949
 31
0.0
  0
LINE
  5
FDB
  8
LOGO
  6
CONTINUOUS
 62
     6
 10
566.84603729086734
 20
75.474724720533146
 30
0.0
 11
589.80731330269123
 21
78.507635410496903
 31
0.0
  0
LINE
  5
FDC
  8
LOGO
  6
CONTINUOUS
 62
     6
 10
566.84603729086734
 20
66.891935926938373
 30
0.0
 11
589.80731330269123
 21
63.859025236974617
 31
0.0
  0
LINE
  5
FDD
  8
LOGO
 62
     1
 10
604.52011681283875
 20
83.770898471560116
 30
0.0
 11
419.5067056042796
 21
83.770898471560116
 31
0.0
  0
LINE
  5
FDE
  8
LOGO
 62
     1
 10
604.52011681283875
 20
58.541796943120197
 30
0.0
 11
419.5067056042796
 21
58.541796943120197
 31
0.0
  0
TEXT
  5
FDF
  8
LOGO
 62
     6
 10
539.34701783646074
 20
90.07817385367008
 30
0.0
 40
12.61455076421994
  1
1 : 1
  7
CHINESET
 72
     1
 11
561.5726548972292
 21
96.385449235780058
 31
0.0
 73
     2
  0
TEXT
  5
FE0
  8
LOGO
 62
     6
 10
539.34701783646074
 20
39.619970796790291
 30
0.0
 40
12.61455076421994
  1
m/m
  7
CHINESET
 72
     1
 11
561.5726548972292
 21
45.927246178900262
 31
0.0
 73
     2
  0
LINE
  5
FE1
  8
LOGO
 62
     1
 10
604.52011681283875
 20
33.312695414680427
 30
0.0
 11
326.99999999999989
 21
33.312695414680427
 31
0.0
  0
TEXT
  5
FE2
  8
LOGO
  6
CONTINUOUS
 62
     5
 10
331.12895545054369
 20
7.6355869639408382
 30
0.0
 40
18.92182614632992
  1
金器工業股份有限公司
 41
0.8
  7
LOGO
  0
TEXT
  5
FE3
  8
LOGO
  6
CONTINUOUS
 62
     5
 10
336.54702520311503
 20
-11.28994637678529
 30
0.0
 40
12.61455076421994
  1
MINDMAN INDUSTRIAL CO.,LTD
 41
0.85
  7
CHINESET
  0
SOLID
  5
FE4
  8
LOGO
 62
     5
 10
340.08779886602071
 20
54.282590520285581
 30
0.0
 11
345.54199961065711
 21
54.282590520283769
 31
0.0
 12
368.29918202793579
 22
106.00345965046171
 32
0.0
 13
373.7533827725718
 23
106.0034596504582
 33
0.0
  0
SOLID
  5
FE5
  8
LOGO
 62
     5
 10
347.79891026361349
 20
54.282590520285581
 30
0.0
 11
353.25311100824928
 21
54.282590520285581
 31
0.0
 12
373.7533827725718
 22
101.8657901200457
 32
0.0
 13
368.29918202793579
 23
81.867054056377043
 33
0.0
  0
SOLID
  5
FE6
  8
LOGO
 62
     2
 10
345.54199961065711
 20
54.282590520283769
 30
0.0
 11
347.79891026361349
 21
54.282590520285581
 31
0.0
 12
373.7533827725718
 22
106.0034596504582
 32
0.0
 13
376.01029342552641
 23
106.0034596504582
 33
0.0
  0
SOLID
  5
FE7
  8
LOGO
 62
     5
 10
345.69762206443733
 20
44.878796132980682
 30
0.0
 11
347.5783809418964
 21
44.878796132980682
 31
0.0
 12
345.69762206443733
 22
35.47500174567751
 32
0.0
 13
347.5783809418964
 23
35.47500174567751
 33
0.0
  0
SOLID
  5
FE8
  8
LOGO
 62
     5
 10
331.34337753850741
 20
35.47500174567751
 30
0.0
 11
333.22413641597029
 21
35.47500174567751
 31
0.0
 12
338.5204998014712
 22
44.878796132980682
 32
0.0
 13
340.40125867893079
 23
44.878796132980682
 33
0.0
  0
SOLID
  5
FE9
  8
LOGO
 62
     5
 10
338.5204998014712
 20
44.878796132980682
 30
0.0
 11
340.40125867893079
 21
44.878796132980682
 31
0.0
 12
338.5204998014712
 22
35.47500174567751
 32
0.0
 13
340.40125867893079
 23
35.47500174567751
 33
0.0
  0
SOLID
  5
FEA
  8
LOGO
 62
     5
 10
338.5204998014712
 20
35.47500174567751
 30
0.0
 11
340.40125867893079
 21
35.47500174567751
 31
0.0
 12
345.69762206443733
 22
44.878796132980682
 32
0.0
 13
347.5783809418964
 23
44.878796132980682
 33
0.0
  0
LINE
  5
FEB
  8
LOGO
 62
     1
 10
327.0
 20
-17.14550764219949
 30
0.0
 11
327.0
 21
109.0
 31
0.0
  0
TEXT
  5
FEC
  8
LOGO
 62
     6
 10
429.90807848888409
 20
90.084381801880824
 30
0.0
 40
12.61455076421994
  1
比例 Scale:
 41
0.9
  7
CHINESET
 72
     4
 11
469.96490866115931
 21
96.385449235780058
 31
0.0
  0
TEXT
  5
FED
  8
LOGO
 62
     6
 10
434.31753976048418
 20
65.026516178253772
 30
0.0
 40
12.61455076421994
  1
投影 View:
 41
0.9
  7
CHINESET
 72
     4
 11
469.96490866115931
 21
71.156347707340146
 31
0.0
  0
TEXT
  5
FEE
  8
LOGO
 62
     6
 10
435.5508373575218
 20
39.619970796790291
 30
0.0
 40
12.61455076421994
  1
單位 Unit:
 41
0.9
  7
CHINESET
 72
     4
 11
469.96490866115931
 21
45.927246178900262
 31
0.0
  0
POLYLINE
  5
FEF
  8
LOGO
 62
     5
 66
     1
 10
0.0
 20
0.0
 30
0.0
 70
     1
 40
1.883772914123512
 41
1.883772914123512
  0
VERTEX
  5
143A
  8
LOGO
 62
     5
 10
391.48930549388592
 20
40.176898939328169
 30
0.0
 42
1.0
  0
VERTEX
  5
143B
  8
LOGO
 62
     5
 10
399.0243971503798
 20
40.176898939328169
 30
0.0
 42
1.0
  0
SEQEND
  5
143C
  8
LOGO
 62
     5
  0
LINE
  5
FF0
  8
LOGO
 62
     5
 10
409.67587733207552
 20
35.47500174567751
 30
0.0
 11
409.67587733207552
 21
41.117278378058643
 31
0.0
  0
SOLID
  5
FF1
  8
LOGO
 62
     5
 10
398.07780156244081
 20
44.878796132980682
 30
0.0
 11
399.95856043990011
 21
44.878796132980682
 31
0.0
 12
398.07780156244081
 22
35.47500174567751
 32
0.0
 13
399.95856043990011
 23
35.47500174567751
 33
0.0
  0
SOLID
  5
FF2
  8
LOGO
 62
     5
 10
402.15284182223149
 20
35.47500174567751
 30
0.0
 11
404.0336006996942
 21
35.47500174567751
 31
0.0
 12
402.15284182223149
 22
44.878796132980682
 32
0.0
 13
404.0336006996942
 23
44.878796132980682
 33
0.0
  0
SOLID
  5
FF3
  8
LOGO
 62
     5
 10
407.79511845461639
 20
41.117278378058643
 30
0.0
 11
409.67587733207552
 21
41.117278378058387
 31
0.0
 12
407.79511845461639
 22
35.47500174567751
 32
0.0
 13
409.67587733207552
 23
35.47500174567751
 33
0.0
  0
SOLID
  5
FF4
  8
LOGO
 62
     5
 10
371.12013226824081
 20
47.699934449173021
 30
0.0
 11
373.00089114569982
 21
47.699934449173021
 31
0.0
 12
371.12013226824081
 22
35.47500174567751
 32
0.0
 13
373.00089114569982
 23
35.47500174567751
 33
0.0
  0
SOLID
  5
FF5
  8
LOGO
 62
     5
 10
375.19517252803672
 20
44.878796132980682
 30
0.0
 11
377.07593140549602
 21
44.878796132980682
 31
0.0
 12
375.19517252803672
 22
35.47500174567751
 32
0.0
 13
377.07593140549602
 23
35.47500174567751
 33
0.0
  0
SOLID
  5
FF6
  8
LOGO
 62
     5
 10
380.83744916041798
 20
41.117278378058643
 30
0.0
 11
382.71820803787739
 21
41.117278378058643
 31
0.0
 12
380.83744916041798
 22
35.47500174567751
 32
0.0
 13
382.71820803787739
 23
35.47500174567751
 33
0.0
  0
SOLID
  5
FF7
  8
LOGO
 62
     5
 10
386.47972579279951
 20
41.117278378058643
 30
0.0
 11
388.36048467025859
 21
41.117278378058643
 31
0.0
 12
386.47972579279951
 22
35.47500174567395
 32
0.0
 13
388.36048467025859
 23
35.47500174567395
 33
0.0
  0
LINE
  5
FF8
  8
LOGO
 62
     1
 10
419.5067056042796
 20
33.312695414680292
 30
0.0
 11
419.5067056042796
 21
109.0
 31
0.0
  0
SOLID
  5
FF9
  8
LOGO
 62
     5
 10
353.87977986621979
 20
44.878796132980682
 30
0.0
 11
355.76053874367881
 21
44.878796132980682
 31
0.0
 12
353.87977986621979
 22
35.47500174567751
 32
0.0
 13
355.76053874367881
 23
35.47500174567751
 33
0.0
  0
SOLID
  5
FFA
  8
LOGO
 62
     5
 10
359.5220564986007
 20
41.117278378058643
 30
0.0
 11
361.40281537606319
 21
41.117278378058643
 31
0.0
 12
359.5220564986007
 22
35.47500174567751
 32
0.0
 13
361.40281537606319
 23
35.47500174567751
 33
0.0
  0
SOLID
  5
FFB
  8
LOGO
 62
     5
 10
349.80473960642331
 20
44.878796132980682
 30
0.0
 11
351.6854984838879
 21
44.878796132980682
 31
0.0
 12
349.80473960642331
 22
35.47500174567395
 32
0.0
 13
351.6854984838879
 23
35.47500174567751
 33
0.0
  0
POLYLINE
  5
FFC
  8
LOGO
 62
     5
 66
     1
 10
0.0
 20
0.0
 30
0.0
 70
     1
 40
1.883772914123512
 41
1.883772914123512
  0
VERTEX
  5
143D
  8
LOGO
 62
     5
 10
364.53163619968751
 20
40.176898939328169
 30
0.0
 42
1.0
  0
VERTEX
  5
143E
  8
LOGO
 62
     5
 10
372.06672785618173
 20
40.176898939328169
 30
0.0
 42
1.0
  0
SEQEND
  5
143F
  8
LOGO
 62
     5
  0
POLYLINE
  5
FFD
  8
LOGO
 62
     5
 66
     1
 10
0.0
 20
0.0
 30
0.0
 40
1.883772914123512
 41
1.883772914123512
  0
VERTEX
  5
1440
  8
LOGO
 62
     5
 10
408.74001894834078
 20
41.117278378058671
 30
0.0
 42
1.0
  0
VERTEX
  5
1441
  8
LOGO
 62
     5
 10
403.08870020596999
 20
41.117278378058671
 30
0.0
 42
1.0
  0
SEQEND
  5
1442
  8
LOGO
 62
     5
  0
SOLID
  5
FFE
  8
LOGO
 62
     5
 10
404.22167658743962
 20
54.282590520283769
 30
0.0
 11
409.67587733207552
 21
54.282590520283769
 31
0.0
 12
404.22167658743962
 22
106.0034596504582
 32
0.0
 13
409.67587733207552
 23
106.00345965046171
 33
0.0
  0
SOLID
  5
FFF
  8
LOGO
 62
     5
 10
376.01029342552641
 20
106.0034596504582
 30
0.0
 11
381.4644941701622
 21
106.00345965046171
 31
0.0
 12
376.01029342552641
 22
58.420260050697969
 32
0.0
 13
381.4644941701622
 23
78.418996114366749
 33
0.0
  0
SOLID
  5
1000
  8
LOGO
 62
     5
 10
376.01029342552641
 20
58.420260050697969
 30
0.0
 11
381.4644941701622
 21
78.418996114366749
 31
0.0
 12
401.96476593448477
 22
106.00345965046171
 32
0.0
 13
396.51056518984842
 23
106.00345965046171
 33
0.0
  0
SOLID
  5
1001
  8
LOGO
 62
     5
 10
401.96476593448477
 20
101.8657901200457
 30
0.0
 11
396.51056518984842
 21
81.867054056377043
 31
0.0
 12
401.96476593448477
 22
54.282590520283769
 32
0.0
 13
396.51056518984842
 23
54.282590520283769
 33
0.0
  0
SOLID
  5
1002
  8
LOGO
 62
     2
 10
401.96476593448477
 20
106.00345965046171
 30
0.0
 11
404.22167658743962
 21
106.0034596504582
 31
0.0
 12
401.96476593448477
 22
54.282590520283769
 32
0.0
 13
404.22167658743962
 23
54.282590520283769
 33
0.0
  0
SOLID
  5
1003
  8
LOGO
 62
     5
 10
368.29918202793579
 20
54.282590520285581
 30
0.0
 11
373.7533827725718
 21
54.282590520285581
 31
0.0
 12
368.29918202793579
 22
81.867054056377043
 32
0.0
 13
373.7533827725718
 23
101.8657901200457
 33
0.0
  0
SOLID
  5
1004
  8
LOGO
 62
     2
 10
373.7533827725718
 20
106.0034596504582
 30
0.0
 11
376.01029342552641
 21
106.0034596504582
 31
0.0
 12
373.7533827725718
 22
54.282590520285581
 32
0.0
 13
376.01029342552641
 23
54.282590520285581
 33
0.0
  0
SOLID
  5
1005
  8
LOGO
 62
     5
 10
376.01029342552641
 20
54.282590520285581
 30
0.0
 11
381.4644941701622
 21
54.282590520285581
 31
0.0
 12
401.96476593448477
 22
101.8657901200457
 32
0.0
 13
396.51056518984842
 23
81.867054056377043
 33
0.0
  0
SOLID
  5
1006
  8
LOGO
 62
     2
 10
373.7533827725718
 20
54.282590520285581
 30
0.0
 11
376.01029342552641
 21
54.282590520285581
 31
0.0
 12
401.96476593448477
 22
106.00345965046171
 32
0.0
 13
404.22167658743962
 23
106.0034596504582
 33
0.0
  0
POLYLINE
  5
1007
  8
LOGO
 62
     5
 66
     1
 10
0.0
 20
0.0
 30
0.0
 40
1.883772914123512
 41
1.883772914123512
  0
VERTEX
  5
1443
  8
LOGO
 62
     5
 10
381.78234965414242
 20
41.117278378058671
 30
0.0
 42
1.0
  0
VERTEX
  5
1444
  8
LOGO
 62
     5
 10
376.13103091177157
 20
41.117278378058671
 30
0.0
 42
1.0
  0
SEQEND
  5
1445
  8
LOGO
 62
     5
  0
POLYLINE
  5
1008
  8
LOGO
 62
     5
 66
     1
 10
0.0
 20
0.0
 30
0.0
 40
1.883772914123512
 41
1.883772914123512
  0
VERTEX
  5
1446
  8
LOGO
 62
     5
 10
360.46695699232549
 20
41.117278378058671
 30
0.0
 42
1.0
  0
VERTEX
  5
1447
  8
LOGO
 62
     5
 10
354.8156382499547
 20
41.117278378058671
 30
0.0
 42
1.0
  0
SEQEND
  5
1448
  8
LOGO
 62
     5
  0
SOLID
  5
1009
  8
LOGO
 62
     5
 10
349.80473960642331
 20
46.195327347202443
 30
0.0
 11
351.6854984838879
 21
46.195327347202443
 31
0.0
 12
349.80473960642331
 22
47.699934449173021
 32
0.0
 13
351.6854984838879
 23
47.699934449173021
 33
0.0
  0
POLYLINE
  5
100A
  8
LOGO
 62
     5
 66
     1
 10
0.0
 20
0.0
 30
0.0
 70
     1
  0
VERTEX
  5
1449
  8
LOGO
 62
     5
 10
392.43571300594232
 20
40.176898939329071
 30
0.0
 42
1.0000000573306349
  0
VERTEX
  5
144A
  8
LOGO
 62
     5
 10
398.07798963832602
 20
40.176898939329071
 30
0.0
 42
1.0000000573306349
  0
SEQEND
  5
144B
  8
LOGO
 62
     5
  0
CIRCLE
  5
100B
  8
LOGO
 62
     5
 10
395.25685132213403
 20
40.176898939329092
 30
0.0
 40
2.821138316191373
  0
POLYLINE
  5
100C
  8
LOGO
 62
     5
 66
     1
 10
0.0
 20
0.0
 30
0.0
 40
1.883772914123512
 41
1.883772914123512
  0
VERTEX
  5
144C
  8
LOGO
 62
     5
 10
387.42462628652351
 20
41.117278378058671
 30
0.0
 42
1.0
  0
VERTEX
  5
144D
  8
LOGO
 62
     5
 10
381.77330754415289
 20
41.117278378058671
 30
0.0
 42
1.0
  0
SEQEND
  5
144E
  8
LOGO
 62
     5
  0
LINE
  5
100D
  8
LOGO
 62
     1
 10
520.42311171803908
 20
33.312695414680292
 30
0.0
 11
520.42311171803908
 21
109.0
 31
0.0
  0
CIRCLE
  5
100E
  8
LOGO
  6
CONTINUOUS
 62
     6
 10
543.78053026106056
 20
71.18333032373576
 30
0.0
 40
7.324305086761143
  0
CIRCLE
  5
100F
  8
LOGO
  6
CONTINUOUS
 62
     6
 10
543.78053026106056
 20
71.18333032373576
 30
0.0
 40
4.2913943967973927
  0
LINE
  5
1010
  8
LOGO
 62
     6
 10
566.84603729086746
 20
66.891935926938373
 30
0.0
 11
566.84603729086734
 21
75.474724720533175
 31
0.0
  0
TEXT
  5
1011
  8
LOGO
  6
CONTINUOUS
 62
     6
 10
808.46277055857843
 20
-1.3773191869245649
 30
0.0
 40
10.51212563684995
  1
Model
  7
CHINESET
 72
     4
 11
828.48586700972135
 21
3.878743631500412
 31
0.0
  0
TEXT
  5
1012
  8
LOGO
  6
CONTINUOUS
 62
     7
 10
790.44198375254985
 20
66.951497452600165
 30
0.0
 40
21.02425127369991
  1
MRTF
  7
CHINESET
 72
     1
 11
828.48586700972135
 21
77.463623089450124
 31
0.0
 73
     2
  0
LINE
  5
1013
  8
LOGO
 62
     6
 10
878.94407006660094
 20
96.385449235780058
 30
0.0
 11
778.02766395284129
 21
96.385449235780058
 31
0.0
  0
LINE
  5
1014
  8
LOGO
 62
     6
 10
878.94407006660094
 20
58.541796943120197
 30
0.0
 11
778.02766395284129
 21
58.541796943120197
 31
0.0
  0
LINE
  5
1015
  8
LOGO
 62
     6
 10
870.53436955712095
 20
39.619970796790291
 30
0.0
 11
786.43736446232128
 21
39.619970796790291
 31
0.0
  0
LINE
  5
1016
  8
LOGO
 62
     6
 10
870.53436955712095
 20
-6.63338200534956
 30
0.0
 11
786.43736446232128
 21
-6.6333820053496586
 31
0.0
  0
TEXT
  5
1017
  8
LOGO
 62
     7
 10
614.84574323729476
 20
77.416033784465711
 30
0.0
 40
25.229101528439891
  1
訂購代號:
  7
CHINESET
  0
TEXT
  5
1018
  8
LOGO
 62
     7
 10
611.82820360370602
 20
53.737799651187657
 30
0.0
 40
16.81940101895993
  1
Order example:
 41
0.8
  7
CHINESET
  0
LINE
  5
1019
  8
LOGO
 62
     1
 10
604.52011681283875
 20
-17.14550764219949
 30
0.0
 11
604.52011681283875
 21
109.0
 31
0.0
  0
LINE
  5
101A
  8
LOGO
 62
     6
 10
589.80731330269123
 20
63.859025236974617
 30
0.0
 11
589.80731330269123
 21
78.507635410496903
 31
0.0
  0
LINE
  5
101B
  8
LOGO
 62
     6
 10
786.43736446232128
 20
39.619970796790291
 30
0.0
 11
786.43736446232128
 21
-6.6333820053496586
 31
0.0
  0
LINE
  5
101C
  8
LOGO
 62
     6
 10
778.02766395284129
 20
96.385449235780058
 30
0.0
 11
778.02766395284129
 21
58.541796943120197
 31
0.0
  0
TEXT
  5
101D
  8
LOGO
  6
CONTINUOUS
 62
     7
 10
927.99048821296788
 20
66.713081118360151
 30
0.0
 40
21.02425127369991
  1
63
  7
CHINESET
 72
     1
 11
945.01012019643929
 21
77.225206755210095
 31
0.0
 73
     2
  0
LINE
  5
101E
  8
LOGO
 62
     6
 10
976.80314103837338
 20
-6.6333820053493042
 30
0.0
 11
909.29257136699005
 21
-6.6333820053494028
 31
0.0
  0
LINE
  5
101F
  8
LOGO
 62
     6
 10
976.80314103837338
 20
58.541796943120453
 30
0.0
 11
909.29257136699005
 21
58.541796943120453
 31
0.0
  0
LINE
  5
1020
  8
LOGO
 62
     6
 10
976.80314103837338
 20
39.619970796790511
 30
0.0
 11
909.29257136699005
 21
39.619970796790511
 31
0.0
  0
LINE
  5
1021
  8
LOGO
 62
     6
 10
976.80314103837338
 20
96.385449235780527
 30
0.0
 11
909.29257136699005
 21
96.385449235780271
 31
0.0
  0
LINE
  5
1022
  8
LOGO
 62
     6
 10
909.29257136699005
 20
39.619970796790511
 30
0.0
 11
909.29257136699005
 21
-6.6333820053493042
 31
0.0
  0
LINE
  5
1023
  8
LOGO
 62
     6
 10
870.53436955712095
 20
39.619970796790291
 30
0.0
 11
870.53436955712095
 21
-6.6333820053495307
 31
0.0
  0
TEXT
  5
1024
  8
LOGO
 62
     6
 10
811.66646599076125
 20
16.92371213833157
 30
0.0
 40
16.81940101895993
  1
型式
  7
CHINESET
 72
     4
 11
828.48586700972135
 21
24.902994905200352
 31
0.0
  0
LINE
  5
1025
  8
LOGO
 62
     6
 10
828.48586700972135
 20
58.541796943120197
 30
0.0
 11
828.48586700972135
 21
39.619970796790291
 31
0.0
  0
LINE
  5
1026
  8
LOGO
 62
     6
 10
909.29257136699005
 20
96.385449235780271
 30
0.0
 11
909.29257136699005
 21
58.541796943120453
 31
0.0
  0
LINE
  5
1027
  8
LOGO
 62
     6
 10
878.94407006660094
 20
96.385449235780058
 30
0.0
 11
878.94407006660094
 21
58.541796943120197
 31
0.0
  0
LINE
  5
1028
  8
LOGO
  6
CONTINUOUS
 62
     7
 10
886.03772017988786
 20
77.32957489231903
 30
0.0
 11
902.74809617881272
 21
77.32957489231903
 31
0.0
  0
LINE
  5
1029
  8
LOGO
 62
     6
 10
998.16818427290593
 20
39.619970796790291
 30
0.0
 11
998.16818427290593
 21
-6.6333820053496586
 31
0.0
  0
LINE
  5
102A
  8
LOGO
 62
     6
 10
976.80314103837338
 20
39.619970796790511
 30
0.0
 11
976.80314103837338
 21
-6.6333820053491763
 31
0.0
  0
TEXT
  5
102B
  8
LOGO
  6
CONTINUOUS
 62
     6
 10
930.03284350943886
 20
-1.377319186924423
 30
0.0
 40
10.51212563684995
  1
Bore
 41
0.8
  7
CHINESET
 72
     4
 11
943.04785620268171
 21
3.878743631500555
 31
0.0
  0
TEXT
  5
102C
  8
LOGO
 62
     6
 10
926.96430397830125
 20
16.493294395720479
 30
0.0
 40
16.81940101895993
  1
內徑
 41
0.9
  7
CHINESET
 72
     4
 11
943.04785620268171
 21
24.902994905200462
 31
0.0
  0
LINE
  5
102D
  8
LOGO
  6
CONTINUOUS
 62
     7
 10
983.32303359528385
 20
77.329574892319243
 30
0.0
 11
1000.033409594208
 21
77.329574892319243
 31
0.0
  0
LINE
  5
102E
  8
LOGO
 62
     6
 10
976.80314103837338
 20
96.385449235780527
 30
0.0
 11
976.80314103837338
 21
58.541796943120453
 31
0.0
  0
LINE
  5
102F
  8
LOGO
 62
     6
 10
943.04785523310863
 20
58.541796943120453
 30
0.0
 11
943.04785523310863
 21
39.619970796790511
 31
0.0
  0
LINE
  5
1030
  8
LOGO
 62
     6
 10
1006.577884782386
 20
96.385449235780058
 30
0.0
 11
1006.577884782386
 21
58.541796943120197
 31
0.0
  0
LINE
  5
1031
  8
LOGO
 62
     6
 10
1042.49151080812
 20
58.541796943120197
 30
0.0
 11
1042.49151080812
 21
39.619970796790291
 31
0.0
  0
LINE
  5
1037
  8
LOGO
 62
     6
 10
1085.0337391342839
 20
39.619970796790291
 30
0.0
 11
1085.0337391342839
 21
-6.8077878149958622
 31
0.0
  0
LINE
  5
1038
  8
LOGO
 62
     6
 10
1076.6240386248039
 20
96.385449235780058
 30
0.0
 11
1076.6240386248039
 21
58.541796943120168
 31
0.0
  0
LINE
  5
1041
  8
LOGO
 62
     1
 10
1107.0
 20
-17.14550764219949
 30
0.0
 11
1107.0
 21
109.0
 31
0.0
  0
ENDSEC
  0
EOF
