  0
SECTION
  2
HEADER
  9
$ACADVER
  1
AC1009
  9
$INSBASE
 10
0.0
 20
0.0
 30
0.0
  9
$EXTMIN
 10
129.9426290601757
 20
-22.99465806758348
 30
-0.0015258207003583
  9
$EXTMAX
 10
810.03296090526635
 20
517.02182136175895
 30
0.0000000349246037
  9
$LIMMIN
 10
0.0
 20
0.0
  9
$LIMMAX
 10
840.0
 20
594.0
  9
$ORTHOMODE
 70
     1
  9
$REGENMODE
 70
     1
  9
$FILLMODE
 70
     1
  9
$QTEXTMODE
 70
     0
  9
$MIRRTEXT
 70
     1
  9
$DRAGMODE
 70
     2
  9
$LTSCALE
 40
1.0
  9
$OSMODE
 70
    39
  9
$ATTMODE
 70
     1
  9
$TEXTSIZE
 40
3.0
  9
$TRACEWID
 40
0.05
  9
$TEXTSTYLE
  7
ITALICT
  9
$CLAYER
  8
HIDDEN
  9
$CELTYPE
  6
CONTINUOUS
  9
$CECOLOR
 62
   256
  9
$DIMSCALE
 40
1.0
  9
$DIMASZ
 40
3.0
  9
$DIMEXO
 40
1.0
  9
$DIMDLI
 40
1.6471290567571920E+015
  9
$DIMRND
 40
0.0
  9
$DIMDLE
 40
0.0
  9
$DIMEXE
 40
1.0
  9
$DIMTP
 40
0.15
  9
$DIMTM
 40
-0.1
  9
$DIMTXT
 40
3.0
  9
$DIMCEN
 40
2.0
  9
$DIMTSZ
 40
0.0
  9
$DIMTOL
 70
     0
  9
$DIMLIM
 70
     0
  9
$DIMTIH
 70
     0
  9
$DIMTOH
 70
     0
  9
$DIMSE1
 70
     0
  9
$DIMSE2
 70
     0
  9
$DIMTAD
 70
     1
  9
$DIMZIN
 70
     0
  9
$DIMBLK
  1

  9
$DIMASO
 70
     0
  9
$DIMSHO
 70
     0
  9
$DIMPOST
  1

  9
$DIMAPOST
  1

  9
$DIMALT
 70
     0
  9
$DIMALTD
 70
     2
  9
$DIMALTF
 40
25.399999999999999
  9
$DIMLFAC
 40
1.0
  9
$DIMTOFL
 70
     1
  9
$DIMTVP
 40
1.0
  9
$DIMTIX
 70
     0
  9
$DIMSOXD
 70
     0
  9
$DIMSAH
 70
     0
  9
$DIMBLK1
  1

  9
$DIMBLK2
  1

  9
$DIMSTYLE
  2
STANDARD
  9
$DIMCLRD
 70
     0
  9
$DIMCLRE
 70
     0
  9
$DIMCLRT
 70
     0
  9
$DIMTFAC
 40
1.0
  9
$DIMGAP
 40
0.09
  9
$LUNITS
 70
     2
  9
$LUPREC
 70
     2
  9
$SKETCHINC
 40
0.1
  9
$FILLETRAD
 40
0.75
  9
$AUNITS
 70
     0
  9
$AUPREC
 70
     2
  9
$MENU
  1
ACAD
  9
$ELEVATION
 40
0.0
  9
$PELEVATION
 40
0.0
  9
$THICKNESS
 40
0.0
  9
$LIMCHECK
 70
     0
  9
$BLIPMODE
 70
     0
  9
$CHAMFERA
 40
0.0
  9
$CHAMFERB
 40
0.0
  9
$SKPOLY
 70
     1
  9
$TDCREATE
 40
2450580.7034460641
  9
$TDUPDATE
 40
2451929.4885694091
  9
$TDINDWG
 40
0.0940337384
  9
$TDUSRTIMER
 40
0.0940337384
  9
$USRTIMER
 70
     1
  9
$ANGBASE
 50
0.0
  9
$ANGDIR
 70
     0
  9
$PDMODE
 70
     0
  9
$PDSIZE
 40
0.0
  9
$PLINEWID
 40
0.0
  9
$COORDS
 70
     2
  9
$SPLFRAME
 70
     0
  9
$SPLINETYPE
 70
     6
  9
$SPLINESEGS
 70
     8
  9
$ATTDIA
 70
     0
  9
$ATTREQ
 70
     1
  9
$HANDLING
 70
 12289
  9
$HANDSEED
  5
150D
  9
$SURFTAB1
 70
     6
  9
$SURFTAB2
 70
     6
  9
$SURFTYPE
 70
     6
  9
$SURFU
 70
     6
  9
$SURFV
 70
     6
  9
$UCSNAME
  2

  9
$UCSORG
 10
0.0
 20
0.0
 30
0.0
  9
$UCSXDIR
 10
1.0
 20
0.0
 30
0.0
  9
$UCSYDIR
 10
0.0
 20
1.0
 30
0.0
  9
$PUCSNAME
  2

  9
$PUCSORG
 10
0.0
 20
0.0
 30
0.0
  9
$PUCSXDIR
 10
1.0
 20
0.0
 30
0.0
  9
$PUCSYDIR
 10
0.0
 20
1.0
 30
0.0
  9
$USERI1
 70
     0
  9
$USERI2
 70
-31485
  9
$USERI3
 70
     0
  9
$USERI4
 70
     0
  9
$USERI5
 70
     0
  9
$USERR1
 40
0.0
  9
$USERR2
 40
0.0
  9
$USERR3
 40
0.0
  9
$USERR4
 40
0.0
  9
$USERR5
 40
0.0
  9
$WORLDVIEW
 70
     1
  9
$SHADEDGE
 70
     3
  9
$SHADEDIF
 70
    70
  9
$TILEMODE
 70
     1
  9
$MAXACTVP
 70
    64
  9
$PLIMCHECK
 70
     0
  9
$PEXTMIN
 10
1.0000000000000000E+020
 20
1.0000000000000000E+020
 30
1.0000000000000000E+020
  9
$PEXTMAX
 10
-1.0000000000000000E+020
 20
-1.0000000000000000E+020
 30
-1.0000000000000000E+020
  9
$PLIMMIN
 10
0.0
 20
0.0
  9
$PLIMMAX
 10
12.0
 20
9.0
  9
$UNITMODE
 70
     0
  9
$VISRETAIN
 70
     1
  9
$PLINEGEN
 70
     0
  9
$PSLTSCALE
 70
     0
  0
ENDSEC
  0
SECTION
  2
TABLES
  0
TABLE
  2
VPORT
 70
     2
  0
VPORT
  2
*ACTIVE
 70
     0
 10
0.0
 20
0.0
 11
1.0
 21
1.0
 12
469.9877949827212
 22
247.0135816470877
 13
0.0
 23
0.0
 14
1.0
 24
1.0
 15
0.0
 25
0.0
 16
0.0
 26
0.0
 36
1.0
 17
0.0
 27
0.0
 37
0.0
 40
545.9725435406956
 41
1.7274401473296499
 42
1.0
 43
0.0
 44
0.0
 50
0.0
 51
0.0
 71
     0
 72
   100
 73
     1
 74
     1
 75
     0
 76
     0
 77
     0
 78
     0
  0
ENDTAB
  0
TABLE
  2
LTYPE
 70
     3
  0
LTYPE
  2
CONTINUOUS
 70
     0
  3
Solid line
 72
    65
 73
     0
 40
0.0
  0
LTYPE
  2
CENTER
 70
     0
  3
_______________ _ _______________ _ ___________
 72
    65
 73
     4
 40
18.0
 49
15.0
 49
-1.0
 49
1.0
 49
-1.0
  0
LTYPE
  2
HIDDEN
 70
     0
  3
___ ___ ___ ___ ___ ___ ___ ___ ___ ___ 
 72
    65
 73
     2
 40
4.0
 49
3.0
 49
-1.0
  0
ENDTAB
  0
TABLE
  2
LAYER
 70
     5
  0
LAYER
  2
0
 70
     0
 62
     7
  6
CONTINUOUS
  0
LAYER
  2
HIDDEN
 70
     0
 62
     6
  6
HIDDEN
  0
LAYER
  2
DIM
 70
     0
 62
     5
  6
CONTINUOUS
  0
LAYER
  2
CENTER
 70
     0
 62
     1
  6
CENTER
  0
LAYER
  2
LOGO
 70
     0
 62
     7
  6
CONTINUOUS
  0
ENDTAB
  0
TABLE
  2
STYLE
 70
     8
  0
STYLE
  2
STANDARD
 70
     0
 40
0.0
 41
1.0
 50
0.0
 71
     0
 42
3.0
  3
txt
  4

  0
STYLE
  2
ITALICT
 70
     0
 40
0.0
 41
1.0
 50
0.0
 71
     0
 42
3.0
  3
ITALICT.SHX
  4

  0
STYLE
  2
ROMANSS
 70
     0
 40
0.0
 41
1.0
 50
0.0
 71
     0
 42
3.0
  3
ROMANSS.SHX
  4
LMP
  0
STYLE
  2
CHINESET
 70
     0
 40
0.0
 41
1.0
 50
0.0
 71
     0
 42
4.0
  3
C:\r13\com\fonts\simplex.shx
  4
C:\r13\com\fonts\chineset.shx
  0
STYLE
  2
LOGO
 70
     0
 40
0.0
 41
1.0
 50
0.0
 71
     0
 42
5.0
  3
txt
  4

  0
ENDTAB
  0
TABLE
  2
VIEW
 70
     0
  0
ENDTAB
  0
TABLE
  2
UCS
 70
     0
  0
ENDTAB
  0
TABLE
  2
APPID
 70
     2
  0
APPID
  2
ACAD
 70
     0
  0
APPID
  2
TCAD
 70
     0
  0
ENDTAB
  0
TABLE
  2
DIMSTYLE
 70
     1
  0
DIMSTYLE
  2
STANDARD
 70
     0
  3

  4

  5

  6

  7

 40
1.0
 41
0.18
 42
0.0625
 43
0.38
 44
0.18
 45
0.0
 46
0.0
 47
0.0
 48
0.0
140
0.18
141
0.09
142
0.0
143
25.399999999999999
144
1.0
145
0.0
146
1.0
147
0.09
 71
     0
 72
     0
 73
     1
 74
     1
 75
     0
 76
     0
 77
     0
 78
     0
170
     0
171
     2
172
     0
173
     0
174
     0
175
     0
176
     0
177
     0
178
     0
  0
ENDTAB
  0
ENDSEC
  0
SECTION
  2
BLOCKS
  0
BLOCK
  8
0
  2
$MODEL_SPACE
 70
     0
 10
0.0
 20
0.0
 30
0.0
  3
$MODEL_SPACE
  1

  0
ENDBLK
  5
3F
  8
0
  0
BLOCK
 67
     1
  8
0
  2
$PAPER_SPACE
 70
     0
 10
0.0
 20
0.0
 30
0.0
  3
$PAPER_SPACE
  1

  0
ENDBLK
  5
3D
 67
     1
  8
0
  0
ENDSEC
  0
SECTION
  2
ENTITIES
  0
LINE
  5
B25
  8
0
 62
     4
 10
810.0
 20
517.0
 30
0.0
 11
810.0
 21
87.0
 31
0.0
  0
LINE
  5
B26
  8
0
 62
     4
 10
130.0
 20
87.0
 30
0.0
 11
130.0
 21
517.0
 31
0.0
  0
LINE
  5
B27
  8
0
 62
     4
 10
810.0
 20
87.0
 30
0.0
 11
130.0
 21
87.0
 31
0.0
  0
LINE
  5
B29
  8
0
 62
     4
 10
130.0
 20
517.0
 30
0.0
 11
810.0
 21
517.0
 31
0.0
  0
LINE
  5
B32
  8
CENTER
  6
CENTER
 10
322.76071555780862
 20
168.1460982339463
 30
0.0
 11
600.37700834977977
 21
168.1460982339463
 31
0.0
  0
LINE
  5
B33
  8
0
 10
423.76071555780868
 20
192.34609823394629
 30
0.0
 11
359.76071555780862
 21
192.34609823394629
 31
0.0
  0
LINE
  5
B34
  8
0
 10
423.76071555780862
 20
143.94609823394629
 30
0.0
 11
359.76071555780868
 21
143.94609823394629
 31
0.0
  0
LINE
  5
B35
  8
0
 10
423.76071555780862
 20
156.34387393129441
 30
0.0
 11
359.76071555780868
 21
156.34387393129441
 31
0.0
  0
LINE
  5
B36
  8
0
 10
423.76071555780862
 20
179.94832253659811
 30
0.0
 11
359.76071555780868
 21
179.94832253659811
 31
0.0
  0
LINE
  5
B37
  8
CENTER
  6
CENTER
 10
322.76071555780862
 20
287.0259398252557
 30
0.0
 11
599.14813400425658
 21
287.0259398252557
 31
0.0
  0
LINE
  5
B38
  8
DIM
  6
CONTINUOUS
 10
317.05837233721871
 20
222.5259398252557
 30
0.0
 11
605.62416282147456
 21
222.5259398252557
 31
0.0
  0
LINE
  5
B39
  8
0
 10
423.76071555780862
 20
435.7468298204879
 30
0.0
 11
359.76071555780868
 21
435.7468298204879
 31
0.0
  0
LINE
  5
B3A
  8
0
 10
423.76071555780862
 20
423.34905412313969
 30
0.0
 11
359.76071555780868
 21
423.34905412313969
 31
0.0
  0
LINE
  5
B3B
  8
0
 10
423.76071555780862
 20
399.74460551783608
 30
0.0
 11
359.76071555780868
 21
399.74460551783608
 31
0.0
  0
LINE
  5
B3C
  8
0
 10
423.76071555780868
 20
387.34682982048793
 30
0.0
 11
359.76071555780862
 21
387.34682982048793
 31
0.0
  0
LINE
  5
B3D
  8
0
 10
423.76071555780862
 20
311.22593982525569
 30
0.0
 11
359.76071555780862
 21
311.22593982525569
 31
0.0
  0
LINE
  5
B3E
  8
0
 10
423.76071555780862
 20
298.82816412790748
 30
0.0
 11
359.76071555780862
 21
298.82816412790748
 31
0.0
  0
LINE
  5
B3F
  8
0
 10
423.76071555780862
 20
275.22371552260381
 30
0.0
 11
359.76071555780862
 21
275.22371552260381
 31
0.0
  0
LINE
  5
B40
  8
0
 10
423.76071555780862
 20
262.82593982525572
 30
0.0
 11
359.76071555780862
 21
262.82593982525572
 31
0.0
  0
LINE
  5
B41
  8
CENTER
  6
CENTER
 10
322.76071555780862
 20
411.5468298204878
 30
0.0
 11
600.37700834977977
 21
411.5468298204878
 31
0.0
  0
LINE
  5
B42
  8
CENTER
  6
CENTER
 10
217.90063726669081
 20
332.36721272647628
 30
0.0
 11
217.90063726669081
 21
243.52593982525559
 31
0.0
  0
LINE
  5
B43
  8
0
  6
CONTINUOUS
 10
252.90063726669081
 20
327.5259398252557
 30
0.0
 11
182.90063726669081
 21
327.5259398252557
 31
0.0
  0
LINE
  5
B44
  8
0
  6
CONTINUOUS
 10
253.90063726669081
 20
326.5259398252557
 30
0.0
 11
181.90063726669081
 21
326.5259398252557
 31
0.0
  0
LINE
  5
B45
  8
0
  6
CONTINUOUS
 10
273.40063726669069
 20
319.5259398252557
 30
0.0
 11
180.40063726669081
 21
319.52593982525559
 31
0.0
  0
LINE
  5
B46
  8
0
  6
CONTINUOUS
 10
253.90063726669081
 20
247.5259398252557
 30
0.0
 11
181.90063726669081
 21
247.5259398252557
 31
0.0
  0
LINE
  5
B47
  8
0
  6
CONTINUOUS
 10
252.90063726669081
 20
246.5259398252557
 30
0.0
 11
182.90063726669081
 21
246.5259398252557
 31
0.0
  0
LINE
  5
B48
  8
CENTER
  6
CENTER
 10
276.40063726669081
 20
287.0259398252557
 30
0.0
 11
177.40063726669081
 21
287.0259398252557
 31
0.0
  0
LINE
  5
B49
  8
0
  6
CONTINUOUS
 10
273.40063726669069
 20
254.5259398252557
 30
0.0
 11
180.40063726669081
 21
254.5259398252557
 31
0.0
  0
LINE
  5
B4A
  8
0
  6
CONTINUOUS
 10
181.90063726669081
 20
326.5259398252557
 30
0.0
 11
182.90063726669081
 21
327.5259398252557
 31
0.0
  0
LINE
  5
B4B
  8
0
 10
181.90063726669081
 20
319.5259398252557
 30
0.0
 11
181.90063726669081
 21
326.5259398252557
 31
0.0
  0
LINE
  5
B4C
  8
0
 10
181.90063726669081
 20
254.5259398252557
 30
0.0
 11
181.90063726669081
 21
247.5259398252557
 31
0.0
  0
LINE
  5
B4D
  8
0
  6
CONTINUOUS
 10
181.90063726669081
 20
247.5259398252557
 30
0.0
 11
182.90063726669081
 21
246.5259398252557
 31
0.0
  0
LINE
  5
B4E
  8
CENTER
  6
CENTER
 10
187.90063726669081
 20
270.6235821953095
 30
0.0
 11
187.90063726669081
 21
250.2594542982205
 31
0.0
  0
LINE
  5
B4F
  8
0
 10
180.40063726669081
 20
319.52593982525559
 30
0.0
 11
180.40063726669081
 21
254.5259398252557
 31
0.0
  0
LINE
  5
B50
  8
CENTER
  6
CENTER
 10
187.90063726669081
 20
304.68902943176522
 30
0.0
 11
187.90063726669081
 21
324.36460111853501
 31
0.0
  0
LINE
  5
B51
  8
0
  6
CONTINUOUS
 10
253.90063726669081
 20
326.5259398252557
 30
0.0
 11
252.90063726669081
 21
327.5259398252557
 31
0.0
  0
LINE
  5
B52
  8
0
 10
253.90063726669081
 20
319.5259398252557
 30
0.0
 11
253.90063726669081
 21
326.5259398252557
 31
0.0
  0
LINE
  5
B53
  8
CENTER
  6
CENTER
 10
226.40063726669081
 20
274.5259398252557
 30
0.0
 11
226.40063726669081
 21
261.5259398252557
 31
0.0
  0
LINE
  5
B54
  8
0
 10
244.40063726669081
 20
264.5259398252557
 30
0.0
 11
244.40063726669081
 21
268.13149619756462
 31
0.0
  0
LINE
  5
B55
  8
0
 10
246.40063726669069
 20
264.5259398252557
 30
0.0
 11
246.40063726669069
 21
268.13149619756462
 31
0.0
  0
LINE
  5
B56
  8
0
 10
237.40063726669081
 20
264.5259398252557
 30
0.0
 11
237.40063726669081
 21
270.29273929457429
 31
0.0
  0
ARC
  5
B57
  8
0
 10
226.40063726669081
 20
268.0259398252557
 30
0.0
 40
7.5
 50
335.68426082882991
 51
34.193077125139702
  0
LINE
  5
B58
  8
0
 10
253.40063726669081
 20
264.5259398252557
 30
0.0
 11
253.40063726669081
 21
270.29273929457429
 31
0.0
  0
ARC
  5
B59
  8
0
 10
254.40063726669069
 20
264.5259398252557
 30
0.0
 40
1.0
 50
180.0
 51
270.0
  0
LINE
  5
B5A
  8
0
 10
243.40063726669081
 20
263.5259398252557
 30
0.0
 11
234.1466039591061
 21
263.5259398252557
 31
0.0
  0
ARC
  5
B5B
  8
0
 10
247.40063726669081
 20
264.5259398252557
 30
0.0
 40
1.0
 50
180.0
 51
270.0
  0
ARC
  5
B5C
  8
0
 10
243.40063726669081
 20
264.5259398252557
 30
0.0
 40
1.0
 50
270.0
 51
0.0
  0
ARC
  5
B5D
  8
0
 10
234.1466039591061
 20
264.5259398252557
 30
0.0
 40
1.0
 50
155.68426082881459
 51
270.0
  0
ARC
  5
B5E
  8
0
 10
236.40063726669081
 20
264.5259398252557
 30
0.0
 40
1.0
 50
270.0
 51
0.0
  0
ARC
  5
B5F
  8
0
 10
254.40063726669069
 20
270.29273929457429
 30
0.0
 40
1.0
 50
118.2737136313652
 51
180.0
  0
LINE
  5
B60
  8
0
 10
253.40063726669081
 20
309.5259398252557
 30
0.0
 11
253.40063726669081
 21
303.75914035593712
 31
0.0
  0
ARC
  5
B61
  8
0
 10
254.40063726669069
 20
303.75914035593712
 30
0.0
 40
1.0
 50
180.0
 51
241.7262863686347
  0
ARC
  5
B62
  8
0
 10
254.40063726669069
 20
309.5259398252557
 30
0.0
 40
1.0
 50
90.0
 51
180.0
  0
ARC
  5
B63
  8
0
 10
226.40063726669081
 20
306.0259398252557
 30
0.0
 40
7.5
 50
245.6842608288265
 51
304.19307712514018
  0
LINE
  5
B64
  8
0
 10
222.90063726669081
 20
295.0259398252557
 30
0.0
 11
228.66743673600931
 21
295.0259398252557
 31
0.0
  0
ARC
  5
B65
  8
0
 10
226.50619363899969
 20
285.0259398252557
 30
0.0
 40
1.0
 50
6.0423284190542867
 51
90.0
  0
ARC
  5
B66
  8
0
 10
245.40063726669081
 20
287.0259398252557
 30
0.0
 40
17.999999999999972
 50
139.6507090048799
 51
173.9576715809458
  0
ARC
  5
B67
  8
0
 10
226.50619363899969
 20
289.0259398252557
 30
0.0
 40
1.0
 50
270.0
 51
353.95767158094571
  0
ARC
  5
B68
  8
0
 10
226.40063726669081
 20
268.0259398252557
 30
0.0
 40
7.5
 50
55.806922874859701
 51
114.315739171172
  0
LINE
  5
B69
  8
CENTER
  6
CENTER
 10
232.90063726669081
 20
268.0259398252557
 30
0.0
 11
219.90063726669081
 21
268.0259398252557
 31
0.0
  0
LINE
  5
B6A
  8
0
 10
222.90063726669081
 20
279.0259398252557
 30
0.0
 11
228.66743673600931
 21
279.0259398252557
 31
0.0
  0
ARC
  5
B6B
  8
0
 10
245.40063726669081
 20
287.0259398252557
 30
0.0
 40
17.999999999999972
 50
186.04232841905389
 51
220.34929099511979
  0
ARC
  5
B6C
  8
0
 10
245.40063726669081
 20
287.0259398252557
 30
0.0
 40
17.999999999999972
 50
229.6507090048799
 51
263.95767158094588
  0
ARC
  5
B6D
  8
0
 10
247.40063726669081
 20
268.13149619756462
 30
0.0
 40
1.0
 50
96.042328419054286
 51
180.0
  0
ARC
  5
B6E
  8
0
 10
243.40063726669081
 20
268.13149619756462
 30
0.0
 40
1.0
 50
0.0
 51
83.957671580945714
  0
ARC
  5
B6F
  8
0
 10
233.4228926280654
 20
272.92687484307072
 30
0.0
 40
0.5
 50
49.650709004877889
 51
135.0
  0
ARC
  5
B70
  8
0
 10
236.40063726669081
 20
270.29273929457429
 30
0.0
 40
1.0
 50
0.0
 51
61.72628636863471
  0
ARC
  5
B71
  8
0
 10
231.3015722845058
 20
275.04819518663032
 30
0.0
 40
0.5
 50
315.00000000000688
 51
40.349290995122097
  0
ARC
  5
B72
  8
0
 10
230.8965047876344
 20
274.64312768975901
 30
0.0
 40
0.5
 50
235.80692287485761
 51
315.0
  0
LINE
  5
B73
  8
0
 10
231.65512567509921
 20
274.6946417960371
 30
0.0
 11
231.2500581782277
 21
274.28957429916579
 31
0.0
  0
LINE
  5
B74
  8
0
 10
233.06933923747229
 20
273.28042823366388
 30
0.0
 11
232.66427174060081
 21
272.87536073679257
 31
0.0
  0
ARC
  5
B75
  8
0
 10
233.0178251311942
 20
272.52180734619941
 30
0.0
 40
0.5
 50
135.0
 51
214.19307712514231
  0
ARC
  5
B76
  8
0
 10
228.66743673600931
 20
278.0259398252557
 30
0.0
 40
1.0
 50
28.273713631367489
 51
90.0
  0
LINE
  5
B77
  8
0
 10
231.65512567509921
 20
299.35723785447431
 30
0.0
 11
231.2500581782277
 21
299.76230535134562
 31
0.0
  0
ARC
  5
B78
  8
0
 10
228.66743673600931
 20
296.0259398252557
 30
0.0
 40
1.0
 50
270.0
 51
331.72628636863169
  0
ARC
  5
B79
  8
0
 10
231.3015722845058
 20
299.00368446388109
 30
0.0
 40
0.5
 50
319.65070900487791
 51
44.999999999993094
  0
ARC
  5
B7A
  8
0
 10
230.8965047876344
 20
299.4087519607524
 30
0.0
 40
0.5
 50
45.0
 51
124.1930771251423
  0
LINE
  5
B7B
  8
0
 10
221.90063726669081
 20
285.0259398252557
 30
0.0
 11
221.90063726669081
 21
275.77190651767091
 31
0.0
  0
ARC
  5
B7C
  8
0
 10
222.90063726669081
 20
275.77190651767091
 30
0.0
 40
1.0
 50
180.0
 51
294.31573917118533
  0
ARC
  5
B7D
  8
0
 10
222.90063726669081
 20
278.0259398252557
 30
0.0
 40
1.0
 50
90.0
 51
180.0
  0
LINE
  5
B7E
  8
0
 10
221.90063726669081
 20
289.0259398252557
 30
0.0
 11
221.90063726669081
 21
298.2799731328405
 31
0.0
  0
ARC
  5
B7F
  8
0
 10
222.90063726669081
 20
285.0259398252557
 30
0.0
 40
1.0
 50
90.0
 51
180.0
  0
ARC
  5
B80
  8
0
 10
222.90063726669081
 20
289.0259398252557
 30
0.0
 40
1.0
 50
180.0
 51
270.0
  0
LINE
  5
B81
  8
0
 10
222.90063726669081
 20
286.0259398252557
 30
0.0
 11
226.50619363899969
 21
286.0259398252557
 31
0.0
  0
LINE
  5
B82
  8
0
 10
222.90063726669081
 20
288.0259398252557
 30
0.0
 11
226.50619363899969
 21
288.0259398252557
 31
0.0
  0
ARC
  5
B83
  8
0
 10
222.90063726669081
 20
298.2799731328405
 30
0.0
 40
1.0
 50
65.684260828814644
 51
180.0
  0
ARC
  5
B84
  8
0
 10
222.90063726669081
 20
296.0259398252557
 30
0.0
 40
1.0
 50
180.0
 51
270.0
  0
LINE
  5
B85
  8
CENTER
  6
CENTER
 10
232.90063726669081
 20
306.0259398252557
 30
0.0
 11
219.90063726669081
 21
306.0259398252557
 31
0.0
  0
LINE
  5
B86
  8
0
 10
243.40063726669081
 20
310.5259398252557
 30
0.0
 11
234.1466039591061
 21
310.5259398252557
 31
0.0
  0
ARC
  5
B87
  8
0
 10
245.40063726669081
 20
287.0259398252557
 30
0.0
 40
17.999999999999972
 50
96.042328419054115
 51
130.34929099511999
  0
LINE
  5
B88
  8
0
 10
246.40063726669069
 20
309.5259398252557
 30
0.0
 11
246.40063726669069
 21
305.92038345294679
 31
0.0
  0
LINE
  5
B89
  8
0
 10
244.40063726669081
 20
309.5259398252557
 30
0.0
 11
244.40063726669081
 21
305.92038345294679
 31
0.0
  0
ARC
  5
B8A
  8
0
 10
247.40063726669081
 20
305.92038345294679
 30
0.0
 40
1.0
 50
180.0
 51
263.95767158094571
  0
ARC
  5
B8B
  8
0
 10
243.40063726669081
 20
305.92038345294679
 30
0.0
 40
1.0
 50
276.04232841905417
 51
0.0
  0
ARC
  5
B8C
  8
0
 10
247.40063726669081
 20
309.5259398252557
 30
0.0
 40
1.0
 50
90.0
 51
180.0
  0
ARC
  5
B8D
  8
0
 10
243.40063726669081
 20
309.5259398252557
 30
0.0
 40
1.0
 50
0.0
 51
90.0
  0
ARC
  5
B8E
  8
0
 10
226.40063726669081
 20
306.0259398252557
 30
0.0
 40
7.5
 50
325.80692287486028
 51
24.31573917117197
  0
LINE
  5
B8F
  8
0
 10
237.40063726669081
 20
309.5259398252557
 30
0.0
 11
237.40063726669081
 21
303.75914035593712
 31
0.0
  0
ARC
  5
B90
  8
0
 10
233.4228926280654
 20
301.12500480744069
 30
0.0
 40
0.5
 50
225.0
 51
310.34929099512209
  0
ARC
  5
B91
  8
0
 10
236.40063726669081
 20
303.75914035593712
 30
0.0
 40
1.0
 50
298.27371363136518
 51
0.0
  0
LINE
  5
B92
  8
0
 10
233.06933923747229
 20
300.77145141684741
 30
0.0
 11
232.66427174060081
 21
301.17651891371889
 31
0.0
  0
ARC
  5
B93
  8
0
 10
233.0178251311942
 20
301.53007230431211
 30
0.0
 40
0.5
 50
145.80692287485761
 51
225.0
  0
ARC
  5
B94
  8
0
 10
234.1466039591061
 20
309.5259398252557
 30
0.0
 40
1.0
 50
90.0
 51
204.3157391711853
  0
ARC
  5
B95
  8
0
 10
236.40063726669081
 20
309.5259398252557
 30
0.0
 40
1.0
 50
0.0
 51
90.0
  0
POLYLINE
  5
B96
  8
0
 66
     1
 10
0.0
 20
0.0
 30
0.0
 70
     1
  0
VERTEX
  5
13ED
  8
0
 10
229.40063726669069
 20
307.75799063282471
 30
0.0
  0
VERTEX
  5
13EE
  8
0
 10
229.40063726669069
 20
304.29388901768692
 30
0.0
  0
VERTEX
  5
13EF
  8
0
 10
226.40063726669081
 20
302.56183821011808
 30
0.0
  0
VERTEX
  5
13F0
  8
0
 10
223.40063726669069
 20
304.29388901768692
 30
0.0
  0
VERTEX
  5
13F1
  8
0
 10
223.40063726669069
 20
307.75799063282471
 30
0.0
  0
VERTEX
  5
13F2
  8
0
 10
226.40063726669081
 20
309.4900414403935
 30
0.0
  0
SEQEND
  5
13F3
  8
0
  0
CIRCLE
  5
B9E
  8
0
 10
226.40063726669081
 20
306.0259398252557
 30
0.0
 40
5.5
  0
CIRCLE
  5
B9F
  8
0
 10
226.40063726669081
 20
306.0259398252557
 30
0.0
 40
5.0
  0
CIRCLE
  5
BA0
  8
0
 10
226.40063726669081
 20
268.0259398252557
 30
0.0
 40
5.5
  0
CIRCLE
  5
BA1
  8
0
 10
226.40063726669081
 20
268.0259398252557
 30
0.0
 40
5.0
  0
POLYLINE
  5
BA2
  8
0
 66
     1
 10
0.0
 20
0.0
 30
0.0
 70
     1
  0
VERTEX
  5
13F4
  8
0
 10
229.40063726669069
 20
269.75799063282471
 30
0.0
  0
VERTEX
  5
13F5
  8
0
 10
229.40063726669069
 20
266.29388901768692
 30
0.0
  0
VERTEX
  5
13F6
  8
0
 10
226.40063726669081
 20
264.56183821011803
 30
0.0
  0
VERTEX
  5
13F7
  8
0
 10
223.40063726669069
 20
266.29388901768692
 30
0.0
  0
VERTEX
  5
13F8
  8
0
 10
223.40063726669069
 20
269.75799063282471
 30
0.0
  0
VERTEX
  5
13F9
  8
0
 10
226.40063726669081
 20
271.4900414403935
 30
0.0
  0
SEQEND
  5
13FA
  8
0
  0
ARC
  5
BAA
  8
0
 10
230.8965047876344
 20
274.64312768975913
 30
0.0
 40
0.5
 50
235.80692287485761
 51
315.0
  0
LINE
  5
BAB
  8
0
 10
253.90063726669081
 20
254.5259398252557
 30
0.0
 11
253.90063726669081
 21
247.5259398252557
 31
0.0
  0
LINE
  5
BAC
  8
0
  6
CONTINUOUS
 10
253.90063726669081
 20
247.5259398252557
 30
0.0
 11
252.90063726669081
 21
246.5259398252557
 31
0.0
  0
LINE
  5
BAD
  8
CENTER
  6
CENTER
 10
247.90063726669081
 20
270.6235821953095
 30
0.0
 11
247.90063726669081
 21
250.09918084764951
 31
0.0
  0
LINE
  5
BAE
  8
CENTER
  6
CENTER
 10
284.20336007541113
 20
268.5259398252557
 30
0.0
 11
265.13296701152478
 21
268.5259398252557
 31
0.0
  0
LINE
  5
BAF
  8
0
  6
CONTINUOUS
 62
     2
 10
278.5006372666893
 20
265.32593982525498
 30
0.0
 11
281.0006372666893
 21
265.32593982525498
 31
0.0
  0
LINE
  5
BB0
  8
0
  6
CONTINUOUS
 62
     2
 10
278.5006372666893
 20
271.72593982525649
 30
0.0
 11
281.0006372666893
 21
271.72593982525649
 31
0.0
  0
LINE
  5
BB1
  8
0
  6
CONTINUOUS
 10
278.5006372666893
 20
272.5259398252557
 30
0.0
 11
280.20063726669002
 21
272.5259398252557
 31
0.0
  0
LINE
  5
BB2
  8
0
  6
CONTINUOUS
 10
278.5006372666893
 20
264.5259398252557
 30
0.0
 11
280.20063726669002
 21
264.5259398252557
 31
0.0
  0
LINE
  5
BB3
  8
0
  6
CONTINUOUS
 10
281.40063726669081
 20
265.72593982525638
 30
0.0
 11
281.40063726669081
 21
271.32593982525492
 31
0.0
  0
LINE
  5
BB4
  8
0
  6
CONTINUOUS
 10
280.20063726669002
 20
264.5259398252557
 30
0.0
 11
280.20063726669002
 21
272.5259398252557
 31
0.0
  0
LINE
  5
BB5
  8
0
  6
CONTINUOUS
 10
280.20063726669002
 20
264.5259398252557
 30
0.0
 11
281.40063726669081
 21
265.72593982525638
 31
0.0
  0
LINE
  5
BB6
  8
0
  6
CONTINUOUS
 10
280.20063726669002
 20
272.5259398252557
 30
0.0
 11
281.40063726669081
 21
271.32593982525498
 31
0.0
  0
LINE
  5
BB7
  8
CENTER
  6
CENTER
 10
264.40063726669081
 20
274.5259398252557
 30
0.0
 11
264.40063726669081
 21
261.5259398252557
 31
0.0
  0
ARC
  5
BB8
  8
0
 10
264.40063726669081
 20
268.0259398252557
 30
0.0
 40
7.5
 50
145.80692287486011
 51
204.31573917116859
  0
ARC
  5
BB9
  8
0
 10
256.65467057427571
 20
264.5259398252557
 30
0.0
 40
1.0
 50
270.0
 51
24.315739171181711
  0
LINE
  5
BBA
  8
0
 10
268.90063726669081
 20
285.0259398252557
 30
0.0
 11
268.90063726669081
 21
275.7719065176708
 31
0.0
  0
ARC
  5
BBB
  8
0
 10
245.40063726669081
 20
287.0259398252557
 30
0.0
 40
17.999999999999972
 50
319.6507090048799
 51
353.95767158094588
  0
LINE
  5
BBC
  8
CENTER
  6
CENTER
 10
270.90063726669081
 20
268.0259398252557
 30
0.0
 11
257.90063726669081
 21
268.0259398252557
 31
0.0
  0
ARC
  5
BBD
  8
0
 10
264.40063726669081
 20
268.0259398252557
 30
0.0
 40
7.5
 50
65.684260828826382
 51
124.19307712513979
  0
ARC
  5
BBE
  8
0
 10
267.90063726669081
 20
275.7719065176708
 30
0.0
 40
1.0
 50
245.68426082881311
 51
0.0
  0
LINE
  5
BBF
  8
0
 10
271.90063726669098
 20
269.5259398252557
 30
0.0
 11
271.40063726669098
 21
269.5259398252557
 31
0.0
  0
ARC
  5
BC0
  8
0
 10
267.90063726669081
 20
293.01634104255919
 30
0.0
 40
1.0
 50
270.0
 51
0.0
  0
LINE
  5
BC1
  8
0
 10
263.43158547402948
 20
292.01634104255908
 30
0.0
 11
267.90063726669081
 21
292.01634104255908
 31
0.0
  0
ARC
  5
BC2
  8
0
 10
263.43158547402948
 20
293.01634104255919
 30
0.0
 40
1.0
 50
198.37797603959399
 51
270.0
  0
ARC
  5
BC3
  8
0
 10
257.78344940218761
 20
272.52180734619941
 30
0.0
 40
0.5
 50
325.80692287485948
 51
45.0
  0
ARC
  5
BC4
  8
0
 10
259.90476974574739
 20
274.64312768975901
 30
0.0
 40
0.5
 50
225.0
 51
304.19307712514228
  0
ARC
  5
BC5
  8
0
 10
259.49970224887591
 20
275.04819518663032
 30
0.0
 40
0.5
 50
139.65070900487791
 51
224.99999999999301
  0
LINE
  5
BC6
  8
0
 10
259.14614885828257
 20
274.6946417960371
 30
0.0
 11
259.551216355154
 21
274.28957429916568
 31
0.0
  0
LINE
  5
BC7
  8
0
 10
257.73193529590952
 20
273.28042823366388
 30
0.0
 11
258.13700279278072
 21
272.87536073679257
 31
0.0
  0
ARC
  5
BC8
  8
0
 10
257.37838190531608
 20
272.92687484307072
 30
0.0
 40
0.5
 50
45.000000000002302
 51
130.349290995122
  0
ARC
  5
BC9
  8
0
 10
264.40063726669081
 20
306.02593982525559
 30
0.0
 40
7.5
 50
235.80692287485999
 51
294.31573917117203
  0
ARC
  5
BCA
  8
0
 10
245.40063726669081
 20
287.0259398252557
 30
0.0
 40
17.999999999999972
 50
6.0423284190539261
 51
40.349290995119809
  0
LINE
  5
BCB
  8
0
 10
268.90063726669081
 20
289.02593982525559
 30
0.0
 11
268.90063726669081
 21
298.2799731328405
 31
0.0
  0
ARC
  5
BCC
  8
0
 10
267.90063726669081
 20
285.0259398252557
 30
0.0
 40
1.0
 50
0.0
 51
90.0
  0
ARC
  5
BCD
  8
0
 10
267.90063726669081
 20
289.02593982525559
 30
0.0
 40
1.0
 50
270.0
 51
0.0
  0
LINE
  5
BCE
  8
0
 10
267.90063726669081
 20
286.0259398252557
 30
0.0
 11
264.29508089438178
 21
286.0259398252557
 31
0.0
  0
ARC
  5
BCF
  8
0
 10
264.29508089438178
 20
285.0259398252557
 30
0.0
 40
1.0
 50
90.0
 51
173.95767158094571
  0
LINE
  5
BD0
  8
0
 10
267.90063726669081
 20
288.02593982525559
 30
0.0
 11
264.29508089438178
 21
288.02593982525559
 31
0.0
  0
ARC
  5
BD1
  8
0
 10
264.29508089438178
 20
289.02593982525559
 30
0.0
 40
1.0
 50
186.0423284190542
 51
270.0
  0
ARC
  5
BD2
  8
0
 10
267.90063726669081
 20
298.2799731328405
 30
0.0
 40
1.0
 50
0.0
 51
114.3157391711853
  0
LINE
  5
BD3
  8
0
 10
259.14614885828257
 20
299.35723785447419
 30
0.0
 11
259.551216355154
 21
299.76230535134562
 31
0.0
  0
ARC
  5
BD4
  8
0
 10
259.49970224887591
 20
299.00368446388097
 30
0.0
 40
0.5
 50
135.00000000000691
 51
220.349290995122
  0
ARC
  5
BD5
  8
0
 10
259.90476974574739
 20
299.40875196075228
 30
0.0
 40
0.5
 50
55.806922874857641
 51
135.0
  0
LINE
  5
BD6
  8
CENTER
  6
CENTER
 10
270.90063726669081
 20
306.0259398252557
 30
0.0
 11
257.90063726669081
 21
306.0259398252557
 31
0.0
  0
LINE
  5
BD7
  8
0
 10
271.90063726669098
 20
304.5259398252557
 30
0.0
 11
271.40063726669069
 21
304.5259398252557
 31
0.0
  0
ARC
  5
BD8
  8
0
 10
264.40063726669081
 20
306.0259398252557
 30
0.0
 40
7.5
 50
155.68426082882979
 51
214.19307712513981
  0
ARC
  5
BD9
  8
0
 10
257.78344940218761
 20
301.53007230431211
 30
0.0
 40
0.5
 50
315.0
 51
34.193077125140519
  0
LINE
  5
BDA
  8
0
 10
257.73193529590952
 20
300.77145141684741
 30
0.0
 11
258.13700279278072
 21
301.17651891371889
 31
0.0
  0
ARC
  5
BDB
  8
0
 10
257.37838190531608
 20
301.12500480744069
 30
0.0
 40
0.5
 50
229.65070900487791
 51
314.99999999999773
  0
ARC
  5
BDC
  8
0
 10
256.65467057427571
 20
309.5259398252557
 30
0.0
 40
1.0
 50
335.68426082881462
 51
90.0
  0
CIRCLE
  5
BDD
  8
0
 10
264.40063726669081
 20
306.0259398252557
 30
0.0
 40
5.0
  0
CIRCLE
  5
BDE
  8
0
 10
264.40063726669081
 20
306.0259398252557
 30
0.0
 40
5.5
  0
POLYLINE
  5
BDF
  8
0
 66
     1
 10
0.0
 20
0.0
 30
0.0
 70
     1
  0
VERTEX
  5
13FB
  8
0
 10
267.40063726669081
 20
307.75799063282471
 30
0.0
  0
VERTEX
  5
13FC
  8
0
 10
267.40063726669081
 20
304.29388901768692
 30
0.0
  0
VERTEX
  5
13FD
  8
0
 10
264.40063726669081
 20
302.56183821011808
 30
0.0
  0
VERTEX
  5
13FE
  8
0
 10
261.40063726669081
 20
304.29388901768692
 30
0.0
  0
VERTEX
  5
13FF
  8
0
 10
261.40063726669081
 20
307.75799063282471
 30
0.0
  0
VERTEX
  5
1400
  8
0
 10
264.40063726669081
 20
309.4900414403935
 30
0.0
  0
SEQEND
  5
1401
  8
0
  0
CIRCLE
  5
BE7
  8
0
 10
264.40063726669081
 20
268.0259398252557
 30
0.0
 40
5.5
  0
CIRCLE
  5
BE8
  8
0
 10
264.40063726669081
 20
268.0259398252557
 30
0.0
 40
5.0
  0
POLYLINE
  5
BE9
  8
0
 66
     1
 10
0.0
 20
0.0
 30
0.0
 70
     1
  0
VERTEX
  5
1402
  8
0
 10
267.40063726669081
 20
269.75799063282471
 30
0.0
  0
VERTEX
  5
1403
  8
0
 10
267.40063726669081
 20
266.29388901768692
 30
0.0
  0
VERTEX
  5
1404
  8
0
 10
264.40063726669081
 20
264.56183821011803
 30
0.0
  0
VERTEX
  5
1405
  8
0
 10
261.40063726669081
 20
266.29388901768692
 30
0.0
  0
VERTEX
  5
1406
  8
0
 10
261.40063726669081
 20
269.75799063282471
 30
0.0
  0
VERTEX
  5
1407
  8
0
 10
264.40063726669081
 20
271.4900414403935
 30
0.0
  0
SEQEND
  5
1408
  8
0
  0
LINE
  5
BF1
  8
CENTER
  6
CENTER
 10
276.40709250823841
 20
283.0259398252557
 30
0.0
 11
257.0070925082386
 21
283.0259398252557
 31
0.0
  0
LINE
  5
BF2
  8
CENTER
  6
CENTER
 10
276.50499279721578
 20
294.5259398252557
 30
0.0
 11
262.77705232868351
 21
294.5259398252557
 31
0.0
  0
LINE
  5
BF3
  8
0
  6
CONTINUOUS
 10
274.1206372666901
 20
268.5259398252557
 30
0.0
 11
277.68063726669141
 21
268.5259398252557
 31
0.0
  0
LINE
  5
BF4
  8
0
  6
CONTINUOUS
 10
273.40063726669069
 20
268.5259398252557
 30
0.0
 11
277.68063726669141
 21
268.5259398252557
 31
0.0
  0
ARC
  5
BF5
  8
0
  6
CONTINUOUS
 10
269.9836576710797
 20
272.0259398252557
 30
0.0
 40
8.4553825989878657
 50
335.5475759094079
 51
24.452424090592022
  0
LINE
  5
BF6
  8
0
  6
CONTINUOUS
 10
278.40063726669081
 20
275.5259398252557
 30
0.0
 11
273.40063726669069
 21
275.5259398252557
 31
0.0
  0
ARC
  5
BF7
  8
0
  6
CONTINUOUS
 10
281.81761686230232
 20
272.0259398252557
 30
0.0
 40
8.4553825989882458
 50
155.54757590941711
 51
204.45242409058281
  0
LINE
  5
BF8
  8
0
  6
CONTINUOUS
 10
273.40063726669069
 20
275.5259398252557
 30
0.0
 11
273.40063726669069
 21
268.5259398252557
 31
0.0
  0
LINE
  5
BF9
  8
0
  6
CONTINUOUS
 10
278.40063726669081
 20
275.5259398252557
 30
0.0
 11
278.40063726669081
 21
261.5259398252557
 31
0.0
  0
ARC
  5
BFA
  8
0
  6
CONTINUOUS
 10
269.9836576710797
 20
265.0259398252557
 30
0.0
 40
8.4553825989878657
 50
335.5475759094079
 51
24.452424090592022
  0
LINE
  5
BFB
  8
0
  6
CONTINUOUS
 10
278.40063726669081
 20
261.5259398252557
 30
0.0
 11
273.40063726669069
 21
261.5259398252557
 31
0.0
  0
ARC
  5
BFC
  8
0
  6
CONTINUOUS
 10
281.81761686230232
 20
265.0259398252557
 30
0.0
 40
8.4553825989882458
 50
155.54757590941711
 51
204.4524240905823
  0
LINE
  5
BFD
  8
0
  6
CONTINUOUS
 10
273.40063726669069
 20
261.5259398252557
 30
0.0
 11
273.40063726669069
 21
268.5259398252557
 31
0.0
  0
LINE
  5
BFE
  8
0
 10
247.40063726669081
 20
263.5259398252557
 30
0.0
 11
256.65467057427571
 21
263.5259398252557
 31
0.0
  0
CIRCLE
  5
BFF
  8
0
 10
245.40063726669081
 20
287.0259398252557
 30
0.0
 40
17.499999999999972
  0
ARC
  5
C00
  8
0
 10
245.40063726669081
 20
287.0259398252557
 30
0.0
 40
17.999999999999972
 50
276.04232841905389
 51
310.34929099511982
  0
LINE
  5
C01
  8
0
 10
247.40063726669081
 20
310.5259398252557
 30
0.0
 11
256.65467057427571
 21
310.5259398252557
 31
0.0
  0
ARC
  5
C02
  8
0
 10
245.40063726669081
 20
287.0259398252557
 30
0.0
 40
17.999999999999972
 50
49.650709004880191
 51
83.957671580946055
  0
LINE
  5
C03
  8
CENTER
  6
CENTER
 10
245.40063726669081
 20
315.0259398252557
 30
0.0
 11
245.40063726669081
 21
259.0259398252557
 31
0.0
  0
POLYLINE
  5
C04
  8
0
 66
     1
 10
0.0
 20
0.0
 30
0.0
 70
     1
  0
VERTEX
  5
1409
  8
0
 10
218.90063726669081
 20
306.0259398252557
 30
0.0
 42
-0.4142135623730951
  0
VERTEX
  5
140A
  8
0
 10
226.40063726669101
 20
313.5259398252557
 30
0.0
  0
VERTEX
  5
140B
  8
0
 10
264.40063726669081
 20
313.5259398252557
 30
0.0
 42
-0.4142135623730951
  0
VERTEX
  5
140C
  8
0
 10
271.90063726669081
 20
306.0259398252557
 30
0.0
  0
VERTEX
  5
140D
  8
0
 10
271.90063726669081
 20
268.0259398252557
 30
0.0
 42
-0.4142135623730951
  0
VERTEX
  5
140E
  8
0
 10
264.40063726669081
 20
260.5259398252557
 30
0.0
  0
VERTEX
  5
140F
  8
0
 10
226.40063726669101
 20
260.5259398252557
 30
0.0
 42
-0.4142135623730951
  0
VERTEX
  5
1410
  8
0
 10
218.90063726669081
 20
268.0259398252557
 30
0.0
  0
SEQEND
  5
1411
  8
0
  0
POLYLINE
  5
C0E
  8
0
 66
     1
 10
0.0
 20
0.0
 30
0.0
 70
     1
  0
VERTEX
  5
1412
  8
0
 10
219.40063726669081
 20
306.0259398252557
 30
0.0
 42
-0.4142135623730951
  0
VERTEX
  5
1413
  8
0
 10
226.40063726669101
 20
313.0259398252557
 30
0.0
  0
VERTEX
  5
1414
  8
0
 10
264.40063726669081
 20
313.0259398252557
 30
0.0
 42
-0.4142135623730951
  0
VERTEX
  5
1415
  8
0
 10
271.40063726669069
 20
306.0259398252557
 30
0.0
  0
VERTEX
  5
1416
  8
0
 10
271.40063726669069
 20
268.0259398252557
 30
0.0
 42
-0.4142135623730951
  0
VERTEX
  5
1417
  8
0
 10
264.40063726669081
 20
261.0259398252557
 30
0.0
  0
VERTEX
  5
1418
  8
0
 10
226.40063726669101
 20
261.0259398252557
 30
0.0
 42
-0.4142135623730957
  0
VERTEX
  5
1419
  8
0
 10
219.40063726669081
 20
268.0259398252557
 30
0.0
  0
SEQEND
  5
141A
  8
0
  0
LINE
  5
C18
  8
CENTER
  6
CENTER
 10
264.40063726669081
 20
312.5259398252557
 30
0.0
 11
264.40063726669081
 21
299.5259398252557
 31
0.0
  0
LINE
  5
C19
  8
CENTER
  6
CENTER
 10
226.40063726669081
 20
312.5259398252557
 30
0.0
 11
226.40063726669081
 21
299.5259398252557
 31
0.0
  0
LINE
  5
C1A
  8
0
 10
273.40063726669069
 20
319.5259398252557
 30
0.0
 11
273.40063726669069
 21
254.5259398252557
 31
0.0
  0
LINE
  5
C1B
  8
CENTER
  6
CENTER
 10
247.90063726669081
 20
304.68902943176522
 30
0.0
 11
247.90063726669081
 21
324.35953922432071
 31
0.0
  0
LINE
  5
C1C
  8
0
 10
359.76071555780862
 20
194.6460982339463
 30
0.0
 11
329.76071555780862
 21
194.1460982339463
 31
0.0
  0
LINE
  5
C1D
  8
0
 10
359.76071555780862
 20
141.6460982339463
 30
0.0
 11
329.76071555780868
 21
142.1460982339463
 31
0.0
  0
LINE
  5
C1E
  8
0
 10
329.76071555780868
 20
142.1460982339463
 30
0.0
 11
329.76071555780868
 21
194.1460982339463
 31
0.0
  0
LINE
  5
C1F
  8
0
 10
329.76071555780868
 20
150.6460982339463
 30
0.0
 11
326.76071555780862
 21
150.6460982339463
 31
0.0
  0
ARC
  5
C20
  8
0
 10
326.76071555780862
 20
151.6460982339463
 30
0.0
 40
1.0
 50
180.0
 51
270.0
  0
ARC
  5
C21
  8
0
 10
326.76071555780862
 20
184.6460982339463
 30
0.0
 40
1.0
 50
90.0
 51
180.0
  0
LINE
  5
C22
  8
0
 10
329.76071555780868
 20
185.6460982339463
 30
0.0
 11
326.76071555780862
 21
185.6460982339463
 31
0.0
  0
LINE
  5
C23
  8
0
 10
325.76071555780862
 20
151.6460982339463
 30
0.0
 11
325.76071555780862
 21
184.6460982339463
 31
0.0
  0
LINE
  5
C24
  8
0
 10
359.76071555780862
 20
141.6460982339463
 30
0.0
 11
359.76071555780862
 21
194.6460982339463
 31
0.0
  0
TEXT
  5
C25
  8
DIM
  6
CONTINUOUS
 10
317.98860648815901
 20
224.0259398252557
 30
0.0
 40
3.0
  1
4
  7
ROMANSS
 72
     1
 11
319.06003505958751
 21
225.5259398252557
 31
0.0
 73
     2
  0
SOLID
  5
C27
  8
DIM
  6
CONTINUOUS
 10
322.76071555780862
 20
223.0259398252557
 30
0.0
 11
322.76071555780862
 21
222.0259398252557
 31
0.0
 12
325.76071555780862
 22
222.5259398252557
 32
0.0
 13
325.76071555780862
 23
222.5259398252557
 33
0.0
  0
LINE
  5
C28
  8
DIM
  6
CONTINUOUS
 10
325.76071555780862
 20
268.52119511208087
 30
0.0
 11
325.76071555780862
 21
221.5259398252557
 31
0.0
  0
SOLID
  5
C29
  8
DIM
  6
CONTINUOUS
 10
332.76071555780862
 20
223.0259398252557
 30
0.0
 11
332.76071555780862
 21
222.0259398252557
 31
0.0
 12
329.76071555780862
 22
222.5259398252557
 32
0.0
 13
329.76071555780862
 23
222.5259398252557
 33
0.0
  0
LINE
  5
C2A
  8
DIM
  6
CONTINUOUS
 10
329.76071555780862
 20
260.0259398252557
 30
0.0
 11
329.76071555780862
 21
221.5259398252557
 31
0.0
  0
LINE
  5
C2B
  8
0
  6
CONTINUOUS
 10
350.01071555780851
 20
293.22690171957902
 30
0.0
 11
348.70229357290492
 21
292.47148393438141
 31
0.0
  0
LINE
  5
C2C
  8
0
  6
CONTINUOUS
 10
350.51071555780851
 20
292.3608763157946
 30
0.0
 11
349.20229357290492
 21
291.60545853059688
 31
0.0
  0
ARC
  5
C2D
  8
0
  6
CONTINUOUS
 10
353.26071555780851
 20
294.5259398252557
 30
0.0
 40
3.5
 50
278.21321070173809
 51
321.78678929826299
  0
LINE
  5
C2E
  8
0
  6
CONTINUOUS
 10
356.51071555780851
 20
293.22690171957902
 30
0.0
 11
357.81913754271199
 21
292.47148393438141
 31
0.0
  0
LINE
  5
C2F
  8
0
  6
CONTINUOUS
 10
356.01071555780851
 20
292.3608763157946
 30
0.0
 11
357.3191375427121
 21
291.60545853059688
 31
0.0
  0
LINE
  5
C30
  8
0
  6
CONTINUOUS
 10
352.76071555780851
 20
289.55100263972258
 30
0.0
 11
352.76071555780851
 21
291.06183821011803
 31
0.0
  0
LINE
  5
C31
  8
0
  6
CONTINUOUS
 10
353.76071555780851
 20
289.55100263972258
 30
0.0
 11
353.76071555780851
 21
291.06183821011803
 31
0.0
  0
ARC
  5
C32
  8
0
  6
CONTINUOUS
 10
353.26071555780851
 20
294.5259398252557
 30
0.0
 40
3.5
 50
218.21321070173829
 51
261.78678929826179
  0
CIRCLE
  5
C33
  8
0
 10
344.76071555780862
 20
283.0259398252557
 30
0.0
 40
3.9999999999999711
  0
LINE
  5
C34
  8
CENTER
  6
CENTER
 10
356.46071555780861
 20
283.0259398252557
 30
0.0
 11
333.06071555780858
 21
283.0259398252557
 31
0.0
  0
LINE
  5
C35
  8
0
  6
CONTINUOUS
 10
348.70229357290492
 20
296.58039571613
 30
0.0
 11
350.01071555780851
 21
295.82497793093239
 31
0.0
  0
LINE
  5
C36
  8
0
  6
CONTINUOUS
 10
349.20229357290492
 20
297.44642111991448
 30
0.0
 11
350.51071555780851
 21
296.6910033347167
 31
0.0
  0
ARC
  5
C37
  8
0
  6
CONTINUOUS
 10
353.26071555780851
 20
294.5259398252557
 30
0.0
 40
3.5
 50
38.213210701738312
 51
81.786789298261766
  0
LINE
  5
C38
  8
0
  6
CONTINUOUS
 10
357.81913754271199
 20
296.58039571613
 30
0.0
 11
356.51071555780851
 21
295.82497793093239
 31
0.0
  0
LINE
  5
C39
  8
0
  6
CONTINUOUS
 10
357.3191375427121
 20
297.44642111991448
 30
0.0
 11
356.01071555780851
 21
296.6910033347167
 31
0.0
  0
LINE
  5
C3A
  8
0
  6
CONTINUOUS
 10
352.76071555780851
 20
297.99004144039338
 30
0.0
 11
352.76071555780851
 21
299.50087701078871
 31
0.0
  0
LINE
  5
C3B
  8
0
  6
CONTINUOUS
 10
353.76071555780851
 20
297.99004144039338
 30
0.0
 11
353.76071555780851
 21
299.50087701078871
 31
0.0
  0
ARC
  5
C3C
  8
0
  6
CONTINUOUS
 10
353.26071555780851
 20
294.5259398252557
 30
0.0
 40
3.5
 50
98.213210701738234
 51
141.7867892982616
  0
LINE
  5
C3D
  8
CENTER
  6
CENTER
 10
353.26071555780851
 20
301.38991005952192
 30
0.0
 11
353.26071555780851
 21
287.6619695909896
 31
0.0
  0
CIRCLE
  5
C3E
  8
0
  6
CONTINUOUS
 10
353.26071555780851
 20
294.5259398252557
 30
0.0
 40
2.5
  0
ARC
  5
C3F
  8
0
  6
CONTINUOUS
 10
353.26071555780851
 20
294.5259398252557
 30
0.0
 40
3.5
 50
338.21321070173769
 51
21.786789298262239
  0
POLYLINE
  5
C40
  8
0
  6
CONTINUOUS
 66
     1
 10
0.0
 20
0.0
 30
0.0
 70
     1
  0
VERTEX
  5
141B
  8
0
  6
CONTINUOUS
 10
354.12674096159299
 20
293.0259398252557
 30
0.0
  0
VERTEX
  5
141C
  8
0
  6
CONTINUOUS
 10
354.99276636537729
 20
294.5259398252557
 30
0.0
  0
VERTEX
  5
141D
  8
0
  6
CONTINUOUS
 10
354.12674096159299
 20
296.0259398252557
 30
0.0
  0
VERTEX
  5
141E
  8
0
  6
CONTINUOUS
 10
352.39469015402409
 20
296.0259398252557
 30
0.0
  0
VERTEX
  5
141F
  8
0
  6
CONTINUOUS
 10
351.52866475023973
 20
294.5259398252557
 30
0.0
  0
VERTEX
  5
1420
  8
0
  6
CONTINUOUS
 10
352.39469015402409
 20
293.0259398252557
 30
0.0
  0
SEQEND
  5
1421
  8
0
  6
CONTINUOUS
  0
ARC
  5
C48
  8
0
  6
CONTINUOUS
 10
353.26071555780851
 20
294.5259398252557
 30
0.0
 40
3.5
 50
158.2132107017386
 51
201.78678929826131
  0
CIRCLE
  5
C49
  8
0
 10
344.76071555780862
 20
283.0259398252557
 30
0.0
 40
8.6999999999999993
  0
CIRCLE
  5
C4A
  8
0
 10
344.76071555780862
 20
283.0259398252557
 30
0.0
 40
6.7000000000000028
  0
ARC
  5
C4B
  8
0
 62
     2
 10
344.76071555780862
 20
283.0259398252557
 30
0.0
 40
6.5999999999999996
 50
333.86110377669672
 51
284.99745208060762
  0
CIRCLE
  5
C4C
  8
0
 10
344.76071555780862
 20
283.0259398252557
 30
0.0
 40
5.7000000000000011
  0
LINE
  5
C4D
  8
CENTER
  6
CENTER
 10
344.76071555780862
 20
294.72593982525569
 30
0.0
 11
344.76071555780862
 21
271.32593982525572
 31
0.0
  0
LINE
  5
C4E
  8
CENTER
  6
CENTER
 10
360.12468579207467
 20
294.5259398252557
 30
0.0
 11
346.3967453235424
 21
294.5259398252557
 31
0.0
  0
CIRCLE
  5
C4F
  8
0
 10
353.26071555780851
 20
294.5259398252557
 30
0.0
 40
5.0
  0
CIRCLE
  5
C50
  8
0
 10
353.26071555780851
 20
294.5259398252557
 30
0.0
 40
5.2999999999999989
  0
LINE
  5
C51
  8
0
 10
359.76071555780862
 20
260.5259398252557
 30
0.0
 11
329.76071555780862
 21
261.0259398252557
 31
0.0
  0
ARC
  5
C52
  8
0
 10
326.76071555780862
 20
270.5259398252557
 30
0.0
 40
1.0
 50
180.0
 51
270.0
  0
LINE
  5
C53
  8
0
 10
329.76071555780862
 20
269.5259398252557
 30
0.0
 11
326.76071555780862
 21
269.5259398252557
 31
0.0
  0
ARC
  5
C54
  8
0
 10
326.76071555780862
 20
303.5259398252557
 30
0.0
 40
1.0
 50
90.0
 51
180.0
  0
LINE
  5
C55
  8
0
 10
329.76071555780862
 20
304.5259398252557
 30
0.0
 11
326.76071555780862
 21
304.5259398252557
 31
0.0
  0
LINE
  5
C56
  8
0
 10
325.76071555780862
 20
270.5259398252557
 30
0.0
 11
325.76071555780862
 21
303.5259398252557
 31
0.0
  0
LINE
  5
C57
  8
0
 10
359.76071555780851
 20
313.5259398252557
 30
0.0
 11
329.76071555780851
 21
313.0259398252557
 31
0.0
  0
LINE
  5
C58
  8
0
 10
329.76071555780862
 20
261.0259398252557
 30
0.0
 11
329.76071555780862
 21
313.0259398252557
 31
0.0
  0
LINE
  5
C59
  8
0
 10
359.76071555780862
 20
260.5259398252557
 30
0.0
 11
359.76071555780851
 21
313.5259398252557
 31
0.0
  0
LINE
  5
C5A
  8
0
 10
329.76071555780868
 20
429.0468298204878
 30
0.0
 11
326.76071555780862
 21
429.0468298204878
 31
0.0
  0
ARC
  5
C5B
  8
0
 10
326.76071555780862
 20
428.0468298204878
 30
0.0
 40
1.0
 50
90.0
 51
180.0
  0
ARC
  5
C5C
  8
0
 10
326.76071555780862
 20
395.0468298204878
 30
0.0
 40
1.0
 50
180.0
 51
270.0
  0
LINE
  5
C5D
  8
0
 10
329.76071555780868
 20
394.0468298204878
 30
0.0
 11
326.76071555780862
 21
394.0468298204878
 31
0.0
  0
LINE
  5
C5E
  8
0
 10
329.76071555780868
 20
437.5468298204878
 30
0.0
 11
329.76071555780868
 21
385.5468298204878
 31
0.0
  0
LINE
  5
C5F
  8
0
 10
325.76071555780862
 20
428.0468298204878
 30
0.0
 11
325.76071555780862
 21
395.0468298204878
 31
0.0
  0
LINE
  5
C60
  8
0
 10
359.76071555780862
 20
438.04682982048791
 30
0.0
 11
359.76071555780862
 21
385.0468298204878
 31
0.0
  0
LINE
  5
C61
  8
0
 10
359.76071555780862
 20
385.0468298204878
 30
0.0
 11
329.76071555780862
 21
385.5468298204878
 31
0.0
  0
LINE
  5
C62
  8
0
 10
359.76071555780862
 20
438.04682982048791
 30
0.0
 11
329.76071555780868
 21
437.5468298204878
 31
0.0
  0
SOLID
  5
C63
  8
DIM
  6
CONTINUOUS
 10
408.76071555780862
 20
330.52593982525582
 30
0.0
 11
409.76071555780862
 21
330.52593982525582
 31
0.0
 12
409.26071555780862
 22
327.52593982525582
 32
0.0
 13
409.26071555780862
 23
327.52593982525582
 33
0.0
  0
LINE
  5
C64
  8
DIM
  6
CONTINUOUS
 10
409.26071555780851
 20
333.64895600024971
 30
0.0
 11
409.26071555780862
 21
319.54209713776811
 31
0.0
  0
LINE
  5
C65
  8
DIM
  6
CONTINUOUS
 10
655.71304223966922
 20
311.49966284491961
 30
0.0
 11
643.58120420804653
 21
333.90196995392222
 31
0.0
  0
TEXT
  5
C66
  8
DIM
  6
CONTINUOUS
 10
591.14405835412708
 20
330.91731033921837
 30
0.0
 40
3.0
  1
2-G1/4
  7
ROMANSS
 11
591.14405835412708
 21
332.41731033921837
 31
0.0
 73
     2
  0
LINE
  5
C67
  8
DIM
  6
CONTINUOUS
 10
750.12079384892638
 20
238.92713420812859
 30
0.0
 11
750.12079384892638
 21
336.74579716328032
 31
0.0
  0
LINE
  5
C68
  8
CENTER
  6
CENTER
 10
704.62079384892638
 20
331.54513913537181
 30
0.0
 11
704.62079384892638
 21
243.52593982525559
 31
0.0
  0
LINE
  5
C69
  8
CENTER
  6
CENTER
 10
461.26071555780862
 20
330.54167759595123
 30
0.0
 11
461.26071555780862
 21
243.52593982525559
 31
0.0
  0
LINE
  5
C6A
  8
0
 10
498.76071555780862
 20
192.34609823394629
 30
0.0
 11
562.76071555780857
 21
192.34609823394629
 31
0.0
  0
LINE
  5
C6B
  8
0
 10
498.76071555780862
 20
179.94832253659811
 30
0.0
 11
562.76071555780857
 21
179.94832253659811
 31
0.0
  0
LINE
  5
C6C
  8
0
 10
498.76071555780862
 20
143.94609823394629
 30
0.0
 11
562.76071555780857
 21
143.94609823394629
 31
0.0
  0
LINE
  5
C6D
  8
0
 10
498.76071555780862
 20
156.34387393129441
 30
0.0
 11
562.76071555780857
 21
156.34387393129441
 31
0.0
  0
LINE
  5
C6E
  8
0
 10
498.76071555780862
 20
298.8281641279076
 30
0.0
 11
562.76071555780857
 21
298.8281641279076
 31
0.0
  0
LINE
  5
C6F
  8
0
 10
498.76071555780862
 20
311.22593982525569
 30
0.0
 11
562.76071555780857
 21
311.22593982525569
 31
0.0
  0
LINE
  5
C70
  8
0
 10
498.76071555780862
 20
275.22371552260381
 30
0.0
 11
562.76071555780857
 21
275.22371552260381
 31
0.0
  0
LINE
  5
C71
  8
0
 10
498.76071555780862
 20
262.82593982525577
 30
0.0
 11
562.76071555780857
 21
262.82593982525577
 31
0.0
  0
CIRCLE
  5
C72
  8
0
  6
CONTINUOUS
 10
461.26071555780862
 20
140.6460982339463
 30
0.0
 40
35.0
  0
LINE
  5
C73
  8
0
 10
498.76071555780862
 20
103.1460982339463
 30
0.0
 11
498.76071555780862
 21
196.1460982339463
 31
0.0
  0
LINE
  5
C74
  8
0
 10
423.76071555780862
 20
103.1460982339463
 30
0.0
 11
423.76071555780862
 21
196.1460982339463
 31
0.0
  0
LINE
  5
C75
  8
CENTER
  6
CENTER
 10
461.26071555780862
 20
100.1460982339463
 30
0.0
 11
461.26071555780862
 21
199.1460982339463
 31
0.0
  0
CIRCLE
  5
C76
  8
0
  6
CONTINUOUS
 10
461.26071555780862
 20
140.6460982339463
 30
0.0
 40
36.0
  0
CIRCLE
  5
C77
  8
CENTER
  6
CENTER
 10
461.26071555780862
 20
140.6460982339463
 30
0.0
 40
30.0
  0
LINE
  5
C78
  8
0
 10
423.76071555780862
 20
103.1460982339463
 30
0.0
 11
498.76071555780862
 21
103.1460982339463
 31
0.0
  0
CIRCLE
  5
C79
  8
0
  6
CONTINUOUS
 10
440.0475121222122
 20
119.43289479834991
 30
0.0
 40
2.0499999999999989
  0
LINE
  5
C7A
  8
CENTER
  6
CENTER
 10
435.80487143509282
 20
115.1902541112306
 30
0.0
 11
444.64370619992468
 21
124.0290888760624
 31
0.0
  0
ARC
  5
C7B
  8
0
  6
CONTINUOUS
 62
     2
 10
440.04751212221208
 20
119.43289479835011
 30
0.0
 40
2.5
 50
201.03635853977079
 51
155.01845143419251
  0
CIRCLE
  5
C7C
  8
0
  6
CONTINUOUS
 10
431.26071555780862
 20
110.6460982339463
 30
0.0
 40
2.5
  0
ARC
  5
C7D
  8
0
  6
CONTINUOUS
 62
     2
 10
431.26071555780862
 20
110.6460982339463
 30
0.0
 40
3.0
 50
338.35967540570613
 51
287.47149231941358
  0
LINE
  5
C7E
  8
CENTER
  6
CENTER
 10
431.26071555780862
 20
104.6460982339463
 30
0.0
 11
431.26071555780862
 21
116.6460982339463
 31
0.0
  0
LINE
  5
C7F
  8
CENTER
  6
CENTER
 10
425.26071555780862
 20
110.6460982339463
 30
0.0
 11
437.26071555780862
 21
110.6460982339463
 31
0.0
  0
LINE
  5
C80
  8
CENTER
  6
CENTER
 10
485.26071555780862
 20
110.6460982339463
 30
0.0
 11
497.26071555780862
 21
110.6460982339463
 31
0.0
  0
CIRCLE
  5
C81
  8
0
  6
CONTINUOUS
 10
491.26071555780851
 20
110.6460982339463
 30
0.0
 40
2.5
  0
ARC
  5
C82
  8
0
  6
CONTINUOUS
 62
     2
 10
491.26071555780851
 20
110.6460982339463
 30
0.0
 40
3.0
 50
248.3596754057061
 51
197.47149231941381
  0
LINE
  5
C83
  8
CENTER
  6
CENTER
 10
491.26071555780851
 20
104.6460982339463
 30
0.0
 11
491.26071555780851
 21
116.6460982339463
 31
0.0
  0
POLYLINE
  5
C84
  8
0
  6
CONTINUOUS
 66
     1
 10
0.0
 20
0.0
 30
0.0
  0
VERTEX
  5
1422
  8
0
  6
CONTINUOUS
 10
503.76071555780851
 20
122.1460982339464
 30
0.0
 42
-0.0851703918331037
  0
VERTEX
  5
1423
  8
0
  6
CONTINUOUS
 10
503.07271555780852
 20
118.1460982339464
 30
0.0
 42
-0.3457679526359281
  0
VERTEX
  5
1424
  8
0
  6
CONTINUOUS
 10
503.4142952344834
 20
115.2460982339467
 30
0.0
  0
SEQEND
  5
1425
  8
0
  6
CONTINUOUS
  0
LINE
  5
C89
  8
0
  6
CONTINUOUS
 10
505.5607155578079
 20
118.1460982339464
 30
0.0
 11
506.76071555780862
 21
119.3460982339471
 31
0.0
  0
LINE
  5
C8A
  8
0
  6
CONTINUOUS
 10
505.5607155578079
 20
126.1460982339464
 30
0.0
 11
505.5607155578079
 21
118.1460982339464
 31
0.0
  0
LINE
  5
C8B
  8
0
  6
CONTINUOUS
 10
503.76071555780851
 20
128.44609823394561
 30
0.0
 11
503.76071555780851
 21
115.846098233947
 31
0.0
  0
POLYLINE
  5
C8C
  8
0
  6
CONTINUOUS
 66
     1
 10
0.0
 20
0.0
 30
0.0
  0
VERTEX
  5
1426
  8
0
  6
CONTINUOUS
 10
498.76071555780862
 20
122.1460982339463
 30
0.0
 42
0.0851703918331037
  0
VERTEX
  5
1427
  8
0
  6
CONTINUOUS
 10
499.44871555780873
 20
118.1460982339463
 30
0.0
 42
0.3457679526359281
  0
VERTEX
  5
1428
  8
0
  6
CONTINUOUS
 10
499.10713588113379
 20
115.2460982339467
 30
0.0
  0
SEQEND
  5
1429
  8
0
  6
CONTINUOUS
  0
POLYLINE
  5
C91
  8
0
  6
CONTINUOUS
 66
     1
 10
0.0
 20
0.0
 30
0.0
 70
     1
  0
VERTEX
  5
142A
  8
0
  6
CONTINUOUS
 10
719.07934196459905
 20
275.5259398252557
 30
0.0
  0
VERTEX
  5
142B
  8
0
  6
CONTINUOUS
 10
715.03789008027184
 20
268.5259398252557
 30
0.0
  0
VERTEX
  5
142C
  8
0
  6
CONTINUOUS
 10
719.07934196459905
 20
261.5259398252557
 30
0.0
  0
VERTEX
  5
142D
  8
0
  6
CONTINUOUS
 10
727.16224573325394
 20
261.5259398252557
 30
0.0
  0
VERTEX
  5
142E
  8
0
  6
CONTINUOUS
 10
731.20369761758127
 20
268.5259398252557
 30
0.0
  0
VERTEX
  5
142F
  8
0
  6
CONTINUOUS
 10
727.16224573325394
 20
275.5259398252557
 30
0.0
  0
SEQEND
  5
1430
  8
0
  6
CONTINUOUS
  0
CIRCLE
  5
C99
  8
0
  6
CONTINUOUS
 10
723.1207938489265
 20
268.5259398252557
 30
0.0
 40
7.0
  0
CIRCLE
  5
C9A
  8
0
  6
CONTINUOUS
 10
723.1207938489265
 20
268.5259398252557
 30
0.0
 40
4.0
  0
LINE
  5
C9B
  8
CENTER
  6
CENTER
 10
713.12079384892638
 20
268.5259398252557
 30
0.0
 11
733.12079384892638
 21
268.5259398252557
 31
0.0
  0
CIRCLE
  5
C9C
  8
0
  6
CONTINUOUS
 10
482.47391899340499
 20
161.85930166954279
 30
0.0
 40
2.0499999999999989
  0
LINE
  5
C9D
  8
CENTER
  6
CENTER
 10
478.19592296722641
 20
157.58130564336409
 30
0.0
 11
486.75191501958358
 21
166.1372976957214
 31
0.0
  0
ARC
  5
C9E
  8
0
  6
CONTINUOUS
 62
     2
 10
482.47391899340488
 20
161.85930166954279
 30
0.0
 40
2.5
 50
201.03635853977079
 51
155.01845143419189
  0
LINE
  5
C9F
  8
CENTER
  6
CENTER
 10
423.76071555780862
 20
140.6460982339463
 30
0.0
 11
498.76071555780862
 21
140.6460982339463
 31
0.0
  0
LINE
  5
CA0
  8
0
 10
423.76071555780862
 20
196.1460982339463
 30
0.0
 11
498.76071555780862
 21
196.1460982339463
 31
0.0
  0
LINE
  5
CA1
  8
DIM
  6
CONTINUOUS
 10
426.76071555780862
 20
230.5259398252557
 30
0.0
 11
495.76071555780862
 21
230.5259398252557
 31
0.0
  0
LINE
  5
CA2
  8
DIM
  6
CONTINUOUS
 10
428.26071555780862
 20
238.5259398252557
 30
0.0
 11
494.26071555780862
 21
238.5259398252557
 31
0.0
  0
LINE
  5
CA3
  8
0
  6
CONTINUOUS
 10
426.26071555780862
 20
327.5259398252557
 30
0.0
 11
496.26071555780862
 21
327.5259398252557
 31
0.0
  0
LINE
  5
CA4
  8
0
  6
CONTINUOUS
 10
426.26071555780862
 20
246.5259398252557
 30
0.0
 11
496.26071555780862
 21
246.5259398252557
 31
0.0
  0
LINE
  5
CA5
  8
0
  6
CONTINUOUS
 10
423.76071555780862
 20
254.5259398252557
 30
0.0
 11
498.76071555780862
 21
254.5259398252557
 31
0.0
  0
LINE
  5
CA6
  8
0
  6
CONTINUOUS
 10
423.76071555780862
 20
319.5259398252557
 30
0.0
 11
498.76071555780862
 21
319.52593982525559
 31
0.0
  0
LINE
  5
CA7
  8
DIM
  6
CONTINUOUS
 10
447.78555939747059
 20
326.52593982525582
 30
0.0
 11
408.26071555780862
 21
326.52593982525582
 31
0.0
  0
POLYLINE
  5
CA8
  8
0
  6
CONTINUOUS
 66
     1
 10
0.0
 20
0.0
 30
0.0
 70
     1
 40
1.0
 41
1.0
  0
VERTEX
  5
1431
  8
0
  6
CONTINUOUS
 10
461.76071555780851
 20
287.0259398252557
 30
0.0
 42
1.0
  0
VERTEX
  5
1432
  8
0
  6
CONTINUOUS
 10
460.76071555780862
 20
287.0259398252557
 30
0.0
 42
1.0
  0
SEQEND
  5
1433
  8
0
  6
CONTINUOUS
  0
CIRCLE
  5
CAC
  8
0
  6
CONTINUOUS
 10
461.26071555780862
 20
287.0259398252557
 30
0.0
 40
4.0
  0
LINE
  5
CAD
  8
CENTER
  6
CENTER
 10
482.50426322486061
 20
122.1460982339464
 30
0.0
 11
509.76071555780862
 21
122.1460982339464
 31
0.0
  0
LINE
  5
CAE
  8
0
  6
CONTINUOUS
 62
     2
 10
503.76071555780851
 20
118.94609823394561
 30
0.0
 11
506.36071555780711
 21
118.94609823394561
 31
0.0
  0
LINE
  5
CAF
  8
0
  6
CONTINUOUS
 10
503.06787491115813
 20
129.64609823394639
 30
0.0
 11
503.76071555780851
 21
128.44609823394561
 31
0.0
  0
POLYLINE
  5
CB0
  8
0
  6
CONTINUOUS
 66
     1
 10
0.0
 20
0.0
 30
0.0
  0
VERTEX
  5
1434
  8
0
  6
CONTINUOUS
 10
503.76071555780851
 20
122.1460982339464
 30
0.0
 42
0.0851703918331037
  0
VERTEX
  5
1435
  8
0
  6
CONTINUOUS
 10
503.07271555780852
 20
126.1460982339464
 30
0.0
 42
0.3457679526359281
  0
VERTEX
  5
1436
  8
0
  6
CONTINUOUS
 10
503.4142952344834
 20
129.046098233946
 30
0.0
  0
SEQEND
  5
1437
  8
0
  6
CONTINUOUS
  0
LINE
  5
CB5
  8
0
  6
CONTINUOUS
 10
505.5607155578079
 20
126.1460982339464
 30
0.0
 11
506.76071555780862
 21
124.94609823394561
 31
0.0
  0
LINE
  5
CB6
  8
0
  6
CONTINUOUS
 10
506.76071555780862
 20
124.94609823394561
 30
0.0
 11
506.76071555780868
 21
119.3460982339471
 31
0.0
  0
LINE
  5
CB7
  8
0
  6
CONTINUOUS
 10
503.76071555780851
 20
126.1460982339464
 30
0.0
 11
505.5607155578079
 21
126.1460982339464
 31
0.0
  0
LINE
  5
CB8
  8
0
  6
CONTINUOUS
 62
     2
 10
503.76071555780851
 20
125.3460982339471
 30
0.0
 11
506.36071555780711
 21
125.3460982339471
 31
0.0
  0
LINE
  5
CB9
  8
0
  6
CONTINUOUS
 10
499.45355620445901
 20
129.6460982339463
 30
0.0
 11
498.76071555780862
 21
128.44609823394561
 31
0.0
  0
POLYLINE
  5
CBA
  8
0
  6
CONTINUOUS
 66
     1
 10
0.0
 20
0.0
 30
0.0
  0
VERTEX
  5
1438
  8
0
  6
CONTINUOUS
 10
498.76071555780862
 20
122.1460982339463
 30
0.0
 42
-0.0851703918331037
  0
VERTEX
  5
1439
  8
0
  6
CONTINUOUS
 10
499.44871555780873
 20
126.1460982339463
 30
0.0
 42
-0.3457679526359281
  0
VERTEX
  5
143A
  8
0
  6
CONTINUOUS
 10
499.10713588113379
 20
129.04609823394591
 30
0.0
  0
SEQEND
  5
143B
  8
0
  6
CONTINUOUS
  0
LINE
  5
CBF
  8
0
  6
CONTINUOUS
 10
499.44871555780861
 20
126.1460982339464
 30
0.0
 11
503.07271555780852
 21
126.1460982339464
 31
0.0
  0
LINE
  5
CC0
  8
0
  6
CONTINUOUS
 10
499.45355620445901
 20
129.64609823394639
 30
0.0
 11
503.06787491115813
 21
129.64609823394639
 31
0.0
  0
ARC
  5
CC1
  8
0
  6
CONTINUOUS
 62
     2
 10
723.1207938489265
 20
268.5259398252557
 30
0.0
 40
3.399999999999999
 50
74.242562599193832
 51
23.28322721928971
  0
POLYLINE
  5
CC2
  8
0
  6
CONTINUOUS
 66
     1
 10
0.0
 20
0.0
 30
0.0
 70
     1
  0
VERTEX
  5
143C
  8
0
  6
CONTINUOUS
 10
721.96609331054651
 20
270.5259398252557
 30
0.0
  0
VERTEX
  5
143D
  8
0
  6
CONTINUOUS
 10
720.81139277216835
 20
268.5259398252557
 30
0.0
  0
VERTEX
  5
143E
  8
0
  6
CONTINUOUS
 10
721.96609331054651
 20
266.5259398252557
 30
0.0
  0
VERTEX
  5
143F
  8
0
  6
CONTINUOUS
 10
724.27549438730637
 20
266.5259398252557
 30
0.0
  0
VERTEX
  5
1440
  8
0
  6
CONTINUOUS
 10
725.43019492568465
 20
268.5259398252557
 30
0.0
  0
VERTEX
  5
1441
  8
0
  6
CONTINUOUS
 10
724.27549438730637
 20
270.5259398252557
 30
0.0
  0
SEQEND
  5
1442
  8
0
  6
CONTINUOUS
  0
LINE
  5
CCA
  8
CENTER
  6
CENTER
 10
723.1207938489265
 20
278.5259398252557
 30
0.0
 11
723.1207938489265
 21
258.52593982525559
 31
0.0
  0
POLYLINE
  5
CCB
  8
0
  6
CONTINUOUS
 66
     1
 10
0.0
 20
0.0
 30
0.0
  0
VERTEX
  5
1443
  8
0
  6
CONTINUOUS
 10
442.76071555780862
 20
201.1460982339463
 30
0.0
 42
0.0851703918331037
  0
VERTEX
  5
1444
  8
0
  6
CONTINUOUS
 10
438.76071555780862
 20
200.4580982339462
 30
0.0
 42
0.3457679526359281
  0
VERTEX
  5
1445
  8
0
  6
CONTINUOUS
 10
435.86071555780899
 20
200.79967791062111
 30
0.0
  0
SEQEND
  5
1446
  8
0
  6
CONTINUOUS
  0
LINE
  5
CD0
  8
0
  6
CONTINUOUS
 10
438.76071555780862
 20
202.94609823394561
 30
0.0
 11
439.96071555780941
 21
204.1460982339463
 31
0.0
  0
LINE
  5
CD1
  8
0
  6
CONTINUOUS
 10
446.76071555780862
 20
202.94609823394561
 30
0.0
 11
438.76071555780862
 21
202.94609823394561
 31
0.0
  0
LINE
  5
CD2
  8
0
  6
CONTINUOUS
 10
449.0607155578079
 20
201.1460982339463
 30
0.0
 11
436.46071555780918
 21
201.1460982339463
 31
0.0
  0
POLYLINE
  5
CD3
  8
0
  6
CONTINUOUS
 66
     1
 10
0.0
 20
0.0
 30
0.0
  0
VERTEX
  5
1447
  8
0
  6
CONTINUOUS
 10
442.76071555780851
 20
196.1460982339463
 30
0.0
 42
-0.0851703918331037
  0
VERTEX
  5
1448
  8
0
  6
CONTINUOUS
 10
438.76071555780851
 20
196.83409823394641
 30
0.0
 42
-0.3457679526359281
  0
VERTEX
  5
1449
  8
0
  6
CONTINUOUS
 10
435.86071555780887
 20
196.4925185572715
 30
0.0
  0
SEQEND
  5
144A
  8
0
  6
CONTINUOUS
  0
LINE
  5
CD8
  8
CENTER
  6
CENTER
 10
431.26071555780862
 20
164.6460982339463
 30
0.0
 11
431.26071555780862
 21
176.6460982339463
 31
0.0
  0
CIRCLE
  5
CD9
  8
0
  6
CONTINUOUS
 10
431.26071555780862
 20
170.6460982339463
 30
0.0
 40
2.5
  0
ARC
  5
CDA
  8
0
  6
CONTINUOUS
 62
     2
 10
431.26071555780862
 20
170.6460982339463
 30
0.0
 40
3.0
 50
338.35967540570613
 51
287.47149231941358
  0
LINE
  5
CDB
  8
CENTER
  6
CENTER
 10
425.26071555780862
 20
170.64609823394619
 30
0.0
 11
437.26071555780862
 21
170.6460982339463
 31
0.0
  0
LINE
  5
CDC
  8
0
  6
CONTINUOUS
 10
435.26071555780862
 20
200.45325758729589
 30
0.0
 11
436.46071555780929
 21
201.1460982339463
 31
0.0
  0
LINE
  5
CDD
  8
0
  6
CONTINUOUS
 62
     2
 10
439.5607155578079
 20
201.1460982339463
 30
0.0
 11
439.5607155578079
 21
203.74609823394491
 31
0.0
  0
LINE
  5
CDE
  8
0
  6
CONTINUOUS
 10
438.76071555780851
 20
201.1460982339463
 30
0.0
 11
438.76071555780862
 21
202.94609823394561
 31
0.0
  0
LINE
  5
CDF
  8
0
  6
CONTINUOUS
 10
435.26071555780851
 20
196.8389388805968
 30
0.0
 11
436.46071555780918
 21
196.1460982339463
 31
0.0
  0
LINE
  5
CE0
  8
0
  6
CONTINUOUS
 10
435.26071555780862
 20
196.8389388805968
 30
0.0
 11
435.26071555780862
 21
200.45325758729589
 31
0.0
  0
LINE
  5
CE1
  8
0
  6
CONTINUOUS
 10
438.76071555780862
 20
196.83409823394649
 30
0.0
 11
438.76071555780862
 21
200.4580982339462
 31
0.0
  0
LINE
  5
CE2
  8
0
  6
CONTINUOUS
 10
450.26071555780862
 20
200.45325758729589
 30
0.0
 11
449.0607155578079
 21
201.1460982339463
 31
0.0
  0
POLYLINE
  5
CE3
  8
0
  6
CONTINUOUS
 66
     1
 10
0.0
 20
0.0
 30
0.0
  0
VERTEX
  5
144B
  8
0
  6
CONTINUOUS
 10
442.76071555780862
 20
201.1460982339463
 30
0.0
 42
-0.0851703918331037
  0
VERTEX
  5
144C
  8
0
  6
CONTINUOUS
 10
446.76071555780862
 20
200.4580982339462
 30
0.0
 42
-0.3457679526359281
  0
VERTEX
  5
144D
  8
0
  6
CONTINUOUS
 10
449.6607155578082
 20
200.79967791062111
 30
0.0
  0
SEQEND
  5
144E
  8
0
  6
CONTINUOUS
  0
LINE
  5
CE8
  8
CENTER
  6
CENTER
 10
442.76071555780862
 20
179.88964590099829
 30
0.0
 11
442.76071555780862
 21
207.1460982339463
 31
0.0
  0
LINE
  5
CE9
  8
0
  6
CONTINUOUS
 10
446.76071555780862
 20
202.94609823394561
 30
0.0
 11
445.56071555780778
 21
204.1460982339463
 31
0.0
  0
LINE
  5
CEA
  8
0
  6
CONTINUOUS
 10
445.56071555780778
 20
204.1460982339463
 30
0.0
 11
439.96071555780941
 21
204.14609823394639
 31
0.0
  0
LINE
  5
CEB
  8
0
  6
CONTINUOUS
 10
446.76071555780862
 20
201.1460982339463
 30
0.0
 11
446.76071555780862
 21
202.94609823394561
 31
0.0
  0
LINE
  5
CEC
  8
0
  6
CONTINUOUS
 62
     2
 10
445.96071555780929
 20
201.1460982339463
 30
0.0
 11
445.96071555780929
 21
203.74609823394491
 31
0.0
  0
LINE
  5
CED
  8
0
  6
CONTINUOUS
 10
450.26071555780851
 20
196.8389388805968
 30
0.0
 11
449.06071555780778
 21
196.1460982339463
 31
0.0
  0
POLYLINE
  5
CEE
  8
0
  6
CONTINUOUS
 66
     1
 10
0.0
 20
0.0
 30
0.0
  0
VERTEX
  5
144F
  8
0
  6
CONTINUOUS
 10
442.76071555780851
 20
196.1460982339463
 30
0.0
 42
0.0851703918331037
  0
VERTEX
  5
1450
  8
0
  6
CONTINUOUS
 10
446.76071555780851
 20
196.83409823394641
 30
0.0
 42
0.3457679526359281
  0
VERTEX
  5
1451
  8
0
  6
CONTINUOUS
 10
449.66071555780809
 20
196.4925185572715
 30
0.0
  0
SEQEND
  5
1452
  8
0
  6
CONTINUOUS
  0
LINE
  5
CF3
  8
0
  6
CONTINUOUS
 10
446.76071555780862
 20
196.83409823394641
 30
0.0
 11
446.76071555780862
 21
200.4580982339462
 31
0.0
  0
LINE
  5
CF4
  8
0
  6
CONTINUOUS
 10
450.26071555780862
 20
196.8389388805968
 30
0.0
 11
450.26071555780862
 21
200.45325758729589
 31
0.0
  0
POLYLINE
  5
CF5
  8
0
  6
CONTINUOUS
 66
     1
 10
0.0
 20
0.0
 30
0.0
 70
     1
  0
VERTEX
  5
1453
  8
0
  6
CONTINUOUS
 10
438.71926367348118
 20
275.5259398252557
 30
0.0
  0
VERTEX
  5
1454
  8
0
  6
CONTINUOUS
 10
434.67781178915379
 20
268.5259398252557
 30
0.0
  0
VERTEX
  5
1455
  8
0
  6
CONTINUOUS
 10
438.71926367348118
 20
261.5259398252557
 30
0.0
  0
VERTEX
  5
1456
  8
0
  6
CONTINUOUS
 10
446.8021674421359
 20
261.5259398252557
 30
0.0
  0
VERTEX
  5
1457
  8
0
  6
CONTINUOUS
 10
450.8436193264634
 20
268.5259398252557
 30
0.0
  0
VERTEX
  5
1458
  8
0
  6
CONTINUOUS
 10
446.8021674421359
 20
275.5259398252557
 30
0.0
  0
SEQEND
  5
1459
  8
0
  6
CONTINUOUS
  0
CIRCLE
  5
CFD
  8
0
  6
CONTINUOUS
 10
442.76071555780862
 20
268.5259398252557
 30
0.0
 40
7.0
  0
POLYLINE
  5
CFE
  8
0
  6
CONTINUOUS
 66
     1
 10
0.0
 20
0.0
 30
0.0
 70
     1
  0
VERTEX
  5
145A
  8
0
  6
CONTINUOUS
 10
441.60601501942858
 20
270.5259398252557
 30
0.0
  0
VERTEX
  5
145B
  8
0
  6
CONTINUOUS
 10
440.45131448105042
 20
268.5259398252557
 30
0.0
  0
VERTEX
  5
145C
  8
0
  6
CONTINUOUS
 10
441.60601501942858
 20
266.5259398252557
 30
0.0
  0
VERTEX
  5
145D
  8
0
  6
CONTINUOUS
 10
443.91541609618849
 20
266.5259398252557
 30
0.0
  0
VERTEX
  5
145E
  8
0
  6
CONTINUOUS
 10
445.07011663456672
 20
268.5259398252557
 30
0.0
  0
VERTEX
  5
145F
  8
0
  6
CONTINUOUS
 10
443.91541609618849
 20
270.5259398252557
 30
0.0
  0
SEQEND
  5
1460
  8
0
  6
CONTINUOUS
  0
ARC
  5
D06
  8
0
  6
CONTINUOUS
 62
     2
 10
442.76071555780862
 20
268.5259398252557
 30
0.0
 40
3.399999999999999
 50
74.242562599195679
 51
23.283227219290101
  0
CIRCLE
  5
D07
  8
0
  6
CONTINUOUS
 10
442.76071555780862
 20
268.5259398252557
 30
0.0
 40
4.0
  0
LINE
  5
D08
  8
CENTER
  6
CENTER
 10
442.76071555780862
 20
278.5259398252557
 30
0.0
 11
442.76071555780862
 21
258.52593982525559
 31
0.0
  0
TEXT
  5
D09
  8
DIM
  6
CONTINUOUS
 10
407.76071555780851
 20
321.22777768583222
 30
0.0
 40
3.0
  1
1
 50
90.0
  7
ROMANSS
 72
     1
 11
406.26071555780862
 21
321.584920542975
 31
0.0
 73
     2
  0
SOLID
  5
D0A
  8
DIM
  6
CONTINUOUS
 10
408.76071555780862
 20
323.52593982525582
 30
0.0
 11
409.76071555780862
 21
323.52593982525582
 31
0.0
 12
409.26071555780862
 22
326.52593982525582
 32
0.0
 13
409.26071555780862
 23
326.52593982525582
 33
0.0
  0
LINE
  5
D0B
  8
DIM
  6
CONTINUOUS
 10
425.15423483930471
 20
327.5259398252557
 30
0.0
 11
408.26071555780862
 21
327.52593982525582
 31
0.0
  0
TEXT
  5
D0C
  8
DIM
  6
CONTINUOUS
 10
457.40357270066568
 20
224.0259398252557
 30
0.0
 40
3.0
  1
263
  7
ROMANSS
 72
     1
 11
461.26071555780862
 21
225.5259398252557
 31
0.0
 73
     2
  0
TEXT
  5
D0D
  8
DIM
  6
CONTINUOUS
 10
458.83214412923718
 20
232.0259398252557
 30
0.0
 40
3.0
  1
75
  7
ROMANSS
 72
     1
 11
461.26071555780862
 21
233.52593982525559
 31
0.0
 73
     2
  0
SOLID
  5
D0E
  8
DIM
  6
CONTINUOUS
 10
426.76071555780862
 20
231.02593982525559
 30
0.0
 11
426.76071555780862
 21
230.0259398252557
 31
0.0
 12
423.76071555780862
 22
230.5259398252557
 32
0.0
 13
423.76071555780862
 23
230.5259398252557
 33
0.0
  0
LINE
  5
D0F
  8
DIM
  6
CONTINUOUS
 10
423.76071555780862
 20
253.5259398252557
 30
0.0
 11
423.76071555780862
 21
229.5259398252557
 31
0.0
  0
TEXT
  5
D10
  8
DIM
  6
CONTINUOUS
 10
457.47500127209429
 20
240.0259398252557
 30
0.0
 40
3.0
  1
%%c72
  7
ROMANSS
 72
     1
 11
461.26071555780862
 21
241.52593982525559
 31
0.0
 73
     2
  0
SOLID
  5
D11
  8
DIM
  6
CONTINUOUS
 10
428.26071555780862
 20
239.0259398252557
 30
0.0
 11
428.26071555780862
 21
238.0259398252557
 31
0.0
 12
425.26071555780862
 22
238.5259398252557
 32
0.0
 13
425.26071555780862
 23
238.5259398252557
 33
0.0
  0
LINE
  5
D12
  8
DIM
  6
CONTINUOUS
 10
425.26071555780862
 20
246.5259398252557
 30
0.0
 11
425.26071555780862
 21
237.52593982525559
 31
0.0
  0
LINE
  5
D13
  8
CENTER
  6
CENTER
 10
431.26071555780868
 20
268.30489256945248
 30
0.0
 11
431.26071555780868
 21
251.57338562340919
 31
0.0
  0
LINE
  5
D14
  8
CENTER
  6
CENTER
 10
431.26071555780868
 20
306.2761604230509
 30
0.0
 11
431.26071555780868
 21
322.4784940271021
 31
0.0
  0
LINE
  5
D15
  8
0
  6
CONTINUOUS
 10
425.26071555780862
 20
326.5259398252557
 30
0.0
 11
426.26071555780862
 21
327.5259398252557
 31
0.0
  0
LINE
  5
D16
  8
0
 10
425.26071555780862
 20
319.5259398252557
 30
0.0
 11
425.26071555780862
 21
326.5259398252557
 31
0.0
  0
LINE
  5
D17
  8
0
  6
CONTINUOUS
 10
425.26071555780862
 20
247.5259398252557
 30
0.0
 11
426.26071555780862
 21
246.5259398252557
 31
0.0
  0
LINE
  5
D18
  8
0
 10
425.26071555780862
 20
254.5259398252557
 30
0.0
 11
425.26071555780862
 21
247.5259398252557
 31
0.0
  0
LINE
  5
D19
  8
0
 10
423.76071555780862
 20
319.5259398252557
 30
0.0
 11
423.76071555780862
 21
254.5259398252557
 31
0.0
  0
LINE
  5
D1A
  8
CENTER
  6
CENTER
 10
432.76071555780851
 20
268.5259398252557
 30
0.0
 11
452.76071555780862
 21
268.5259398252557
 31
0.0
  0
LINE
  5
D1B
  8
0
  6
CONTINUOUS
 10
503.06787491115813
 20
114.6460982339464
 30
0.0
 11
503.76071555780851
 21
115.8460982339471
 31
0.0
  0
LINE
  5
D1C
  8
0
  6
CONTINUOUS
 10
503.76071555780851
 20
118.1460982339463
 30
0.0
 11
505.5607155578079
 21
118.1460982339464
 31
0.0
  0
LINE
  5
D1D
  8
0
  6
CONTINUOUS
 10
499.45355620445901
 20
114.6460982339463
 30
0.0
 11
498.76071555780862
 21
115.846098233947
 31
0.0
  0
LINE
  5
D1E
  8
0
  6
CONTINUOUS
 10
499.45355620445901
 20
114.6460982339464
 30
0.0
 11
503.06787491115813
 21
114.6460982339464
 31
0.0
  0
LINE
  5
D1F
  8
0
  6
CONTINUOUS
 10
499.44871555780873
 20
118.1460982339464
 30
0.0
 11
503.07271555780852
 21
118.1460982339464
 31
0.0
  0
LINE
  5
D20
  8
CENTER
  6
CENTER
 10
485.26071555780862
 20
170.6460982339463
 30
0.0
 11
497.26071555780862
 21
170.6460982339463
 31
0.0
  0
LINE
  5
D21
  8
CENTER
  6
CENTER
 10
491.26071555780851
 20
164.6460982339463
 30
0.0
 11
491.26071555780851
 21
176.6460982339463
 31
0.0
  0
CIRCLE
  5
D22
  8
0
  6
CONTINUOUS
 10
491.26071555780851
 20
170.6460982339463
 30
0.0
 40
2.5
  0
ARC
  5
D23
  8
0
  6
CONTINUOUS
 62
     2
 10
491.26071555780851
 20
170.6460982339463
 30
0.0
 40
3.0
 50
338.35967540570613
 51
287.47149231941358
  0
SOLID
  5
D24
  8
DIM
  6
CONTINUOUS
 10
495.76071555780862
 20
231.02593982525559
 30
0.0
 11
495.76071555780862
 21
230.0259398252557
 31
0.0
 12
498.76071555780862
 22
230.5259398252557
 32
0.0
 13
498.76071555780862
 23
230.5259398252557
 33
0.0
  0
LINE
  5
D25
  8
DIM
  6
CONTINUOUS
 10
498.76071555780862
 20
253.5259398252557
 30
0.0
 11
498.76071555780862
 21
229.5259398252557
 31
0.0
  0
SOLID
  5
D26
  8
DIM
  6
CONTINUOUS
 10
494.26071555780862
 20
239.0259398252557
 30
0.0
 11
494.26071555780862
 21
238.0259398252557
 31
0.0
 12
497.26071555780862
 22
238.5259398252557
 32
0.0
 13
497.26071555780862
 23
238.5259398252557
 33
0.0
  0
LINE
  5
D27
  8
DIM
  6
CONTINUOUS
 10
497.26071555780862
 20
246.5259398252557
 30
0.0
 11
497.26071555780862
 21
237.52593982525559
 31
0.0
  0
LINE
  5
D28
  8
CENTER
  6
CENTER
 10
491.26071555780851
 20
305.95336701204047
 30
0.0
 11
491.26071555780851
 21
322.4784940271021
 31
0.0
  0
LINE
  5
D29
  8
CENTER
  6
CENTER
 10
491.26071555780851
 20
268.33131489593382
 30
0.0
 11
491.26071555780851
 21
251.57338562340919
 31
0.0
  0
LINE
  5
D2A
  8
0
  6
CONTINUOUS
 10
497.26071555780862
 20
326.5259398252557
 30
0.0
 11
496.26071555780862
 21
327.5259398252557
 31
0.0
  0
LINE
  5
D2B
  8
0
 10
497.26071555780862
 20
319.5259398252557
 30
0.0
 11
497.26071555780862
 21
326.5259398252557
 31
0.0
  0
LINE
  5
D2C
  8
0
  6
CONTINUOUS
 10
497.26071555780862
 20
247.5259398252557
 30
0.0
 11
496.26071555780862
 21
246.5259398252557
 31
0.0
  0
LINE
  5
D2D
  8
0
 10
497.26071555780862
 20
254.5259398252557
 30
0.0
 11
497.26071555780862
 21
247.5259398252557
 31
0.0
  0
LINE
  5
D2E
  8
0
 10
498.76071555780862
 20
319.52593982525559
 30
0.0
 11
498.76071555780862
 21
254.5259398252557
 31
0.0
  0
LINE
  5
D2F
  8
DIM
  6
CONTINUOUS
 10
652.1207938489265
 20
230.5259398252557
 30
0.0
 11
739.1207938489265
 21
230.5259398252557
 31
0.0
  0
LINE
  5
D30
  8
CENTER
  6
CENTER
 10
646.01643831840136
 20
279.5259398252557
 30
0.0
 11
659.74437878693368
 21
279.5259398252557
 31
0.0
  0
LINE
  5
D31
  8
CENTER
  6
CENTER
 10
646.11433860737884
 20
291.02593982525559
 30
0.0
 11
665.51433860737859
 21
291.02593982525559
 31
0.0
  0
LINE
  5
D32
  8
0
  6
CONTINUOUS
 10
649.1207938489265
 20
254.5259398252557
 30
0.0
 11
742.12079384892638
 21
254.5259398252557
 31
0.0
  0
LINE
  5
D33
  8
0
  6
CONTINUOUS
 10
649.1207938489265
 20
319.5259398252557
 30
0.0
 11
742.12079384892638
 21
319.52593982525559
 31
0.0
  0
POLYLINE
  5
D34
  8
0
 66
     1
 10
0.0
 20
0.0
 30
0.0
 70
     1
  0
VERTEX
  5
1461
  8
0
 10
655.12079384892638
 20
269.75799063282471
 30
0.0
  0
VERTEX
  5
1462
  8
0
 10
655.12079384892638
 20
266.29388901768692
 30
0.0
  0
VERTEX
  5
1463
  8
0
 10
658.12079384892638
 20
264.56183821011803
 30
0.0
  0
VERTEX
  5
1464
  8
0
 10
661.1207938489265
 20
266.29388901768692
 30
0.0
  0
VERTEX
  5
1465
  8
0
 10
661.1207938489265
 20
269.75799063282471
 30
0.0
  0
VERTEX
  5
1466
  8
0
 10
658.12079384892638
 20
271.4900414403935
 30
0.0
  0
SEQEND
  5
1467
  8
0
  0
CIRCLE
  5
D3C
  8
0
 10
658.12079384892638
 20
268.0259398252557
 30
0.0
 40
5.0
  0
CIRCLE
  5
D3D
  8
0
 10
658.12079384892638
 20
268.0259398252557
 30
0.0
 40
5.5
  0
POLYLINE
  5
D3E
  8
0
 66
     1
 10
0.0
 20
0.0
 30
0.0
 70
     1
  0
VERTEX
  5
1468
  8
0
 10
655.12079384892638
 20
307.75799063282471
 30
0.0
  0
VERTEX
  5
1469
  8
0
 10
655.12079384892638
 20
304.29388901768692
 30
0.0
  0
VERTEX
  5
146A
  8
0
 10
658.12079384892638
 20
302.56183821011808
 30
0.0
  0
VERTEX
  5
146B
  8
0
 10
661.1207938489265
 20
304.29388901768692
 30
0.0
  0
VERTEX
  5
146C
  8
0
 10
661.1207938489265
 20
307.75799063282471
 30
0.0
  0
VERTEX
  5
146D
  8
0
 10
658.12079384892638
 20
309.4900414403935
 30
0.0
  0
SEQEND
  5
146E
  8
0
  0
CIRCLE
  5
D46
  8
0
 10
658.12079384892638
 20
306.0259398252557
 30
0.0
 40
5.5
  0
CIRCLE
  5
D47
  8
0
 10
658.12079384892638
 20
306.0259398252557
 30
0.0
 40
5.0
  0
LINE
  5
D48
  8
CENTER
  6
CENTER
 10
651.6207938489265
 20
306.0259398252557
 30
0.0
 11
664.6207938489265
 21
306.0259398252557
 31
0.0
  0
LINE
  5
D49
  8
0
 10
654.62079384892638
 20
288.02593982525559
 30
0.0
 11
658.22635022123541
 21
288.02593982525559
 31
0.0
  0
LINE
  5
D4A
  8
0
 10
654.62079384892638
 20
286.0259398252557
 30
0.0
 11
658.22635022123541
 21
286.0259398252557
 31
0.0
  0
ARC
  5
D4B
  8
0
 10
658.12079384892638
 20
306.02593982525559
 30
0.0
 40
7.5
 50
245.68426082882789
 51
304.1930771251387
  0
LINE
  5
D4C
  8
0
 10
659.08984564158766
 20
282.03553860795228
 30
0.0
 11
654.62079384892638
 21
282.03553860795228
 31
0.0
  0
ARC
  5
D4D
  8
0
 10
658.12079384892638
 20
268.0259398252557
 30
0.0
 40
7.5
 50
55.806922874861257
 51
114.3157391711738
  0
LINE
  5
D4E
  8
CENTER
  6
CENTER
 10
651.6207938489265
 20
268.0259398252557
 30
0.0
 11
664.6207938489265
 21
268.0259398252557
 31
0.0
  0
LINE
  5
D4F
  8
CENTER
  6
CENTER
 10
646.12079384892638
 20
287.0259398252557
 30
0.0
 11
745.1207938489265
 21
287.0259398252557
 31
0.0
  0
POLYLINE
  5
D50
  8
0
 66
     1
 10
0.0
 20
0.0
 30
0.0
 70
     1
  0
VERTEX
  5
146F
  8
0
 10
703.1207938489265
 20
306.0259398252557
 30
0.0
 42
0.4142135623730951
  0
VERTEX
  5
1470
  8
0
 10
696.12079384892627
 20
313.0259398252557
 30
0.0
  0
VERTEX
  5
1471
  8
0
 10
658.12079384892638
 20
313.0259398252557
 30
0.0
 42
0.4142135623730951
  0
VERTEX
  5
1472
  8
0
 10
651.12079384892638
 20
306.0259398252557
 30
0.0
  0
VERTEX
  5
1473
  8
0
 10
651.12079384892638
 20
268.0259398252557
 30
0.0
 42
0.4142135623730951
  0
VERTEX
  5
1474
  8
0
 10
658.12079384892638
 20
261.0259398252557
 30
0.0
  0
VERTEX
  5
1475
  8
0
 10
696.12079384892627
 20
261.0259398252557
 30
0.0
 42
0.4142135623730957
  0
VERTEX
  5
1476
  8
0
 10
703.1207938489265
 20
268.0259398252557
 30
0.0
  0
SEQEND
  5
1477
  8
0
  0
POLYLINE
  5
D5A
  8
0
 66
     1
 10
0.0
 20
0.0
 30
0.0
 70
     1
  0
VERTEX
  5
1478
  8
0
 10
703.6207938489265
 20
306.0259398252557
 30
0.0
 42
0.4142135623730951
  0
VERTEX
  5
1479
  8
0
 10
696.12079384892627
 20
313.5259398252557
 30
0.0
  0
VERTEX
  5
147A
  8
0
 10
658.12079384892638
 20
313.5259398252557
 30
0.0
 42
0.4142135623730951
  0
VERTEX
  5
147B
  8
0
 10
650.62079384892638
 20
306.0259398252557
 30
0.0
  0
VERTEX
  5
147C
  8
0
 10
650.62079384892638
 20
268.0259398252557
 30
0.0
 42
0.4142135623730951
  0
VERTEX
  5
147D
  8
0
 10
658.12079384892638
 20
260.5259398252557
 30
0.0
  0
VERTEX
  5
147E
  8
0
 10
696.12079384892627
 20
260.5259398252557
 30
0.0
 42
0.4142135623730951
  0
VERTEX
  5
147F
  8
0
 10
703.6207938489265
 20
268.0259398252557
 30
0.0
  0
SEQEND
  5
1480
  8
0
  0
LINE
  5
D64
  8
0
 10
592.76071555780857
 20
142.1460982339463
 30
0.0
 11
592.76071555780857
 21
194.1460982339463
 31
0.0
  0
LINE
  5
D65
  8
0
 10
592.76071555780857
 20
150.6460982339463
 30
0.0
 11
595.76071555780857
 21
150.6460982339463
 31
0.0
  0
ARC
  5
D66
  8
0
 10
595.76071555780857
 20
151.6460982339463
 30
0.0
 40
1.0
 50
270.0
 51
0.0
  0
ARC
  5
D67
  8
0
 10
595.76071555780857
 20
184.6460982339463
 30
0.0
 40
1.0
 50
0.0
 51
90.0
  0
LINE
  5
D68
  8
0
 10
596.76071555780857
 20
151.6460982339463
 30
0.0
 11
596.76071555780857
 21
184.6460982339463
 31
0.0
  0
LINE
  5
D69
  8
0
 10
562.76071555780857
 20
141.6460982339463
 30
0.0
 11
562.76071555780857
 21
194.6460982339463
 31
0.0
  0
LINE
  5
D6A
  8
0
 10
562.76071555780857
 20
194.6460982339463
 30
0.0
 11
592.76071555780857
 21
194.1460982339463
 31
0.0
  0
LINE
  5
D6B
  8
0
 10
562.76071555780857
 20
141.6460982339463
 30
0.0
 11
592.76071555780857
 21
142.1460982339463
 31
0.0
  0
ARC
  5
D6C
  8
0
  6
CONTINUOUS
 10
640.70381425331493
 20
265.0259398252557
 30
0.0
 40
8.4553825989882458
 50
335.54757590941512
 51
24.452424090584881
  0
ARC
  5
D6D
  8
0
  6
CONTINUOUS
 10
640.70381425331493
 20
272.0259398252557
 30
0.0
 40
8.4553825989882458
 50
335.54757590941512
 51
24.452424090584881
  0
LINE
  5
D6E
  8
0
  6
CONTINUOUS
 10
641.1207938489265
 20
265.72593982525638
 30
0.0
 11
641.1207938489265
 21
271.32593982525492
 31
0.0
  0
LINE
  5
D6F
  8
0
  6
CONTINUOUS
 10
642.32079384892722
 20
264.5259398252557
 30
0.0
 11
641.1207938489265
 21
265.72593982525638
 31
0.0
  0
LINE
  5
D70
  8
0
  6
CONTINUOUS
 10
644.02079384892795
 20
264.5259398252557
 30
0.0
 11
642.32079384892722
 21
264.5259398252557
 31
0.0
  0
LINE
  5
D71
  8
0
  6
CONTINUOUS
 10
642.32079384892722
 20
272.5259398252557
 30
0.0
 11
641.1207938489265
 21
271.32593982525498
 31
0.0
  0
LINE
  5
D72
  8
0
  6
CONTINUOUS
 10
644.02079384892795
 20
272.5259398252557
 30
0.0
 11
642.32079384892722
 21
272.5259398252557
 31
0.0
  0
LINE
  5
D73
  8
0
  6
CONTINUOUS
 10
649.1207938489265
 20
275.5259398252557
 30
0.0
 11
649.1207938489265
 21
268.5259398252557
 31
0.0
  0
LINE
  5
D74
  8
0
  6
CONTINUOUS
 10
644.1207938489265
 20
275.5259398252557
 30
0.0
 11
649.1207938489265
 21
275.5259398252557
 31
0.0
  0
ARC
  5
D75
  8
0
  6
CONTINUOUS
 10
652.53777344453761
 20
272.0259398252557
 30
0.0
 40
8.4553825989878657
 50
155.54757590940659
 51
204.4524240905933
  0
LINE
  5
D76
  8
0
  6
CONTINUOUS
 10
648.40079384892715
 20
268.5259398252557
 30
0.0
 11
644.84079384892584
 21
268.5259398252557
 31
0.0
  0
LINE
  5
D77
  8
0
  6
CONTINUOUS
 10
649.1207938489265
 20
261.5259398252557
 30
0.0
 11
649.1207938489265
 21
268.5259398252557
 31
0.0
  0
LINE
  5
D78
  8
0
  6
CONTINUOUS
 10
644.1207938489265
 20
261.5259398252557
 30
0.0
 11
649.1207938489265
 21
261.5259398252557
 31
0.0
  0
ARC
  5
D79
  8
0
  6
CONTINUOUS
 10
652.53777344453761
 20
265.0259398252557
 30
0.0
 40
8.4553825989878657
 50
155.54757590940659
 51
204.45242409059369
  0
LINE
  5
D7A
  8
0
  6
CONTINUOUS
 10
649.1207938489265
 20
268.5259398252557
 30
0.0
 11
644.84079384892584
 21
268.5259398252557
 31
0.0
  0
LINE
  5
D7B
  8
0
  6
CONTINUOUS
 62
     2
 10
644.02079384892795
 20
271.72593982525649
 30
0.0
 11
641.52079384892795
 21
271.72593982525649
 31
0.0
  0
LINE
  5
D7C
  8
0
  6
CONTINUOUS
 10
644.1207938489265
 20
275.5259398252557
 30
0.0
 11
644.1207938489265
 21
261.5259398252557
 31
0.0
  0
LINE
  5
D7D
  8
0
  6
CONTINUOUS
 62
     2
 10
644.02079384892795
 20
265.32593982525498
 30
0.0
 11
641.52079384892795
 21
265.32593982525498
 31
0.0
  0
LINE
  5
D7E
  8
0
  6
CONTINUOUS
 10
642.32079384892722
 20
264.5259398252557
 30
0.0
 11
642.32079384892722
 21
272.5259398252557
 31
0.0
  0
LINE
  5
D7F
  8
CENTER
  6
CENTER
 10
638.31807104020606
 20
268.5259398252557
 30
0.0
 11
657.38846410409235
 21
268.5259398252557
 31
0.0
  0
SOLID
  5
D80
  8
DIM
  6
CONTINUOUS
 10
656.15271078262515
 20
311.73776276582458
 30
0.0
 11
655.27337369671307
 21
311.26156292401481
 31
0.0
 12
657.14164176509894
 22
308.86165158718359
 32
0.0
 13
657.14164176509894
 23
308.86165158718359
 33
0.0
  0
LINE
  5
D81
  8
DIM
  6
CONTINUOUS
 10
590.14405835412708
 20
329.41731033921837
 30
0.0
 11
610.33444554685593
 21
329.41731033921837
 31
0.0
  0
LINE
  5
D82
  8
DIM
  6
CONTINUOUS
 10
583.98257925584039
 20
298.46738027571593
 30
0.0
 11
610.33444554685593
 21
329.41731033921837
 31
0.0
  0
SOLID
  5
D83
  8
DIM
  6
CONTINUOUS
 10
584.36327912209504
 20
298.14323893026022
 30
0.0
 11
583.60187938958586
 21
298.79152162117168
 31
0.0
 12
582.03773118310608
 22
296.18318107818931
 32
0.0
 13
582.03773118310608
 23
296.18318107818931
 33
0.0
  0
POLYLINE
  5
D84
  8
DIM
  6
CONTINUOUS
 66
     1
 10
0.0
 20
0.0
 30
0.0
 70
     1
  0
VERTEX
  5
1481
  8
DIM
  6
CONTINUOUS
 10
629.19791347345028
 20
285.50128359718337
 30
0.0
  0
VERTEX
  5
1482
  8
DIM
  6
CONTINUOUS
 10
629.19791347345028
 20
283.61578473715451
 30
0.0
  0
VERTEX
  5
1483
  8
DIM
  6
CONTINUOUS
 10
631.13866801086601
 20
283.61578473715451
 30
0.0
  0
VERTEX
  5
1484
  8
DIM
  6
CONTINUOUS
 10
631.13866801086601
 20
285.50128359718337
 30
0.0
  0
SEQEND
  5
1485
  8
DIM
  6
CONTINUOUS
  0
POLYLINE
  5
D8A
  8
DIM
  6
CONTINUOUS
 66
     1
 10
0.0
 20
0.0
 30
0.0
 70
     1
  0
VERTEX
  5
1486
  8
DIM
  6
CONTINUOUS
 10
621.19791347345028
 20
285.50128359718337
 30
0.0
  0
VERTEX
  5
1487
  8
DIM
  6
CONTINUOUS
 10
621.19791347345028
 20
283.61578473715451
 30
0.0
  0
VERTEX
  5
1488
  8
DIM
  6
CONTINUOUS
 10
623.13866801086601
 20
283.61578473715451
 30
0.0
  0
VERTEX
  5
1489
  8
DIM
  6
CONTINUOUS
 10
623.13866801086601
 20
285.50128359718337
 30
0.0
  0
SEQEND
  5
148A
  8
DIM
  6
CONTINUOUS
  0
TEXT
  5
D90
  8
DIM
  6
CONTINUOUS
 10
603.26071555780857
 20
283.24022553954143
 30
0.0
 40
3.0
  1
%%c35
 50
90.0
  7
ROMANSS
 72
     1
 11
601.76071555780868
 21
287.0259398252557
 31
0.0
 73
     2
  0
SOLID
  5
D91
  8
DIM
  6
CONTINUOUS
 10
604.26071555780857
 20
301.5259398252557
 30
0.0
 11
605.26071555780868
 21
301.5259398252557
 31
0.0
 12
604.76071555780857
 22
304.5259398252557
 32
0.0
 13
604.76071555780857
 23
304.5259398252557
 33
0.0
  0
SOLID
  5
D92
  8
DIM
  6
CONTINUOUS
 10
604.26071555780857
 20
272.5259398252557
 30
0.0
 11
605.26071555780868
 21
272.5259398252557
 31
0.0
 12
604.76071555780857
 22
269.5259398252557
 32
0.0
 13
604.76071555780857
 23
269.5259398252557
 33
0.0
  0
LINE
  5
D93
  8
DIM
  6
CONTINUOUS
 10
604.76071555780857
 20
272.5259398252557
 30
0.0
 11
604.76071555780857
 21
301.5259398252557
 31
0.0
  0
LINE
  5
D94
  8
DIM
  6
CONTINUOUS
 10
596.76071555780857
 20
304.5259398252557
 30
0.0
 11
605.76071555780868
 21
304.5259398252557
 31
0.0
  0
LINE
  5
D95
  8
DIM
  6
CONTINUOUS
 10
596.76071555780857
 20
269.5259398252557
 30
0.0
 11
605.76071555780868
 21
269.5259398252557
 31
0.0
  0
TEXT
  5
D96
  8
DIM
  6
CONTINUOUS
 10
623.62079384892616
 20
285.94415427734378
 30
0.0
 40
3.0
  1
53
 50
90.0
  7
ROMANSS
 72
     1
 11
622.12079384892616
 21
288.37272570591517
 31
0.0
 73
     2
  0
SOLID
  5
D97
  8
DIM
  6
CONTINUOUS
 10
624.62079384892627
 20
310.5259398252557
 30
0.0
 11
625.62079384892627
 21
310.5259398252557
 31
0.0
 12
625.12079384892627
 22
313.5259398252557
 32
0.0
 13
625.12079384892627
 23
313.5259398252557
 33
0.0
  0
SOLID
  5
D98
  8
DIM
  6
CONTINUOUS
 10
624.62079384892627
 20
263.5259398252557
 30
0.0
 11
625.62079384892627
 21
263.5259398252557
 31
0.0
 12
625.12079384892627
 22
260.5259398252557
 32
0.0
 13
625.12079384892627
 23
260.5259398252557
 33
0.0
  0
LINE
  5
D99
  8
DIM
  6
CONTINUOUS
 10
625.12079384892627
 20
263.5259398252557
 30
0.0
 11
625.12079384892627
 21
310.5259398252557
 31
0.0
  0
LINE
  5
D9A
  8
DIM
  6
CONTINUOUS
 10
657.1207938489265
 20
313.5259398252557
 30
0.0
 11
624.12079384892616
 21
313.5259398252557
 31
0.0
  0
LINE
  5
D9B
  8
DIM
  6
CONTINUOUS
 10
657.1207938489265
 20
260.5259398252557
 30
0.0
 11
624.12079384892616
 21
260.5259398252557
 31
0.0
  0
TEXT
  5
D9C
  8
DIM
  6
CONTINUOUS
 10
631.62079384892616
 20
285.94415427734378
 30
0.0
 40
3.0
  1
38
 50
90.0
  7
ROMANSS
 72
     1
 11
630.12079384892616
 21
288.37272570591517
 31
0.0
 73
     2
  0
SOLID
  5
D9D
  8
DIM
  6
CONTINUOUS
 10
632.62079384892616
 20
303.0259398252557
 30
0.0
 11
633.62079384892627
 21
303.0259398252557
 31
0.0
 12
633.12079384892627
 22
306.0259398252557
 32
0.0
 13
633.12079384892627
 23
306.0259398252557
 33
0.0
  0
SOLID
  5
D9E
  8
DIM
  6
CONTINUOUS
 10
632.62079384892616
 20
271.0259398252557
 30
0.0
 11
633.62079384892627
 21
271.0259398252557
 31
0.0
 12
633.12079384892627
 22
268.0259398252557
 32
0.0
 13
633.12079384892627
 23
268.0259398252557
 33
0.0
  0
LINE
  5
D9F
  8
DIM
  6
CONTINUOUS
 10
633.12079384892627
 20
271.0259398252557
 30
0.0
 11
633.12079384892627
 21
303.0259398252557
 31
0.0
  0
LINE
  5
DA0
  8
DIM
  6
CONTINUOUS
 10
650.62079384892638
 20
306.0259398252557
 30
0.0
 11
632.12079384892616
 21
306.0259398252557
 31
0.0
  0
LINE
  5
DA1
  8
DIM
  6
CONTINUOUS
 10
650.62079384892638
 20
268.0259398252557
 30
0.0
 11
632.12079384892616
 21
268.0259398252557
 31
0.0
  0
SOLID
  5
DA2
  8
DIM
  6
CONTINUOUS
 10
652.1207938489265
 20
231.02593982525559
 30
0.0
 11
652.1207938489265
 21
230.0259398252557
 31
0.0
 12
649.1207938489265
 22
230.5259398252557
 32
0.0
 13
649.1207938489265
 23
230.5259398252557
 33
0.0
  0
LINE
  5
DA3
  8
DIM
  6
CONTINUOUS
 10
649.1207938489265
 20
253.5259398252557
 30
0.0
 11
649.1207938489265
 21
229.5259398252557
 31
0.0
  0
TEXT
  5
DA4
  8
DIM
  6
CONTINUOUS
 10
603.1086078490456
 20
224.0259398252557
 30
0.0
 40
3.0
  1
4
  7
ROMANSS
 72
     1
 11
604.18003642047415
 21
225.5259398252557
 31
0.0
 73
     2
  0
SOLID
  5
DA5
  8
DIM
  6
CONTINUOUS
 10
599.76071555780857
 20
223.0259398252557
 30
0.0
 11
599.76071555780857
 21
222.0259398252557
 31
0.0
 12
596.76071555780857
 22
222.5259398252557
 32
0.0
 13
596.76071555780857
 23
222.5259398252557
 33
0.0
  0
LINE
  5
DA6
  8
DIM
  6
CONTINUOUS
 10
596.76071555780857
 20
268.52119511208087
 30
0.0
 11
596.76071555780857
 21
221.5259398252557
 31
0.0
  0
SOLID
  5
DA7
  8
DIM
  6
CONTINUOUS
 10
589.76071555780868
 20
223.0259398252557
 30
0.0
 11
589.76071555780868
 21
222.0259398252557
 31
0.0
 12
592.76071555780857
 22
222.5259398252557
 32
0.0
 13
592.76071555780857
 23
222.5259398252557
 33
0.0
  0
LINE
  5
DA8
  8
DIM
  6
CONTINUOUS
 10
592.76071555780857
 20
260.0259398252557
 30
0.0
 11
592.76071555780857
 21
221.5259398252557
 31
0.0
  0
ARC
  5
DA9
  8
0
  6
CONTINUOUS
 10
569.26071555780868
 20
279.5259398252557
 30
0.0
 40
3.5
 50
38.213210701738312
 51
81.786789298261766
  0
ARC
  5
DAA
  8
0
  6
CONTINUOUS
 10
569.26071555780868
 20
279.5259398252557
 30
0.0
 40
3.5
 50
338.21321070173849
 51
21.786789298261379
  0
LINE
  5
DAB
  8
0
  6
CONTINUOUS
 10
568.76071555780868
 20
284.50087701078883
 30
0.0
 11
568.76071555780868
 21
282.9900414403935
 31
0.0
  0
LINE
  5
DAC
  8
0
  6
CONTINUOUS
 10
569.76071555780857
 20
284.50087701078883
 30
0.0
 11
569.76071555780857
 21
282.9900414403935
 31
0.0
  0
LINE
  5
DAD
  8
0
  6
CONTINUOUS
 10
572.01071555780857
 20
281.69100333471681
 30
0.0
 11
573.31913754271216
 21
282.44642111991448
 31
0.0
  0
LINE
  5
DAE
  8
0
  6
CONTINUOUS
 10
572.51071555780857
 20
280.82497793093239
 30
0.0
 11
573.81913754271216
 21
281.58039571613011
 31
0.0
  0
ARC
  5
DAF
  8
0
  6
CONTINUOUS
 10
569.26071555780868
 20
279.5259398252557
 30
0.0
 40
3.5
 50
278.21321070173809
 51
321.78678929826162
  0
LINE
  5
DB0
  8
0
  6
CONTINUOUS
 10
568.76071555780868
 20
276.06183821011791
 30
0.0
 11
568.76071555780868
 21
274.55100263972258
 31
0.0
  0
LINE
  5
DB1
  8
0
  6
CONTINUOUS
 10
569.76071555780857
 20
276.06183821011791
 30
0.0
 11
569.76071555780857
 21
274.55100263972258
 31
0.0
  0
LINE
  5
DB2
  8
0
  6
CONTINUOUS
 10
573.31913754271216
 20
276.60545853059688
 30
0.0
 11
572.01071555780857
 21
277.3608763157946
 31
0.0
  0
LINE
  5
DB3
  8
0
  6
CONTINUOUS
 10
573.81913754271216
 20
277.47148393438141
 30
0.0
 11
572.51071555780857
 21
278.22690171957902
 31
0.0
  0
POLYLINE
  5
DB4
  8
0
  6
CONTINUOUS
 66
     1
 10
0.0
 20
0.0
 30
0.0
 70
     1
  0
VERTEX
  5
148B
  8
0
  6
CONTINUOUS
 10
568.39469015402426
 20
281.0259398252557
 30
0.0
  0
VERTEX
  5
148C
  8
0
  6
CONTINUOUS
 10
567.52866475023984
 20
279.5259398252557
 30
0.0
  0
VERTEX
  5
148D
  8
0
  6
CONTINUOUS
 10
568.39469015402426
 20
278.0259398252557
 30
0.0
  0
VERTEX
  5
148E
  8
0
  6
CONTINUOUS
 10
570.1267409615931
 20
278.0259398252557
 30
0.0
  0
VERTEX
  5
148F
  8
0
  6
CONTINUOUS
 10
570.99276636537752
 20
279.5259398252557
 30
0.0
  0
VERTEX
  5
1490
  8
0
  6
CONTINUOUS
 10
570.1267409615931
 20
281.0259398252557
 30
0.0
  0
SEQEND
  5
1491
  8
0
  6
CONTINUOUS
  0
LINE
  5
DBC
  8
0
  6
CONTINUOUS
 10
566.51071555780868
 20
281.69100333471681
 30
0.0
 11
565.20229357290509
 21
282.44642111991448
 31
0.0
  0
ARC
  5
DBD
  8
0
  6
CONTINUOUS
 10
569.26071555780868
 20
279.5259398252557
 30
0.0
 40
3.5
 50
158.21321070173769
 51
201.78678929826219
  0
LINE
  5
DBE
  8
0
  6
CONTINUOUS
 10
566.01071555780868
 20
280.82497793093239
 30
0.0
 11
564.70229357290532
 21
281.58039571613011
 31
0.0
  0
LINE
  5
DBF
  8
0
  6
CONTINUOUS
 10
565.20229357290509
 20
276.60545853059688
 30
0.0
 11
566.51071555780868
 21
277.3608763157946
 31
0.0
  0
LINE
  5
DC0
  8
0
  6
CONTINUOUS
 10
564.70229357290532
 20
277.47148393438141
 30
0.0
 11
566.01071555780868
 21
278.22690171957902
 31
0.0
  0
CIRCLE
  5
DC1
  8
0
 10
569.26071555780868
 20
279.5259398252557
 30
0.0
 40
5.2999999999999989
  0
CIRCLE
  5
DC2
  8
0
 10
569.26071555780868
 20
279.5259398252557
 30
0.0
 40
5.0
  0
ARC
  5
DC3
  8
0
  6
CONTINUOUS
 10
569.26071555780868
 20
279.5259398252557
 30
0.0
 40
3.5
 50
98.213210701738234
 51
141.7867892982643
  0
ARC
  5
DC4
  8
0
  6
CONTINUOUS
 10
569.26071555780868
 20
279.5259398252557
 30
0.0
 40
3.5
 50
218.21321070173829
 51
261.78678929826179
  0
CIRCLE
  5
DC5
  8
0
  6
CONTINUOUS
 10
569.26071555780868
 20
279.5259398252557
 30
0.0
 40
2.5
  0
LINE
  5
DC6
  8
CENTER
  6
CENTER
 10
569.26071555780868
 20
272.66196959098949
 30
0.0
 11
569.26071555780868
 21
286.38991005952192
 31
0.0
  0
LINE
  5
DC7
  8
CENTER
  6
CENTER
 10
562.39674532354252
 20
279.5259398252557
 30
0.0
 11
576.12468579207484
 21
279.5259398252557
 31
0.0
  0
LINE
  5
DC8
  8
0
 10
649.1207938489265
 20
319.5259398252557
 30
0.0
 11
649.1207938489265
 21
254.5259398252557
 31
0.0
  0
LINE
  5
DC9
  8
0
 10
650.62079384892627
 20
304.5259398252557
 30
0.0
 11
651.12079384892638
 21
304.5259398252557
 31
0.0
  0
ARC
  5
DCA
  8
0
 10
654.62079384892638
 20
298.2799731328405
 30
0.0
 40
1.0
 50
65.68426082881895
 51
180.0
  0
ARC
  5
DCB
  8
0
 10
654.62079384892638
 20
289.02593982525559
 30
0.0
 40
1.0
 50
180.0
 51
270.0
  0
ARC
  5
DCC
  8
0
 10
654.62079384892638
 20
285.0259398252557
 30
0.0
 40
1.0
 50
90.0
 51
180.0
  0
LINE
  5
DCD
  8
0
 10
653.6207938489265
 20
289.02593982525559
 30
0.0
 11
653.6207938489265
 21
298.2799731328405
 31
0.0
  0
ARC
  5
DCE
  8
0
 10
654.62079384892638
 20
281.03553860795228
 30
0.0
 40
1.0
 50
90.0
 51
180.0
  0
LINE
  5
DCF
  8
0
 10
650.62079384892627
 20
269.5259398252557
 30
0.0
 11
651.12079384892616
 21
269.5259398252557
 31
0.0
  0
ARC
  5
DD0
  8
0
 10
654.62079384892638
 20
275.7719065176708
 30
0.0
 40
1.0
 50
180.0
 51
294.31573917118101
  0
LINE
  5
DD1
  8
0
 10
653.6207938489265
 20
285.0259398252557
 30
0.0
 11
653.6207938489265
 21
275.7719065176708
 31
0.0
  0
ARC
  5
DD2
  8
0
 10
595.76071555780857
 20
303.5259398252557
 30
0.0
 40
1.0
 50
0.0
 51
90.0
  0
LINE
  5
DD3
  8
0
 10
592.76071555780857
 20
304.5259398252557
 30
0.0
 11
595.76071555780857
 21
304.5259398252557
 31
0.0
  0
ARC
  5
DD4
  8
0
 10
595.76071555780857
 20
270.5259398252557
 30
0.0
 40
1.0
 50
270.0
 51
0.0
  0
LINE
  5
DD5
  8
0
 10
592.76071555780857
 20
269.5259398252557
 30
0.0
 11
595.76071555780857
 21
269.5259398252557
 31
0.0
  0
LINE
  5
DD6
  8
0
 10
596.76071555780857
 20
303.5259398252557
 30
0.0
 11
596.76071555780857
 21
270.5259398252557
 31
0.0
  0
LINE
  5
DD7
  8
0
 10
592.76071555780857
 20
313.0259398252557
 30
0.0
 11
592.76071555780857
 21
261.0259398252557
 31
0.0
  0
CIRCLE
  5
DD8
  8
0
 10
577.76071555780868
 20
291.02593982525559
 30
0.0
 40
3.9999999999999711
  0
CIRCLE
  5
DD9
  8
0
 10
577.76071555780868
 20
291.02593982525559
 30
0.0
 40
5.7000000000000011
  0
LINE
  5
DDA
  8
0
 10
562.76071555780857
 20
313.5259398252557
 30
0.0
 11
562.76071555780857
 21
260.5259398252557
 31
0.0
  0
LINE
  5
DDB
  8
CENTER
  6
CENTER
 10
577.76071555780868
 20
279.3259398252556
 30
0.0
 11
577.76071555780868
 21
302.72593982525558
 31
0.0
  0
LINE
  5
DDC
  8
0
 10
562.76071555780857
 20
313.5259398252557
 30
0.0
 11
592.76071555780857
 21
313.0259398252557
 31
0.0
  0
LINE
  5
DDD
  8
0
 10
562.76071555780857
 20
260.5259398252557
 30
0.0
 11
592.76071555780857
 21
261.0259398252557
 31
0.0
  0
CIRCLE
  5
DDE
  8
0
 10
577.76071555780868
 20
291.02593982525559
 30
0.0
 40
8.6999999999999993
  0
CIRCLE
  5
DDF
  8
0
 10
577.76071555780868
 20
291.02593982525559
 30
0.0
 40
6.7000000000000028
  0
ARC
  5
DE0
  8
0
 62
     2
 10
577.76071555780868
 20
291.02593982525559
 30
0.0
 40
6.5999999999999996
 50
153.86110377669701
 51
104.9974520806085
  0
LINE
  5
DE1
  8
CENTER
  6
CENTER
 10
566.06071555780863
 20
291.02593982525559
 30
0.0
 11
589.46071555780873
 21
291.02593982525559
 31
0.0
  0
TEXT
  5
DE2
  8
DIM
  6
CONTINUOUS
 10
756.62079384892616
 20
285.26741041157447
 30
0.0
 40
3.0
  1
81
 50
90.0
  7
ROMANSS
 72
     1
 11
755.12079384892616
 21
287.05312469728881
 31
0.0
 73
     2
  0
SOLID
  5
DE3
  8
DIM
  6
CONTINUOUS
 10
757.62079384892616
 20
249.5259398252557
 30
0.0
 11
758.62079384892627
 21
249.5259398252557
 31
0.0
 12
758.12079384892627
 22
246.5259398252557
 32
0.0
 13
758.12079384892627
 23
246.5259398252557
 33
0.0
  0
LINE
  5
DE4
  8
DIM
  6
CONTINUOUS
 10
740.6207938489265
 20
246.5259398252557
 30
0.0
 11
759.12079384892627
 21
246.5259398252557
 31
0.0
  0
TEXT
  5
DE5
  8
DIM
  6
CONTINUOUS
 10
748.6207938489265
 20
284.14808479125901
 30
0.0
 40
3.0
  1
65
 50
90.0
  7
ROMANSS
 72
     1
 11
747.12079384892638
 21
286.5766562198304
 31
0.0
 73
     2
  0
SOLID
  5
DE6
  8
DIM
  6
CONTINUOUS
 10
749.6207938489265
 20
316.52593982525559
 30
0.0
 11
750.62079384892638
 21
316.52593982525559
 31
0.0
 12
750.12079384892638
 22
319.52593982525559
 32
0.0
 13
750.12079384892638
 23
319.52593982525559
 33
0.0
  0
SOLID
  5
DE7
  8
DIM
  6
CONTINUOUS
 10
749.6207938489265
 20
330.52593982525559
 30
0.0
 11
750.62079384892638
 21
330.52593982525559
 31
0.0
 12
750.12079384892638
 22
327.52593982525559
 32
0.0
 13
750.12079384892638
 23
327.52593982525559
 33
0.0
  0
LINE
  5
DE8
  8
DIM
  6
CONTINUOUS
 10
743.1207938489265
 20
319.52593982525559
 30
0.0
 11
751.12079384892638
 21
319.52593982525559
 31
0.0
  0
TEXT
  5
DE9
  8
DIM
  6
CONTINUOUS
 10
748.6207938489265
 20
239.82876371852331
 30
0.0
 40
3.0
  1
8
 50
90.0
  7
ROMANSS
 72
     1
 11
747.12079384892638
 21
240.82876371852331
 31
0.0
 73
     2
  0
SOLID
  5
DEA
  8
DIM
  6
CONTINUOUS
 10
749.6207938489265
 20
257.5259398252557
 30
0.0
 11
750.62079384892638
 21
257.5259398252557
 31
0.0
 12
750.12079384892638
 22
254.5259398252557
 32
0.0
 13
750.12079384892638
 23
254.5259398252557
 33
0.0
  0
SOLID
  5
DEB
  8
DIM
  6
CONTINUOUS
 10
749.6207938489265
 20
243.52593982525559
 30
0.0
 11
750.62079384892638
 21
243.52593982525559
 31
0.0
 12
750.12079384892638
 22
246.5259398252557
 32
0.0
 13
750.12079384892638
 23
246.5259398252557
 33
0.0
  0
LINE
  5
DEC
  8
DIM
  6
CONTINUOUS
 10
743.1207938489265
 20
254.5259398252557
 30
0.0
 11
751.12079384892638
 21
254.5259398252557
 31
0.0
  0
LINE
  5
DED
  8
DIM
  6
CONTINUOUS
 10
740.6207938489265
 20
246.5259398252557
 30
0.0
 11
751.12079384892638
 21
246.5259398252557
 31
0.0
  0
TEXT
  5
DEE
  8
DIM
  6
CONTINUOUS
 10
693.19222242035505
 20
232.0259398252557
 30
0.0
 40
3.0
  1
93
  7
ROMANSS
 72
     1
 11
695.62079384892638
 21
233.52593982525559
 31
0.0
 73
     2
  0
SOLID
  5
DEF
  8
DIM
  6
CONTINUOUS
 10
739.1207938489265
 20
231.02593982525559
 30
0.0
 11
739.1207938489265
 21
230.0259398252557
 31
0.0
 12
742.12079384892638
 22
230.5259398252557
 32
0.0
 13
742.12079384892638
 23
230.5259398252557
 33
0.0
  0
LINE
  5
DF0
  8
DIM
  6
CONTINUOUS
 10
742.12079384892638
 20
253.5259398252557
 30
0.0
 11
742.12079384892638
 21
229.5259398252557
 31
0.0
  0
TEXT
  5
DF1
  8
DIM
  6
CONTINUOUS
 10
718.79936527749794
 20
240.0259398252557
 30
0.0
 40
3.0
  1
37.5
  7
ROMANSS
 72
     1
 11
723.37079384892638
 21
241.52593982525559
 31
0.0
 73
     2
  0
SOLID
  5
DF2
  8
DIM
  6
CONTINUOUS
 10
739.1207938489265
 20
239.0259398252557
 30
0.0
 11
739.1207938489265
 21
238.0259398252557
 31
0.0
 12
742.12079384892638
 22
238.5259398252557
 32
0.0
 13
742.12079384892638
 23
238.5259398252557
 33
0.0
  0
SOLID
  5
DF3
  8
DIM
  6
CONTINUOUS
 10
707.6207938489265
 20
239.0259398252557
 30
0.0
 11
707.6207938489265
 21
238.0259398252557
 31
0.0
 12
704.62079384892638
 22
238.5259398252557
 32
0.0
 13
704.62079384892638
 23
238.5259398252557
 33
0.0
  0
LINE
  5
DF4
  8
DIM
  6
CONTINUOUS
 10
707.6207938489265
 20
238.5259398252557
 30
0.0
 11
739.1207938489265
 21
238.5259398252557
 31
0.0
  0
LINE
  5
DF5
  8
DIM
  6
CONTINUOUS
 10
704.62079384892638
 20
242.5259398252557
 30
0.0
 11
704.62079384892638
 21
237.52593982525559
 31
0.0
  0
TEXT
  5
DF6
  8
DIM
  6
CONTINUOUS
 10
686.29936527749794
 20
240.0259398252557
 30
0.0
 40
3.0
  1
27.5
  7
ROMANSS
 72
     1
 11
690.87079384892638
 21
241.52593982525559
 31
0.0
 73
     2
  0
SOLID
  5
DF7
  8
DIM
  6
CONTINUOUS
 10
701.6207938489265
 20
239.0259398252557
 30
0.0
 11
701.6207938489265
 21
238.0259398252557
 31
0.0
 12
704.62079384892638
 22
238.5259398252557
 32
0.0
 13
704.62079384892638
 23
238.5259398252557
 33
0.0
  0
SOLID
  5
DF8
  8
DIM
  6
CONTINUOUS
 10
680.12079384892638
 20
239.0259398252557
 30
0.0
 11
680.12079384892638
 21
238.0259398252557
 31
0.0
 12
677.1207938489265
 22
238.5259398252557
 32
0.0
 13
677.1207938489265
 23
238.5259398252557
 33
0.0
  0
LINE
  5
DF9
  8
DIM
  6
CONTINUOUS
 10
680.12079384892638
 20
238.5259398252557
 30
0.0
 11
701.6207938489265
 21
238.5259398252557
 31
0.0
  0
LINE
  5
DFA
  8
DIM
  6
CONTINUOUS
 10
704.62079384892638
 20
242.5259398252557
 30
0.0
 11
704.62079384892638
 21
237.52593982525559
 31
0.0
  0
LINE
  5
DFB
  8
DIM
  6
CONTINUOUS
 10
677.1207938489265
 20
258.0259398252557
 30
0.0
 11
677.1207938489265
 21
237.52593982525559
 31
0.0
  0
LINE
  5
DFC
  8
CENTER
  6
CENTER
 10
734.62079384892638
 20
310.47849402710222
 30
0.0
 11
734.62079384892638
 21
322.4784940271021
 31
0.0
  0
LINE
  5
DFD
  8
CENTER
  6
CENTER
 10
674.6207938489265
 20
310.47849402710222
 30
0.0
 11
674.6207938489265
 21
322.4784940271021
 31
0.0
  0
LINE
  5
DFE
  8
CENTER
  6
CENTER
 10
734.62079384892638
 20
263.57338562340919
 30
0.0
 11
734.62079384892638
 21
251.57338562340919
 31
0.0
  0
LINE
  5
DFF
  8
CENTER
  6
CENTER
 10
674.6207938489265
 20
263.57338562340919
 30
0.0
 11
674.6207938489265
 21
251.57338562340919
 31
0.0
  0
LINE
  5
E00
  8
0
  6
CONTINUOUS
 10
740.6207938489265
 20
247.5259398252557
 30
0.0
 11
739.6207938489265
 21
246.5259398252557
 31
0.0
  0
LINE
  5
E01
  8
0
 10
740.6207938489265
 20
254.5259398252557
 30
0.0
 11
740.6207938489265
 21
247.5259398252557
 31
0.0
  0
LINE
  5
E02
  8
0
  6
CONTINUOUS
 10
668.6207938489265
 20
247.5259398252557
 30
0.0
 11
669.6207938489265
 21
246.5259398252557
 31
0.0
  0
LINE
  5
E03
  8
0
 10
668.6207938489265
 20
254.5259398252557
 30
0.0
 11
668.6207938489265
 21
247.5259398252557
 31
0.0
  0
LINE
  5
E04
  8
0
  6
CONTINUOUS
 10
669.6207938489265
 20
246.5259398252557
 30
0.0
 11
739.6207938489265
 21
246.5259398252557
 31
0.0
  0
LINE
  5
E05
  8
0
  6
CONTINUOUS
 10
668.6207938489265
 20
247.5259398252557
 30
0.0
 11
740.6207938489265
 21
247.5259398252557
 31
0.0
  0
LINE
  5
E06
  8
0
 10
668.6207938489265
 20
319.5259398252557
 30
0.0
 11
668.6207938489265
 21
326.5259398252557
 31
0.0
  0
LINE
  5
E07
  8
0
 10
740.6207938489265
 20
319.5259398252557
 30
0.0
 11
740.6207938489265
 21
326.5259398252557
 31
0.0
  0
LINE
  5
E08
  8
0
  6
CONTINUOUS
 10
740.6207938489265
 20
326.5259398252557
 30
0.0
 11
739.6207938489265
 21
327.5259398252557
 31
0.0
  0
LINE
  5
E09
  8
0
  6
CONTINUOUS
 10
668.6207938489265
 20
326.5259398252557
 30
0.0
 11
669.6207938489265
 21
327.5259398252557
 31
0.0
  0
LINE
  5
E0A
  8
0
  6
CONTINUOUS
 10
668.6207938489265
 20
326.5259398252557
 30
0.0
 11
740.6207938489265
 21
326.5259398252557
 31
0.0
  0
LINE
  5
E0B
  8
0
  6
CONTINUOUS
 10
669.6207938489265
 20
327.5259398252557
 30
0.0
 11
739.6207938489265
 21
327.5259398252557
 31
0.0
  0
LINE
  5
E0C
  8
0
 10
742.12079384892638
 20
319.52593982525559
 30
0.0
 11
742.12079384892638
 21
254.5259398252557
 31
0.0
  0
ARC
  5
E0D
  8
0
 10
691.62492632798285
 20
274.64312768975913
 30
0.0
 40
0.5
 50
224.99999999999079
 51
304.1930771251279
  0
POLYLINE
  5
E0E
  8
0
 66
     1
 10
0.0
 20
0.0
 30
0.0
 70
     1
  0
VERTEX
  5
1492
  8
0
 10
693.1207938489265
 20
269.75799063282471
 30
0.0
  0
VERTEX
  5
1493
  8
0
 10
693.1207938489265
 20
266.29388901768692
 30
0.0
  0
VERTEX
  5
1494
  8
0
 10
696.12079384892638
 20
264.56183821011803
 30
0.0
  0
VERTEX
  5
1495
  8
0
 10
699.1207938489265
 20
266.29388901768692
 30
0.0
  0
VERTEX
  5
1496
  8
0
 10
699.1207938489265
 20
269.75799063282471
 30
0.0
  0
VERTEX
  5
1497
  8
0
 10
696.12079384892638
 20
271.4900414403935
 30
0.0
  0
SEQEND
  5
1498
  8
0
  0
CIRCLE
  5
E16
  8
0
 10
696.12079384892638
 20
268.0259398252557
 30
0.0
 40
5.0
  0
CIRCLE
  5
E17
  8
0
 10
696.12079384892638
 20
268.0259398252557
 30
0.0
 40
5.5
  0
CIRCLE
  5
E18
  8
0
 10
696.12079384892638
 20
306.0259398252557
 30
0.0
 40
5.0
  0
CIRCLE
  5
E19
  8
0
 10
696.12079384892638
 20
306.0259398252557
 30
0.0
 40
5.5
  0
POLYLINE
  5
E1A
  8
0
 66
     1
 10
0.0
 20
0.0
 30
0.0
 70
     1
  0
VERTEX
  5
1499
  8
0
 10
693.1207938489265
 20
307.75799063282471
 30
0.0
  0
VERTEX
  5
149A
  8
0
 10
693.1207938489265
 20
304.29388901768692
 30
0.0
  0
VERTEX
  5
149B
  8
0
 10
696.12079384892638
 20
302.56183821011808
 30
0.0
  0
VERTEX
  5
149C
  8
0
 10
699.1207938489265
 20
304.29388901768692
 30
0.0
  0
VERTEX
  5
149D
  8
0
 10
699.1207938489265
 20
307.75799063282471
 30
0.0
  0
VERTEX
  5
149E
  8
0
 10
696.12079384892638
 20
309.4900414403935
 30
0.0
  0
SEQEND
  5
149F
  8
0
  0
ARC
  5
E22
  8
0
 10
686.1207938489265
 20
309.5259398252557
 30
0.0
 40
1.0
 50
90.0
 51
180.0
  0
ARC
  5
E23
  8
0
 10
688.37482715651106
 20
309.5259398252557
 30
0.0
 40
1.0
 50
335.6842608288103
 51
90.0
  0
ARC
  5
E24
  8
0
 10
689.50360598442307
 20
301.53007230431211
 30
0.0
 40
0.5
 50
314.99999999999068
 51
34.193077125151397
  0
LINE
  5
E25
  8
0
 10
689.45209187814498
 20
300.77145141684741
 30
0.0
 11
689.85715937501641
 21
301.17651891371889
 31
0.0
  0
ARC
  5
E26
  8
0
 10
686.1207938489265
 20
303.75914035593712
 30
0.0
 40
1.0
 50
180.0
 51
241.72628636862439
  0
ARC
  5
E27
  8
0
 10
689.09853848755176
 20
301.12500480744069
 30
0.0
 40
0.5
 50
229.65070900488701
 51
314.99999999999068
  0
LINE
  5
E28
  8
0
 10
685.1207938489265
 20
309.5259398252557
 30
0.0
 11
685.1207938489265
 21
303.75914035593712
 31
0.0
  0
ARC
  5
E29
  8
0
 10
696.12079384892638
 20
306.0259398252557
 30
0.0
 40
7.5
 50
155.6842608288261
 51
214.1930771251393
  0
ARC
  5
E2A
  8
0
 10
679.12079384892638
 20
309.5259398252557
 30
0.0
 40
1.0
 50
90.0
 51
180.0
  0
ARC
  5
E2B
  8
0
 10
675.12079384892638
 20
309.5259398252557
 30
0.0
 40
1.0
 50
0.0
 51
90.0
  0
ARC
  5
E2C
  8
0
 10
679.12079384892638
 20
305.92038345294679
 30
0.0
 40
1.0
 50
180.0
 51
263.95767158094242
  0
ARC
  5
E2D
  8
0
 10
675.12079384892638
 20
305.92038345294679
 30
0.0
 40
1.0
 50
276.04232841905753
 51
0.0
  0
LINE
  5
E2E
  8
0
 10
678.1207938489265
 20
309.5259398252557
 30
0.0
 11
678.1207938489265
 21
305.92038345294679
 31
0.0
  0
LINE
  5
E2F
  8
0
 10
676.12079384892638
 20
309.5259398252557
 30
0.0
 11
676.12079384892638
 21
305.92038345294679
 31
0.0
  0
ARC
  5
E30
  8
0
 10
677.1207938489265
 20
287.0259398252557
 30
0.0
 40
17.999999999999972
 50
49.650709004879928
 51
83.957671580946055
  0
LINE
  5
E31
  8
0
 10
679.12079384892638
 20
310.5259398252557
 30
0.0
 11
688.37482715651106
 21
310.5259398252557
 31
0.0
  0
LINE
  5
E32
  8
CENTER
  6
CENTER
 10
689.6207938489265
 20
306.0259398252557
 30
0.0
 11
702.6207938489265
 21
306.0259398252557
 31
0.0
  0
ARC
  5
E33
  8
0
 10
699.6207938489265
 20
296.0259398252557
 30
0.0
 40
1.0
 50
270.0
 51
0.0
  0
ARC
  5
E34
  8
0
 10
699.6207938489265
 20
298.2799731328405
 30
0.0
 40
1.0
 50
0.0
 51
114.3157391711956
  0
LINE
  5
E35
  8
0
 10
699.6207938489265
 20
288.0259398252557
 30
0.0
 11
696.01523747661759
 21
288.0259398252557
 31
0.0
  0
LINE
  5
E36
  8
0
 10
699.6207938489265
 20
286.0259398252557
 30
0.0
 11
696.01523747661759
 21
286.0259398252557
 31
0.0
  0
ARC
  5
E37
  8
0
 10
699.6207938489265
 20
289.0259398252557
 30
0.0
 40
1.0
 50
270.0
 51
0.0
  0
ARC
  5
E38
  8
0
 10
699.6207938489265
 20
285.0259398252557
 30
0.0
 40
1.0
 50
0.0
 51
90.0
  0
LINE
  5
E39
  8
0
 10
700.62079384892638
 20
289.0259398252557
 30
0.0
 11
700.62079384892638
 21
298.2799731328405
 31
0.0
  0
ARC
  5
E3A
  8
0
 10
699.6207938489265
 20
278.0259398252557
 30
0.0
 40
1.0
 50
0.0
 51
90.0
  0
ARC
  5
E3B
  8
0
 10
699.6207938489265
 20
275.77190651767091
 30
0.0
 40
1.0
 50
245.6842608288043
 51
0.0
  0
LINE
  5
E3C
  8
0
 10
700.62079384892638
 20
285.0259398252557
 30
0.0
 11
700.62079384892638
 21
275.77190651767091
 31
0.0
  0
ARC
  5
E3D
  8
0
 10
691.62492632798285
 20
299.4087519607524
 30
0.0
 40
0.5
 50
55.806922874872079
 51
135.00000000000921
  0
ARC
  5
E3E
  8
0
 10
691.21985883111142
 20
299.00368446388109
 30
0.0
 40
0.5
 50
135.00000000000921
 51
220.34929099511791
  0
ARC
  5
E3F
  8
0
 10
693.85399437960791
 20
296.0259398252557
 30
0.0
 40
1.0
 50
208.2737136313682
 51
270.0
  0
LINE
  5
E40
  8
0
 10
690.86630544051809
 20
299.35723785447431
 30
0.0
 11
691.27137293738951
 21
299.76230535134562
 31
0.0
  0
ARC
  5
E41
  8
0
 10
693.85399437960791
 20
278.0259398252557
 30
0.0
 40
1.0
 50
90.0
 51
151.72628636863169
  0
ARC
  5
E42
  8
0
 10
689.50360598442307
 20
272.52180734619941
 30
0.0
 40
0.5
 50
325.80692287484851
 51
45.000000000009209
  0
LINE
  5
E43
  8
0
 10
689.45209187814498
 20
273.28042823366388
 30
0.0
 11
689.85715937501641
 21
272.87536073679257
 31
0.0
  0
LINE
  5
E44
  8
0
 10
690.86630544051809
 20
274.6946417960371
 30
0.0
 11
691.27137293738951
 21
274.28957429916579
 31
0.0
  0
ARC
  5
E45
  8
0
 10
691.62492632798285
 20
274.64312768975901
 30
0.0
 40
0.5
 50
224.99999999999079
 51
304.1930771251279
  0
ARC
  5
E46
  8
0
 10
691.21985883111142
 20
275.04819518663032
 30
0.0
 40
0.5
 50
139.65070900488209
 51
224.99999999999079
  0
ARC
  5
E47
  8
0
 10
686.1207938489265
 20
270.29273929457429
 30
0.0
 40
1.0
 50
118.2737136313755
 51
180.0
  0
ARC
  5
E48
  8
0
 10
689.09853848755176
 20
272.92687484307072
 30
0.0
 40
0.5
 50
45.000000000009209
 51
130.34929099511291
  0
ARC
  5
E49
  8
0
 10
679.12079384892638
 20
268.13149619756462
 30
0.0
 40
1.0
 50
96.042328419057512
 51
180.0
  0
ARC
  5
E4A
  8
0
 10
675.12079384892638
 20
268.13149619756462
 30
0.0
 40
1.0
 50
0.0
 51
83.957671580942474
  0
ARC
  5
E4B
  8
0
 10
677.1207938489265
 20
287.0259398252557
 30
0.0
 40
17.999999999999972
 50
276.04232841905389
 51
310.34929099511999
  0
ARC
  5
E4C
  8
0
 10
677.1207938489265
 20
287.0259398252557
 30
0.0
 40
17.999999999999972
 50
319.65070900488001
 51
353.957671580946
  0
LINE
  5
E4D
  8
0
 10
699.6207938489265
 20
279.0259398252557
 30
0.0
 11
693.85399437960791
 21
279.0259398252557
 31
0.0
  0
LINE
  5
E4E
  8
CENTER
  6
CENTER
 10
689.6207938489265
 20
268.0259398252557
 30
0.0
 11
702.6207938489265
 21
268.0259398252557
 31
0.0
  0
ARC
  5
E4F
  8
0
 10
696.12079384892638
 20
268.0259398252557
 30
0.0
 40
7.5
 50
65.684260828827945
 51
124.1930771251406
  0
ARC
  5
E50
  8
0
 10
696.01523747661759
 20
289.0259398252557
 30
0.0
 40
1.0
 50
186.04232841905389
 51
270.0
  0
ARC
  5
E51
  8
0
 10
677.1207938489265
 20
287.0259398252557
 30
0.0
 40
17.999999999999972
 50
6.0423284190541056
 51
40.349290995120072
  0
ARC
  5
E52
  8
0
 10
696.01523747661759
 20
285.0259398252557
 30
0.0
 40
1.0
 50
90.0
 51
173.957671580946
  0
LINE
  5
E53
  8
0
 10
699.6207938489265
 20
295.0259398252557
 30
0.0
 11
693.85399437960791
 21
295.0259398252557
 31
0.0
  0
ARC
  5
E54
  8
0
 10
696.12079384892638
 20
306.0259398252557
 30
0.0
 40
7.5
 50
235.80692287485931
 51
294.31573917117379
  0
LINE
  5
E55
  8
CENTER
  6
CENTER
 10
696.12079384892638
 20
312.5259398252557
 30
0.0
 11
696.12079384892638
 21
299.5259398252557
 31
0.0
  0
ARC
  5
E56
  8
0
 10
668.1207938489265
 20
309.5259398252557
 30
0.0
 40
1.0
 50
0.0
 51
90.0
  0
ARC
  5
E57
  8
0
 10
665.86676054134148
 20
309.5259398252557
 30
0.0
 40
1.0
 50
90.0
 51
204.31573917118391
  0
ARC
  5
E58
  8
0
 10
668.1207938489265
 20
303.75914035593712
 30
0.0
 40
1.0
 50
298.27371363136092
 51
0.0
  0
ARC
  5
E59
  8
0
 10
665.14304921030111
 20
301.12500480744069
 30
0.0
 40
0.5
 50
224.99999999999079
 51
310.34929099511288
  0
LINE
  5
E5A
  8
0
 10
664.78949581970778
 20
300.77145141684741
 30
0.0
 11
664.38442832283647
 21
301.17651891371889
 31
0.0
  0
ARC
  5
E5B
  8
0
 10
664.73798171342969
 20
301.53007230431211
 30
0.0
 40
0.5
 50
145.8069228748613
 51
224.99999999999079
  0
LINE
  5
E5C
  8
0
 10
669.1207938489265
 20
309.5259398252557
 30
0.0
 11
669.1207938489265
 21
303.75914035593712
 31
0.0
  0
ARC
  5
E5D
  8
0
 10
658.12079384892638
 20
306.0259398252557
 30
0.0
 40
7.5
 50
325.80692287485988
 51
24.315739171172272
  0
ARC
  5
E5E
  8
0
 10
662.61666136986992
 20
299.40875196075228
 30
0.0
 40
0.5
 50
45.000000000004597
 51
124.1930771251568
  0
ARC
  5
E5F
  8
0
 10
663.02172886674134
 20
299.00368446388097
 30
0.0
 40
0.5
 50
319.6507090048687
 51
44.999999999990777
  0
LINE
  5
E60
  8
0
 10
663.37528225733456
 20
299.35723785447419
 30
0.0
 11
662.97021476046325
 21
299.76230535134562
 31
0.0
  0
ARC
  5
E61
  8
0
 10
658.22635022123541
 20
289.02593982525559
 30
0.0
 40
1.0
 50
270.0
 51
353.957671580946
  0
ARC
  5
E62
  8
0
 10
658.22635022123541
 20
285.0259398252557
 30
0.0
 40
1.0
 50
6.042328419053943
 51
90.0
  0
ARC
  5
E63
  8
0
 10
677.1207938489265
 20
287.0259398252557
 30
0.0
 40
17.999999999999972
 50
139.6507090048799
 51
173.957671580946
  0
ARC
  5
E64
  8
0
 10
668.1207938489265
 20
270.29273929457429
 30
0.0
 40
1.0
 50
0.0
 51
61.726286368639009
  0
ARC
  5
E65
  8
0
 10
665.14304921030111
 20
272.92687484307072
 30
0.0
 40
0.5
 50
49.650709004887069
 51
135.00000000000921
  0
LINE
  5
E66
  8
0
 10
664.78949581970778
 20
273.28042823366388
 30
0.0
 11
664.38442832283647
 21
272.87536073679257
 31
0.0
  0
LINE
  5
E67
  8
0
 10
663.37528225733456
 20
274.6946417960371
 30
0.0
 11
662.97021476046325
 21
274.28957429916568
 31
0.0
  0
ARC
  5
E68
  8
0
 10
663.02172886674134
 20
275.04819518663032
 30
0.0
 40
0.5
 50
315.00000000000921
 51
40.349290995131291
  0
ARC
  5
E69
  8
0
 10
662.61666136986992
 20
274.64312768975901
 30
0.0
 40
0.5
 50
235.8069228748432
 51
314.9999999999954
  0
ARC
  5
E6A
  8
0
 10
664.73798171342969
 20
272.52180734619941
 30
0.0
 40
0.5
 50
135.00000000000921
 51
214.1930771251387
  0
ARC
  5
E6B
  8
0
 10
659.08984564158766
 20
281.03553860795228
 30
0.0
 40
1.0
 50
18.377976039593509
 51
90.0
  0
ARC
  5
E6C
  8
0
 10
677.1207938489265
 20
287.0259398252557
 30
0.0
 40
17.999999999999972
 50
186.04232841905409
 51
220.34929099511999
  0
LINE
  5
E6D
  8
CENTER
  6
CENTER
 10
658.12079384892638
 20
312.5259398252557
 30
0.0
 11
658.12079384892638
 21
299.5259398252557
 31
0.0
  0
ARC
  5
E6E
  8
0
 10
677.1207938489265
 20
287.0259398252557
 30
0.0
 40
17.999999999999972
 50
96.042328419053931
 51
130.3492909951199
  0
LINE
  5
E6F
  8
0
 10
675.12079384892638
 20
310.5259398252557
 30
0.0
 11
665.86676054134148
 21
310.5259398252557
 31
0.0
  0
ARC
  5
E70
  8
0
 10
677.1207938489265
 20
287.0259398252557
 30
0.0
 40
17.999999999999972
 50
229.65070900488001
 51
263.957671580946
  0
CIRCLE
  5
E71
  8
0
 10
677.1207938489265
 20
287.0259398252557
 30
0.0
 40
17.499999999999972
  0
ARC
  5
E72
  8
0
 10
686.1207938489265
 20
264.5259398252557
 30
0.0
 40
1.0
 50
180.0
 51
270.0
  0
ARC
  5
E73
  8
0
 10
688.37482715651106
 20
264.5259398252557
 30
0.0
 40
1.0
 50
270.0
 51
24.315739171186699
  0
ARC
  5
E74
  8
0
 10
679.12079384892638
 20
264.5259398252557
 30
0.0
 40
1.0
 50
180.0
 51
270.0
  0
ARC
  5
E75
  8
0
 10
675.12079384892638
 20
264.5259398252557
 30
0.0
 40
1.0
 50
270.0
 51
0.0
  0
LINE
  5
E76
  8
0
 10
679.12079384892638
 20
263.5259398252557
 30
0.0
 11
688.37482715651106
 21
263.5259398252557
 31
0.0
  0
ARC
  5
E77
  8
0
 10
668.1207938489265
 20
264.5259398252557
 30
0.0
 40
1.0
 50
270.0
 51
0.0
  0
ARC
  5
E78
  8
0
 10
665.86676054134148
 20
264.5259398252557
 30
0.0
 40
1.0
 50
155.68426082881601
 51
270.0
  0
LINE
  5
E79
  8
0
 10
675.12079384892638
 20
263.5259398252557
 30
0.0
 11
665.86676054134148
 21
263.5259398252557
 31
0.0
  0
ARC
  5
E7A
  8
0
 10
658.12079384892638
 20
268.0259398252557
 30
0.0
 40
7.5
 50
335.68426082882962
 51
34.19307712514005
  0
LINE
  5
E7B
  8
0
 10
669.1207938489265
 20
264.5259398252557
 30
0.0
 11
669.1207938489265
 21
270.29273929457429
 31
0.0
  0
LINE
  5
E7C
  8
CENTER
  6
CENTER
 10
658.12079384892638
 20
274.5259398252557
 30
0.0
 11
658.12079384892638
 21
261.5259398252557
 31
0.0
  0
LINE
  5
E7D
  8
CENTER
  6
CENTER
 10
677.1207938489265
 20
315.0259398252557
 30
0.0
 11
677.1207938489265
 21
259.0259398252557
 31
0.0
  0
ARC
  5
E7E
  8
0
 10
696.12079384892638
 20
268.0259398252557
 30
0.0
 40
7.5
 50
145.80692287486059
 51
204.3157391711718
  0
LINE
  5
E7F
  8
0
 10
685.1207938489265
 20
264.5259398252557
 30
0.0
 11
685.1207938489265
 21
270.29273929457429
 31
0.0
  0
LINE
  5
E80
  8
0
 10
676.12079384892638
 20
264.5259398252557
 30
0.0
 11
676.12079384892638
 21
268.13149619756462
 31
0.0
  0
LINE
  5
E81
  8
0
 10
678.1207938489265
 20
264.5259398252557
 30
0.0
 11
678.1207938489265
 21
268.13149619756462
 31
0.0
  0
LINE
  5
E82
  8
CENTER
  6
CENTER
 10
696.12079384892638
 20
274.5259398252557
 30
0.0
 11
696.12079384892638
 21
261.5259398252557
 31
0.0
  0
LINE
  5
E83
  8
DIM
  6
CONTINUOUS
 10
498.26071555780862
 20
469.0468298204878
 30
0.0
 11
551.29164899517468
 21
469.04682982048791
 31
0.0
  0
LINE
  5
E84
  8
DIM
  6
CONTINUOUS
 10
498.26071555780862
 20
409.04682982048791
 30
0.0
 11
551.29164899517468
 21
409.04682982048791
 31
0.0
  0
LINE
  5
E85
  8
0
 10
498.76071555780862
 20
387.34682982048793
 30
0.0
 11
562.76071555780857
 21
387.34682982048793
 31
0.0
  0
LINE
  5
E86
  8
0
 10
498.76071555780862
 20
399.74460551783608
 30
0.0
 11
562.76071555780857
 21
399.74460551783608
 31
0.0
  0
LINE
  5
E87
  8
0
 10
498.76071555780862
 20
435.7468298204879
 30
0.0
 11
562.76071555780857
 21
435.7468298204879
 31
0.0
  0
LINE
  5
E88
  8
0
 10
498.76071555780862
 20
423.34905412313969
 30
0.0
 11
562.76071555780857
 21
423.34905412313969
 31
0.0
  0
CIRCLE
  5
E89
  8
0
  6
CONTINUOUS
 10
461.26071555780862
 20
439.0468298204878
 30
0.0
 40
35.0
  0
POLYLINE
  5
E8A
  8
0
  6
CONTINUOUS
 66
     1
 10
0.0
 20
0.0
 30
0.0
  0
VERTEX
  5
14A0
  8
0
  6
CONTINUOUS
 10
503.76071555780851
 20
457.54682982048791
 30
0.0
 42
0.0851703918331037
  0
VERTEX
  5
14A1
  8
0
  6
CONTINUOUS
 10
503.07271555780841
 20
461.54682982048791
 30
0.0
 42
0.3457679526359281
  0
VERTEX
  5
14A2
  8
0
  6
CONTINUOUS
 10
503.41429523448329
 20
464.44682982048749
 30
0.0
  0
SEQEND
  5
14A3
  8
0
  6
CONTINUOUS
  0
LINE
  5
E8F
  8
0
  6
CONTINUOUS
 10
505.56071555780778
 20
461.54682982048791
 30
0.0
 11
506.76071555780862
 21
460.34682982048707
 31
0.0
  0
LINE
  5
E90
  8
0
  6
CONTINUOUS
 10
505.56071555780778
 20
453.54682982048791
 30
0.0
 11
505.56071555780778
 21
461.54682982048791
 31
0.0
  0
LINE
  5
E91
  8
0
  6
CONTINUOUS
 10
503.76071555780851
 20
451.24682982048859
 30
0.0
 11
503.76071555780851
 21
463.84682982048719
 31
0.0
  0
POLYLINE
  5
E92
  8
0
  6
CONTINUOUS
 66
     1
 10
0.0
 20
0.0
 30
0.0
  0
VERTEX
  5
14A4
  8
0
  6
CONTINUOUS
 10
498.76071555780862
 20
457.54682982048803
 30
0.0
 42
-0.0851703918331037
  0
VERTEX
  5
14A5
  8
0
  6
CONTINUOUS
 10
499.44871555780861
 20
461.54682982048803
 30
0.0
 42
-0.3457679526359281
  0
VERTEX
  5
14A6
  8
0
  6
CONTINUOUS
 10
499.10713588113367
 20
464.44682982048761
 30
0.0
  0
SEQEND
  5
14A7
  8
0
  6
CONTINUOUS
  0
LINE
  5
E97
  8
CENTER
  6
CENTER
 10
478.19592296722641
 20
422.11162241107002
 30
0.0
 11
486.75191501958358
 21
413.55563035871279
 31
0.0
  0
CIRCLE
  5
E98
  8
0
  6
CONTINUOUS
 10
482.47391899340499
 20
417.83362638489137
 30
0.0
 40
2.0499999999999989
  0
ARC
  5
E99
  8
0
  6
CONTINUOUS
 62
     2
 10
482.47391899340488
 20
417.83362638489137
 30
0.0
 40
2.5
 50
204.98154856581149
 51
158.9636414602291
  0
CIRCLE
  5
E9A
  8
CENTER
  6
CENTER
 10
461.26071555780862
 20
439.0468298204878
 30
0.0
 40
30.0
  0
LINE
  5
E9B
  8
DIM
  6
CONTINUOUS
 10
434.26071555780862
 20
484.5468298204878
 30
0.0
 11
488.26071555780862
 21
484.5468298204878
 31
0.0
  0
LINE
  5
E9C
  8
0
 10
423.76071555780862
 20
383.5468298204878
 30
0.0
 11
498.76071555780862
 21
383.5468298204878
 31
0.0
  0
LINE
  5
E9D
  8
0
 10
423.76071555780862
 20
476.54682982048769
 30
0.0
 11
498.76071555780862
 21
476.54682982048769
 31
0.0
  0
LINE
  5
E9E
  8
CENTER
  6
CENTER
 10
423.76071555780862
 20
439.0468298204878
 30
0.0
 11
498.76071555780862
 21
439.0468298204878
 31
0.0
  0
CIRCLE
  5
E9F
  8
0
  6
CONTINUOUS
 10
461.26071555780862
 20
439.0468298204878
 30
0.0
 40
36.0
  0
LINE
  5
EA0
  8
0
  6
CONTINUOUS
 62
     2
 10
503.76071555780851
 20
460.74682982048859
 30
0.0
 11
506.36071555780711
 21
460.74682982048859
 31
0.0
  0
LINE
  5
EA1
  8
0
  6
CONTINUOUS
 10
503.06787491115813
 20
450.04682982048791
 30
0.0
 11
503.76071555780851
 21
451.24682982048859
 31
0.0
  0
POLYLINE
  5
EA2
  8
0
  6
CONTINUOUS
 66
     1
 10
0.0
 20
0.0
 30
0.0
  0
VERTEX
  5
14A8
  8
0
  6
CONTINUOUS
 10
503.76071555780851
 20
457.54682982048791
 30
0.0
 42
-0.0851703918331037
  0
VERTEX
  5
14A9
  8
0
  6
CONTINUOUS
 10
503.07271555780841
 20
453.54682982048791
 30
0.0
 42
-0.3457679526359281
  0
VERTEX
  5
14AA
  8
0
  6
CONTINUOUS
 10
503.41429523448329
 20
450.64682982048822
 30
0.0
  0
SEQEND
  5
14AB
  8
0
  6
CONTINUOUS
  0
LINE
  5
EA7
  8
CENTER
  6
CENTER
 10
482.50426322486049
 20
457.54682982048791
 30
0.0
 11
509.76071555780851
 21
457.54682982048791
 31
0.0
  0
LINE
  5
EA8
  8
0
  6
CONTINUOUS
 10
505.56071555780778
 20
453.54682982048791
 30
0.0
 11
506.76071555780862
 21
454.74682982048859
 31
0.0
  0
LINE
  5
EA9
  8
0
  6
CONTINUOUS
 10
506.76071555780862
 20
454.74682982048859
 30
0.0
 11
506.76071555780862
 21
460.34682982048707
 31
0.0
  0
LINE
  5
EAA
  8
0
  6
CONTINUOUS
 10
503.76071555780851
 20
453.54682982048791
 30
0.0
 11
505.56071555780778
 21
453.54682982048791
 31
0.0
  0
LINE
  5
EAB
  8
0
  6
CONTINUOUS
 62
     2
 10
503.76071555780851
 20
454.34682982048719
 30
0.0
 11
506.36071555780711
 21
454.34682982048719
 31
0.0
  0
LINE
  5
EAC
  8
0
  6
CONTINUOUS
 10
499.45355620445901
 20
450.04682982048803
 30
0.0
 11
498.76071555780862
 21
451.24682982048859
 31
0.0
  0
POLYLINE
  5
EAD
  8
0
  6
CONTINUOUS
 66
     1
 10
0.0
 20
0.0
 30
0.0
  0
VERTEX
  5
14AC
  8
0
  6
CONTINUOUS
 10
498.76071555780862
 20
457.54682982048803
 30
0.0
 42
0.0851703918331037
  0
VERTEX
  5
14AD
  8
0
  6
CONTINUOUS
 10
499.44871555780861
 20
453.54682982048803
 30
0.0
 42
0.3457679526359281
  0
VERTEX
  5
14AE
  8
0
  6
CONTINUOUS
 10
499.10713588113367
 20
450.64682982048828
 30
0.0
  0
SEQEND
  5
14AF
  8
0
  6
CONTINUOUS
  0
LINE
  5
EB2
  8
0
  6
CONTINUOUS
 10
499.4487155578085
 20
453.54682982048791
 30
0.0
 11
503.07271555780841
 21
453.54682982048791
 31
0.0
  0
LINE
  5
EB3
  8
0
  6
CONTINUOUS
 10
499.45355620445901
 20
450.04682982048791
 30
0.0
 11
503.06787491115813
 21
450.04682982048791
 31
0.0
  0
LINE
  5
EB4
  8
0
  6
CONTINUOUS
 10
435.26071555780851
 20
382.85398917383742
 30
0.0
 11
436.46071555780918
 21
383.5468298204878
 31
0.0
  0
LINE
  5
EB5
  8
0
  6
CONTINUOUS
 10
450.26071555780851
 20
382.85398917383742
 30
0.0
 11
449.06071555780778
 21
383.5468298204878
 31
0.0
  0
POLYLINE
  5
EB6
  8
0
  6
CONTINUOUS
 66
     1
 10
0.0
 20
0.0
 30
0.0
  0
VERTEX
  5
14B0
  8
0
  6
CONTINUOUS
 10
442.76071555780851
 20
383.5468298204878
 30
0.0
 42
-0.0851703918331037
  0
VERTEX
  5
14B1
  8
0
  6
CONTINUOUS
 10
446.76071555780851
 20
382.8588298204877
 30
0.0
 42
-0.3457679526359281
  0
VERTEX
  5
14B2
  8
0
  6
CONTINUOUS
 10
449.66071555780809
 20
383.20040949716258
 30
0.0
  0
SEQEND
  5
14B3
  8
0
  6
CONTINUOUS
  0
POLYLINE
  5
EBB
  8
0
  6
CONTINUOUS
 66
     1
 10
0.0
 20
0.0
 30
0.0
  0
VERTEX
  5
14B4
  8
0
  6
CONTINUOUS
 10
442.76071555780851
 20
383.5468298204878
 30
0.0
 42
0.0851703918331037
  0
VERTEX
  5
14B5
  8
0
  6
CONTINUOUS
 10
438.76071555780851
 20
382.8588298204877
 30
0.0
 42
0.3457679526359281
  0
VERTEX
  5
14B6
  8
0
  6
CONTINUOUS
 10
435.86071555780887
 20
383.20040949716258
 30
0.0
  0
SEQEND
  5
14B7
  8
0
  6
CONTINUOUS
  0
LINE
  5
EC0
  8
0
  6
CONTINUOUS
 10
438.76071555780862
 20
376.74682982048847
 30
0.0
 11
439.96071555780941
 21
375.5468298204878
 31
0.0
  0
LINE
  5
EC1
  8
0
  6
CONTINUOUS
 10
438.76071555780851
 20
378.5468298204878
 30
0.0
 11
438.76071555780862
 21
376.74682982048847
 31
0.0
  0
LINE
  5
EC2
  8
0
  6
CONTINUOUS
 10
445.56071555780778
 20
375.5468298204878
 30
0.0
 11
439.96071555780941
 21
375.5468298204878
 31
0.0
  0
LINE
  5
EC3
  8
0
  6
CONTINUOUS
 10
446.76071555780862
 20
376.74682982048847
 30
0.0
 11
445.56071555780778
 21
375.5468298204878
 31
0.0
  0
LINE
  5
EC4
  8
0
  6
CONTINUOUS
 10
446.76071555780862
 20
378.5468298204878
 30
0.0
 11
446.76071555780862
 21
376.74682982048847
 31
0.0
  0
LINE
  5
EC5
  8
0
  6
CONTINUOUS
 10
449.0607155578079
 20
378.5468298204878
 30
0.0
 11
436.46071555780918
 21
378.5468298204878
 31
0.0
  0
LINE
  5
EC6
  8
0
  6
CONTINUOUS
 10
450.26071555780862
 20
379.2396704671383
 30
0.0
 11
449.0607155578079
 21
378.5468298204878
 31
0.0
  0
LINE
  5
EC7
  8
0
  6
CONTINUOUS
 10
450.26071555780862
 20
382.85398917383742
 30
0.0
 11
450.26071555780862
 21
379.2396704671383
 31
0.0
  0
LINE
  5
EC8
  8
0
  6
CONTINUOUS
 10
435.26071555780862
 20
379.2396704671383
 30
0.0
 11
436.46071555780929
 21
378.5468298204878
 31
0.0
  0
LINE
  5
EC9
  8
0
  6
CONTINUOUS
 10
435.26071555780862
 20
382.85398917383742
 30
0.0
 11
435.26071555780862
 21
379.2396704671383
 31
0.0
  0
LINE
  5
ECA
  8
0
  6
CONTINUOUS
 62
     2
 10
439.5607155578079
 20
378.5468298204878
 30
0.0
 11
439.5607155578079
 21
375.94682982048931
 31
0.0
  0
POLYLINE
  5
ECB
  8
0
  6
CONTINUOUS
 66
     1
 10
0.0
 20
0.0
 30
0.0
  0
VERTEX
  5
14B8
  8
0
  6
CONTINUOUS
 10
442.76071555780862
 20
378.5468298204878
 30
0.0
 42
-0.0851703918331037
  0
VERTEX
  5
14B9
  8
0
  6
CONTINUOUS
 10
438.76071555780862
 20
379.2348298204879
 30
0.0
 42
-0.3457679526359281
  0
VERTEX
  5
14BA
  8
0
  6
CONTINUOUS
 10
435.86071555780899
 20
378.89325014381302
 30
0.0
  0
SEQEND
  5
14BB
  8
0
  6
CONTINUOUS
  0
LINE
  5
ED0
  8
0
  6
CONTINUOUS
 10
438.76071555780862
 20
382.8588298204877
 30
0.0
 11
438.76071555780862
 21
379.2348298204879
 31
0.0
  0
LINE
  5
ED1
  8
0
  6
CONTINUOUS
 62
     2
 10
445.96071555780929
 20
378.5468298204878
 30
0.0
 11
445.96071555780929
 21
375.94682982048931
 31
0.0
  0
LINE
  5
ED2
  8
0
  6
CONTINUOUS
 10
446.76071555780862
 20
376.74682982048847
 30
0.0
 11
438.76071555780862
 21
376.74682982048847
 31
0.0
  0
POLYLINE
  5
ED3
  8
0
  6
CONTINUOUS
 66
     1
 10
0.0
 20
0.0
 30
0.0
  0
VERTEX
  5
14BC
  8
0
  6
CONTINUOUS
 10
442.76071555780862
 20
378.5468298204878
 30
0.0
 42
0.0851703918331037
  0
VERTEX
  5
14BD
  8
0
  6
CONTINUOUS
 10
446.76071555780862
 20
379.2348298204879
 30
0.0
 42
0.3457679526359281
  0
VERTEX
  5
14BE
  8
0
  6
CONTINUOUS
 10
449.6607155578082
 20
378.89325014381302
 30
0.0
  0
SEQEND
  5
14BF
  8
0
  6
CONTINUOUS
  0
LINE
  5
ED8
  8
0
  6
CONTINUOUS
 10
446.76071555780862
 20
382.85882982048781
 30
0.0
 11
446.76071555780862
 21
379.2348298204879
 31
0.0
  0
CIRCLE
  5
ED9
  8
0
  6
CONTINUOUS
 10
440.0475121222122
 20
460.26003325608423
 30
0.0
 40
2.0499999999999989
  0
ARC
  5
EDA
  8
0
  6
CONTINUOUS
 62
     2
 10
440.04751212221208
 20
460.260033256084
 30
0.0
 40
2.5
 50
204.98154856581149
 51
158.9636414602291
  0
LINE
  5
EDB
  8
CENTER
  6
CENTER
 10
435.80487143509282
 20
464.50267394320349
 30
0.0
 11
444.64370619992468
 21
455.66383917837169
 31
0.0
  0
LINE
  5
EDC
  8
CENTER
  6
CENTER
 10
442.76071555780862
 20
399.80328215343587
 30
0.0
 11
442.76071555780862
 21
372.5468298204878
 31
0.0
  0
TEXT
  5
EDD
  8
DIM
  6
CONTINUOUS
 10
458.07961859302827
 20
420.41032660468869
 30
0.0
 40
3.0
  1
16.5
  7
ROMANSS
 72
     1
 11
462.36533287874261
 21
421.91032660468869
 31
0.0
 73
     2
  0
SOLID
  5
EDE
  8
DIM
  6
CONTINUOUS
 10
457.26071555780862
 20
419.41032660468869
 30
0.0
 11
457.26071555780862
 21
418.41032660468869
 31
0.0
 12
454.26071555780862
 22
418.91032660468869
 32
0.0
 13
454.26071555780862
 23
418.91032660468869
 33
0.0
  0
SOLID
  5
EDF
  8
DIM
  6
CONTINUOUS
 10
467.76071555780862
 20
419.41032660468869
 30
0.0
 11
467.76071555780862
 21
418.41032660468869
 31
0.0
 12
470.76071555780862
 22
418.91032660468869
 32
0.0
 13
470.76071555780862
 23
418.91032660468869
 33
0.0
  0
LINE
  5
EE0
  8
DIM
  6
CONTINUOUS
 10
467.76071555780862
 20
418.91032660468869
 30
0.0
 11
455.76071555780862
 21
418.91032660468869
 31
0.0
  0
CIRCLE
  5
EE1
  8
0
  6
CONTINUOUS
 10
461.26071555780862
 20
439.0468298204878
 30
0.0
 40
12.49999999999997
  0
TEXT
  5
EE2
  8
DIM
  6
CONTINUOUS
 10
492.85092035292951
 20
371.13406464067378
 30
0.0
 40
3.0
  1
90%%p5%%d
 50
30.61500939011956
  7
ROMANSS
 72
     1
 11
497.6195041926116
 21
375.69883613289193
 31
0.0
 73
     2
  0
SOLID
  5
EE3
  8
DIM
  6
CONTINUOUS
 10
536.65517100220211
 20
436.0594516939932
 30
0.0
 11
537.6548930490261
 21
436.03587566603858
 31
0.0
 12
537.22576010947819
 22
439.0468298204878
 32
0.0
 13
537.22576010947819
 23
439.0468298204878
 33
0.0
  0
TEXT
  5
EE4
  8
DIM
  6
CONTINUOUS
 10
458.83214412923718
 20
486.04682982048769
 30
0.0
 40
3.0
  1
60
  7
ROMANSS
 72
     1
 11
461.26071555780862
 21
487.5468298204878
 31
0.0
 73
     2
  0
SOLID
  5
EE5
  8
DIM
  6
CONTINUOUS
 10
434.26071555780862
 20
485.04682982048769
 30
0.0
 11
434.26071555780862
 21
484.0468298204878
 31
0.0
 12
431.26071555780862
 22
484.5468298204878
 32
0.0
 13
431.26071555780862
 23
484.5468298204878
 33
0.0
  0
LINE
  5
EE6
  8
DIM
  6
CONTINUOUS
 10
431.26071555780862
 20
476.0468298204878
 30
0.0
 11
431.26071555780862
 21
485.54682982048769
 31
0.0
  0
LINE
  5
EE7
  8
CENTER
  6
CENTER
 10
431.26071555780862
 20
415.0468298204878
 30
0.0
 11
431.26071555780862
 21
403.0468298204878
 31
0.0
  0
CIRCLE
  5
EE8
  8
0
  6
CONTINUOUS
 10
431.26071555780862
 20
409.04682982048791
 30
0.0
 40
2.5
  0
ARC
  5
EE9
  8
0
  6
CONTINUOUS
 62
     2
 10
431.26071555780862
 20
409.04682982048791
 30
0.0
 40
3.0
 50
72.528507680586145
 51
21.640324594293851
  0
CIRCLE
  5
EEA
  8
0
  6
CONTINUOUS
 10
431.26071555780862
 20
469.0468298204878
 30
0.0
 40
2.5
  0
ARC
  5
EEB
  8
0
  6
CONTINUOUS
 62
     2
 10
431.26071555780862
 20
469.0468298204878
 30
0.0
 40
3.0
 50
72.528507680586145
 51
21.640324594293851
  0
LINE
  5
EEC
  8
CENTER
  6
CENTER
 10
431.26071555780862
 20
475.0468298204878
 30
0.0
 11
431.26071555780862
 21
463.04682982048791
 31
0.0
  0
LINE
  5
EED
  8
CENTER
  6
CENTER
 10
425.26071555780862
 20
409.04682982048791
 30
0.0
 11
437.26071555780862
 21
409.04682982048791
 31
0.0
  0
LINE
  5
EEE
  8
CENTER
  6
CENTER
 10
425.26071555780862
 20
469.0468298204878
 30
0.0
 11
437.26071555780862
 21
469.0468298204878
 31
0.0
  0
LINE
  5
EEF
  8
0
 10
423.76071555780862
 20
476.54682982048769
 30
0.0
 11
423.76071555780862
 21
383.5468298204878
 31
0.0
  0
LINE
  5
EF0
  8
CENTER
  6
CENTER
 10
461.26071555780862
 20
479.5468298204878
 30
0.0
 11
461.26071555780862
 21
424.50431728187601
 31
0.0
  0
SOLID
  5
EF1
  8
DIM
  6
CONTINUOUS
 10
464.24809368430323
 20
363.65237437609409
 30
0.0
 11
464.27166971225779
 21
362.65265232927021
 31
0.0
 12
461.26071555780862
 22
363.08178526881812
 32
0.0
 13
461.26071555780862
 23
363.08178526881812
 33
0.0
  0
LINE
  5
EF2
  8
DIM
  6
CONTINUOUS
 10
499.76071555780862
 20
439.0468298204878
 30
0.0
 11
538.48099225614305
 21
439.0468298204878
 31
0.0
  0
LINE
  5
EF3
  8
0
  6
CONTINUOUS
 10
503.06787491115813
 20
465.04682982048791
 30
0.0
 11
503.76071555780851
 21
463.84682982048707
 31
0.0
  0
LINE
  5
EF4
  8
0
  6
CONTINUOUS
 10
503.76071555780851
 20
461.54682982048803
 30
0.0
 11
505.56071555780778
 21
461.54682982048791
 31
0.0
  0
LINE
  5
EF5
  8
0
  6
CONTINUOUS
 10
499.45355620445901
 20
465.04682982048791
 30
0.0
 11
498.76071555780862
 21
463.84682982048719
 31
0.0
  0
LINE
  5
EF6
  8
0
  6
CONTINUOUS
 10
499.45355620445901
 20
465.04682982048791
 30
0.0
 11
503.06787491115813
 21
465.04682982048791
 31
0.0
  0
LINE
  5
EF7
  8
0
  6
CONTINUOUS
 10
499.44871555780861
 20
461.54682982048791
 30
0.0
 11
503.07271555780841
 21
461.54682982048791
 31
0.0
  0
TEXT
  5
EF8
  8
DIM
  6
CONTINUOUS
 10
469.79521943627611
 20
456.36862147784967
 30
0.0
 40
3.0
  1
%%c14H7
  7
ROMANSS
 11
469.79521943627611
 21
457.86862147784967
 31
0.0
 73
     2
  0
LINE
  5
EF9
  8
DIM
  6
CONTINUOUS
 10
468.38226443202387
 20
454.86862147784967
 30
0.0
 11
483.92021943627611
 21
454.86862147784967
 31
0.0
  0
TEXT
  5
EFA
  8
DIM
  6
CONTINUOUS
 10
508.45650119307879
 20
491.55986379254051
 30
0.0
 40
3.0
  1
2x4-M6x15L
  7
ROMANSS
 11
508.45650119307879
 21
493.0598637925404
 31
0.0
 73
     2
  0
LINE
  5
EFB
  8
DIM
  6
CONTINUOUS
 10
508.33194819235518
 20
490.0598637925404
 30
0.0
 11
533.08150119307879
 21
490.0598637925404
 31
0.0
  0
LINE
  5
EFC
  8
DIM
  6
CONTINUOUS
 10
494.9672029671126
 20
473.76343125214078
 30
0.0
 11
508.33194819235518
 21
490.0598637925404
 31
0.0
  0
SOLID
  5
EFD
  8
DIM
  6
CONTINUOUS
 10
495.35381742967161
 20
473.44636776111702
 30
0.0
 11
494.5805885045537
 21
474.08049474316499
 31
0.0
 12
493.06482202096919
 22
471.44374447678729
 32
0.0
 13
493.06482202096919
 23
471.44374447678729
 33
0.0
  0
SOLID
  5
EFE
  8
DIM
  6
CONTINUOUS
 10
488.26071555780862
 20
485.04682982048769
 30
0.0
 11
488.26071555780862
 21
484.0468298204878
 31
0.0
 12
491.26071555780851
 22
484.5468298204878
 32
0.0
 13
491.26071555780851
 23
484.5468298204878
 33
0.0
  0
LINE
  5
EFF
  8
DIM
  6
CONTINUOUS
 10
491.26071555780851
 20
476.0468298204878
 30
0.0
 11
491.26071555780851
 21
485.54682982048769
 31
0.0
  0
LINE
  5
F00
  8
CENTER
  6
CENTER
 10
485.26071555780862
 20
469.0468298204878
 30
0.0
 11
497.26071555780862
 21
469.0468298204878
 31
0.0
  0
LINE
  5
F01
  8
CENTER
  6
CENTER
 10
485.26071555780862
 20
409.04682982048791
 30
0.0
 11
497.26071555780862
 21
409.04682982048791
 31
0.0
  0
LINE
  5
F02
  8
CENTER
  6
CENTER
 10
491.26071555780851
 20
415.0468298204878
 30
0.0
 11
491.26071555780851
 21
403.0468298204878
 31
0.0
  0
CIRCLE
  5
F03
  8
0
  6
CONTINUOUS
 10
491.26071555780851
 20
469.0468298204878
 30
0.0
 40
2.5
  0
ARC
  5
F04
  8
0
  6
CONTINUOUS
 62
     2
 10
491.26071555780851
 20
469.0468298204878
 30
0.0
 40
3.0
 50
162.5285076805861
 51
111.6403245942938
  0
CIRCLE
  5
F05
  8
0
  6
CONTINUOUS
 10
491.26071555780851
 20
409.04682982048791
 30
0.0
 40
2.5
  0
ARC
  5
F06
  8
0
  6
CONTINUOUS
 62
     2
 10
491.26071555780851
 20
409.04682982048791
 30
0.0
 40
3.0
 50
72.528507680586145
 51
21.640324594293851
  0
LINE
  5
F07
  8
CENTER
  6
CENTER
 10
491.26071555780851
 20
475.0468298204878
 30
0.0
 11
491.26071555780851
 21
463.04682982048791
 31
0.0
  0
LINE
  5
F08
  8
0
 10
498.76071555780862
 20
476.54682982048769
 30
0.0
 11
498.76071555780862
 21
383.5468298204878
 31
0.0
  0
TEXT
  5
F09
  8
DIM
  6
CONTINUOUS
 10
615.39232633651352
 20
335.40196995392222
 30
0.0
 40
3.0
  1
2x4-M6x15L
  7
ROMANSS
 72
     2
 11
642.82089776508485
 21
336.90196995392222
 31
0.0
 73
     2
  0
LINE
  5
F0A
  8
DIM
  6
CONTINUOUS
 10
643.58120420804653
 20
333.90196995392222
 30
0.0
 11
618.19589776508485
 21
333.90196995392222
 31
0.0
  0
TEXT
  5
F0B
  8
DIM
  6
CONTINUOUS
 10
548.60592586968016
 20
438.7888247987878
 30
0.0
 40
3.0
  1
60
 50
90.0
  7
ROMANSS
 72
     1
 11
547.10592586968016
 21
441.2173962273593
 31
0.0
 73
     2
  0
SOLID
  5
F0C
  8
DIM
  6
CONTINUOUS
 10
549.60592586968016
 20
466.0468298204878
 30
0.0
 11
550.60592586968028
 21
466.0468298204878
 31
0.0
 12
550.10592586968028
 22
469.0468298204878
 32
0.0
 13
550.10592586968028
 23
469.0468298204878
 33
0.0
  0
SOLID
  5
F0D
  8
DIM
  6
CONTINUOUS
 10
549.60592586968016
 20
412.0468298204878
 30
0.0
 11
550.60592586968028
 21
412.0468298204878
 31
0.0
 12
550.10592586968028
 22
409.04682982048791
 32
0.0
 13
550.10592586968028
 23
409.04682982048791
 33
0.0
  0
LINE
  5
F0E
  8
DIM
  6
CONTINUOUS
 10
550.10592586968028
 20
412.0468298204878
 30
0.0
 11
550.10592586968028
 21
466.0468298204878
 31
0.0
  0
LINE
  5
F0F
  8
CENTER
  6
CENTER
 10
569.26071555780868
 20
380.50402041826243
 30
0.0
 11
569.26071555780868
 21
398.89206276049362
 31
0.0
  0
LINE
  5
F10
  8
HIDDEN
  6
HIDDEN
 10
586.76071555780857
 20
427.5468298204878
 30
0.0
 11
586.76071555780857
 21
433.54682982048791
 31
0.0
  0
LINE
  5
F11
  8
HIDDEN
  6
HIDDEN
 10
574.76071555780857
 20
432.94682982048778
 30
0.0
 11
573.37507491175336
 21
430.5468298204878
 31
0.0
  0
LINE
  5
F12
  8
HIDDEN
  6
HIDDEN
 10
574.76071555780857
 20
428.14682982048782
 30
0.0
 11
574.76071555780857
 21
432.94682982048778
 31
0.0
  0
LINE
  5
F13
  8
HIDDEN
  6
HIDDEN
 10
574.76071555780857
 20
428.14682982048782
 30
0.0
 11
573.37507491175336
 21
430.5468298204878
 31
0.0
  0
LINE
  5
F14
  8
HIDDEN
  6
HIDDEN
 10
577.76071555780868
 20
427.5468298204878
 30
0.0
 11
577.76071555780868
 21
433.54682982048791
 31
0.0
  0
LINE
  5
F15
  8
HIDDEN
  6
HIDDEN
 10
586.76071555780857
 20
428.14682982048782
 30
0.0
 11
574.76071555780857
 21
428.14682982048782
 31
0.0
  0
LINE
  5
F16
  8
HIDDEN
  6
HIDDEN
 10
586.76071555780857
 20
432.94682982048778
 30
0.0
 11
574.76071555780857
 21
432.94682982048778
 31
0.0
  0
LINE
  5
F17
  8
HIDDEN
  6
HIDDEN
 10
592.76071555780857
 20
427.5468298204878
 30
0.0
 11
577.76071555780868
 21
427.5468298204878
 31
0.0
  0
LINE
  5
F18
  8
HIDDEN
  6
HIDDEN
 10
592.76071555780857
 20
433.54682982048791
 30
0.0
 11
577.76071555780868
 21
433.54682982048791
 31
0.0
  0
LINE
  5
F19
  8
HIDDEN
  6
HIDDEN
 10
586.76071555780857
 20
389.5468298204878
 30
0.0
 11
586.76071555780857
 21
395.5468298204878
 31
0.0
  0
LINE
  5
F1A
  8
HIDDEN
  6
HIDDEN
 10
577.76071555780868
 20
389.5468298204878
 30
0.0
 11
577.76071555780868
 21
395.5468298204878
 31
0.0
  0
LINE
  5
F1B
  8
HIDDEN
  6
HIDDEN
 10
574.76071555780857
 20
394.94682982048778
 30
0.0
 11
573.37507491175336
 21
392.5468298204878
 31
0.0
  0
LINE
  5
F1C
  8
HIDDEN
  6
HIDDEN
 10
574.76071555780857
 20
390.14682982048771
 30
0.0
 11
573.37507491175336
 21
392.5468298204878
 31
0.0
  0
LINE
  5
F1D
  8
HIDDEN
  6
HIDDEN
 10
574.76071555780857
 20
390.14682982048771
 30
0.0
 11
574.76071555780857
 21
394.94682982048778
 31
0.0
  0
LINE
  5
F1E
  8
HIDDEN
  6
HIDDEN
 10
586.76071555780857
 20
394.94682982048778
 30
0.0
 11
574.76071555780857
 21
394.94682982048778
 31
0.0
  0
LINE
  5
F1F
  8
HIDDEN
  6
HIDDEN
 10
586.76071555780857
 20
390.14682982048771
 30
0.0
 11
574.76071555780857
 21
390.14682982048771
 31
0.0
  0
LINE
  5
F20
  8
HIDDEN
  6
HIDDEN
 10
592.76071555780857
 20
395.5468298204878
 30
0.0
 11
577.76071555780868
 21
395.5468298204878
 31
0.0
  0
LINE
  5
F21
  8
HIDDEN
  6
HIDDEN
 10
592.76071555780857
 20
389.5468298204878
 30
0.0
 11
577.76071555780868
 21
389.5468298204878
 31
0.0
  0
LINE
  5
F22
  8
0
 10
592.76071555780857
 20
429.0468298204878
 30
0.0
 11
595.76071555780857
 21
429.0468298204878
 31
0.0
  0
ARC
  5
F23
  8
0
 10
595.76071555780857
 20
428.0468298204878
 30
0.0
 40
1.0
 50
0.0
 51
90.0
  0
LINE
  5
F24
  8
CENTER
  6
CENTER
 10
577.76071555780868
 20
380.9449581921379
 30
0.0
 11
577.76071555780868
 21
398.9174983478286
 31
0.0
  0
LINE
  5
F25
  8
0
 10
562.76071555780857
 20
438.04682982048791
 30
0.0
 11
592.76071555780857
 21
437.5468298204878
 31
0.0
  0
LINE
  5
F26
  8
CENTER
  6
CENTER
 10
595.84826566586003
 20
430.5468298204878
 30
0.0
 11
561.76071555780857
 21
430.5468298204878
 31
0.0
  0
LINE
  5
F27
  8
0
 10
592.76071555780857
 20
394.0468298204878
 30
0.0
 11
595.76071555780857
 21
394.0468298204878
 31
0.0
  0
ARC
  5
F28
  8
0
 10
595.76071555780857
 20
395.0468298204878
 30
0.0
 40
1.0
 50
270.0
 51
0.0
  0
LINE
  5
F29
  8
0
 10
562.76071555780857
 20
385.0468298204878
 30
0.0
 11
592.76071555780857
 21
385.5468298204878
 31
0.0
  0
LINE
  5
F2A
  8
CENTER
  6
CENTER
 10
595.18384569611703
 20
392.5468298204878
 30
0.0
 11
561.76071555780857
 21
392.5468298204878
 31
0.0
  0
LINE
  5
F2B
  8
0
 10
596.76071555780857
 20
428.0468298204878
 30
0.0
 11
596.76071555780857
 21
395.0468298204878
 31
0.0
  0
LINE
  5
F2C
  8
0
 10
592.76071555780857
 20
437.5468298204878
 30
0.0
 11
592.76071555780857
 21
385.5468298204878
 31
0.0
  0
LINE
  5
F2D
  8
0
 10
562.76071555780857
 20
438.04682982048791
 30
0.0
 11
562.76071555780857
 21
385.0468298204878
 31
0.0
  0
TEXT
  5
F2E
  8
DIM
  6
CONTINUOUS
 10
748.6207938489265
 20
333.55615230059351
 30
0.0
 40
3.0
  1
8
 50
90.0
  7
ROMANSS
 72
     1
 11
747.12079384892638
 21
334.55615230059351
 31
0.0
 73
     2
  0
CIRCLE
  5
F2F
  8
0
  6
CONTINUOUS
 10
226.40063726669081
 20
306.0259398252557
 30
0.0
 40
2.5
  0
ARC
  5
F30
  8
0
  6
CONTINUOUS
 62
     2
 10
226.40063726669081
 20
306.0259398252557
 30
0.0
 40
3.0000000000000031
 50
165.00000000000551
 51
104.9999999999944
  0
CIRCLE
  5
F31
  8
0
  6
CONTINUOUS
 10
264.40063726669081
 20
306.0259398252557
 30
0.0
 40
2.5
  0
ARC
  5
F32
  8
0
  6
CONTINUOUS
 62
     2
 10
264.40063726669081
 20
306.0259398252557
 30
0.0
 40
3.0000000000000031
 50
165.00000000000551
 51
104.9999999999944
  0
CIRCLE
  5
F33
  8
0
  6
CONTINUOUS
 10
226.40063726669081
 20
268.0259398252557
 30
0.0
 40
2.5
  0
ARC
  5
F34
  8
0
  6
CONTINUOUS
 62
     2
 10
226.40063726669081
 20
268.0259398252557
 30
0.0
 40
3.0000000000000031
 50
165.00000000000551
 51
104.9999999999944
  0
CIRCLE
  5
F35
  8
0
  6
CONTINUOUS
 10
264.40063726669081
 20
268.0259398252557
 30
0.0
 40
2.5
  0
ARC
  5
F36
  8
0
  6
CONTINUOUS
 62
     2
 10
264.40063726669081
 20
268.0259398252557
 30
0.0
 40
3.0000000000000031
 50
165.00000000000551
 51
104.9999999999944
  0
CIRCLE
  5
F37
  8
0
  6
CONTINUOUS
 10
658.12079384892638
 20
306.0259398252557
 30
0.0
 40
2.5
  0
ARC
  5
F38
  8
0
  6
CONTINUOUS
 62
     2
 10
658.12079384892638
 20
306.0259398252557
 30
0.0
 40
3.0000000000000031
 50
75.000000000005556
 51
14.999999999994451
  0
CIRCLE
  5
F39
  8
0
  6
CONTINUOUS
 10
696.12079384892638
 20
306.0259398252557
 30
0.0
 40
2.5
  0
ARC
  5
F3A
  8
0
  6
CONTINUOUS
 62
     2
 10
696.12079384892638
 20
306.0259398252557
 30
0.0
 40
3.0000000000000031
 50
75.000000000005556
 51
14.999999999994451
  0
CIRCLE
  5
F3B
  8
0
  6
CONTINUOUS
 10
696.12079384892638
 20
268.0259398252557
 30
0.0
 40
2.5
  0
ARC
  5
F3C
  8
0
  6
CONTINUOUS
 62
     2
 10
696.12079384892638
 20
268.0259398252557
 30
0.0
 40
3.0000000000000031
 50
75.000000000005556
 51
14.999999999994451
  0
CIRCLE
  5
F3D
  8
0
  6
CONTINUOUS
 10
658.12079384892638
 20
268.0259398252557
 30
0.0
 40
2.5
  0
ARC
  5
F3E
  8
0
  6
CONTINUOUS
 62
     2
 10
658.12079384892638
 20
268.0259398252557
 30
0.0
 40
3.0000000000000031
 50
75.000000000005556
 51
14.999999999994451
  0
LINE
  5
F3F
  8
CENTER
  6
CENTER
 10
353.26071555780851
 20
380.50402041826243
 30
0.0
 11
353.26071555780851
 21
398.89206276049362
 31
0.0
  0
LINE
  5
F40
  8
HIDDEN
  6
HIDDEN
 10
335.76071555780851
 20
427.5468298204878
 30
0.0
 11
335.76071555780851
 21
433.54682982048791
 31
0.0
  0
LINE
  5
F41
  8
HIDDEN
  6
HIDDEN
 10
347.76071555780851
 20
432.94682982048778
 30
0.0
 11
349.14635620386372
 21
430.5468298204878
 31
0.0
  0
LINE
  5
F42
  8
HIDDEN
  6
HIDDEN
 10
347.76071555780851
 20
428.14682982048782
 30
0.0
 11
347.76071555780851
 21
432.94682982048778
 31
0.0
  0
LINE
  5
F43
  8
HIDDEN
  6
HIDDEN
 10
347.76071555780851
 20
428.14682982048782
 30
0.0
 11
349.14635620386372
 21
430.5468298204878
 31
0.0
  0
LINE
  5
F44
  8
HIDDEN
  6
HIDDEN
 10
344.76071555780851
 20
427.5468298204878
 30
0.0
 11
344.76071555780851
 21
433.54682982048791
 31
0.0
  0
LINE
  5
F45
  8
HIDDEN
  6
HIDDEN
 10
335.76071555780851
 20
428.14682982048782
 30
0.0
 11
347.76071555780851
 21
428.14682982048782
 31
0.0
  0
LINE
  5
F46
  8
HIDDEN
  6
HIDDEN
 10
335.76071555780851
 20
432.94682982048778
 30
0.0
 11
347.76071555780851
 21
432.94682982048778
 31
0.0
  0
LINE
  5
F47
  8
HIDDEN
  6
HIDDEN
 10
329.76071555780851
 20
427.5468298204878
 30
0.0
 11
344.76071555780851
 21
427.5468298204878
 31
0.0
  0
LINE
  5
F48
  8
HIDDEN
  6
HIDDEN
 10
329.76071555780851
 20
433.54682982048791
 30
0.0
 11
344.76071555780851
 21
433.54682982048791
 31
0.0
  0
LINE
  5
F49
  8
HIDDEN
  6
HIDDEN
 10
335.76071555780851
 20
389.5468298204878
 30
0.0
 11
335.76071555780851
 21
395.5468298204878
 31
0.0
  0
LINE
  5
F4A
  8
HIDDEN
  6
HIDDEN
 10
344.76071555780851
 20
389.5468298204878
 30
0.0
 11
344.76071555780851
 21
395.5468298204878
 31
0.0
  0
LINE
  5
F4B
  8
HIDDEN
  6
HIDDEN
 10
347.76071555780851
 20
394.94682982048778
 30
0.0
 11
349.14635620386372
 21
392.5468298204878
 31
0.0
  0
LINE
  5
F4C
  8
HIDDEN
  6
HIDDEN
 10
347.76071555780851
 20
390.14682982048771
 30
0.0
 11
349.14635620386372
 21
392.5468298204878
 31
0.0
  0
LINE
  5
F4D
  8
HIDDEN
  6
HIDDEN
 10
347.76071555780851
 20
390.14682982048771
 30
0.0
 11
347.76071555780851
 21
394.94682982048778
 31
0.0
  0
LINE
  5
F4E
  8
HIDDEN
  6
HIDDEN
 10
335.76071555780851
 20
394.94682982048778
 30
0.0
 11
347.76071555780851
 21
394.94682982048778
 31
0.0
  0
LINE
  5
F4F
  8
HIDDEN
  6
HIDDEN
 10
335.76071555780851
 20
390.14682982048771
 30
0.0
 11
347.76071555780851
 21
390.14682982048771
 31
0.0
  0
LINE
  5
F50
  8
HIDDEN
  6
HIDDEN
 10
329.76071555780851
 20
395.5468298204878
 30
0.0
 11
344.76071555780851
 21
395.5468298204878
 31
0.0
  0
LINE
  5
F51
  8
HIDDEN
  6
HIDDEN
 10
329.76071555780851
 20
389.5468298204878
 30
0.0
 11
344.76071555780851
 21
389.5468298204878
 31
0.0
  0
LINE
  5
F52
  8
CENTER
  6
CENTER
 10
344.76071555780851
 20
380.9449581921379
 30
0.0
 11
344.76071555780851
 21
398.9174983478286
 31
0.0
  0
LINE
  5
F53
  8
CENTER
  6
CENTER
 10
326.67316544975722
 20
430.5468298204878
 30
0.0
 11
360.76071555780851
 21
430.5468298204878
 31
0.0
  0
LINE
  5
F54
  8
CENTER
  6
CENTER
 10
327.33758541950021
 20
392.5468298204878
 30
0.0
 11
360.76071555780851
 21
392.5468298204878
 31
0.0
  0
LINE
  5
F55
  8
0
 10
592.76071555780857
 20
185.6460982339463
 30
0.0
 11
595.76071555780857
 21
185.6460982339463
 31
0.0
  0
LINE
  5
F56
  8
HIDDEN
  6
HIDDEN
 10
335.76071555780851
 20
303.0259398252557
 30
0.0
 11
335.76071555780851
 21
309.0259398252557
 31
0.0
  0
LINE
  5
F57
  8
HIDDEN
  6
HIDDEN
 10
347.7607155578084
 20
308.42593982525568
 30
0.0
 11
349.14635620386372
 21
306.0259398252557
 31
0.0
  0
LINE
  5
F58
  8
HIDDEN
  6
HIDDEN
 10
347.7607155578084
 20
303.62593982525573
 30
0.0
 11
347.7607155578084
 21
308.42593982525568
 31
0.0
  0
LINE
  5
F59
  8
HIDDEN
  6
HIDDEN
 10
347.7607155578084
 20
303.62593982525573
 30
0.0
 11
349.14635620386372
 21
306.0259398252557
 31
0.0
  0
LINE
  5
F5A
  8
HIDDEN
  6
HIDDEN
 10
344.76071555780851
 20
303.0259398252557
 30
0.0
 11
344.76071555780851
 21
309.0259398252557
 31
0.0
  0
LINE
  5
F5B
  8
HIDDEN
  6
HIDDEN
 10
335.76071555780851
 20
303.62593982525573
 30
0.0
 11
347.7607155578084
 21
303.62593982525573
 31
0.0
  0
LINE
  5
F5C
  8
HIDDEN
  6
HIDDEN
 10
335.76071555780851
 20
308.42593982525568
 30
0.0
 11
347.7607155578084
 21
308.42593982525568
 31
0.0
  0
LINE
  5
F5D
  8
HIDDEN
  6
HIDDEN
 10
329.76071555780851
 20
303.0259398252557
 30
0.0
 11
344.76071555780851
 21
303.0259398252557
 31
0.0
  0
LINE
  5
F5E
  8
HIDDEN
  6
HIDDEN
 10
329.76071555780851
 20
309.0259398252557
 30
0.0
 11
344.76071555780851
 21
309.0259398252557
 31
0.0
  0
LINE
  5
F5F
  8
HIDDEN
  6
HIDDEN
 10
335.76071555780851
 20
265.0259398252557
 30
0.0
 11
335.76071555780851
 21
271.0259398252557
 31
0.0
  0
LINE
  5
F60
  8
HIDDEN
  6
HIDDEN
 10
344.76071555780851
 20
265.0259398252557
 30
0.0
 11
344.76071555780851
 21
271.0259398252557
 31
0.0
  0
LINE
  5
F61
  8
HIDDEN
  6
HIDDEN
 10
347.7607155578084
 20
270.42593982525568
 30
0.0
 11
349.14635620386372
 21
268.0259398252557
 31
0.0
  0
LINE
  5
F62
  8
HIDDEN
  6
HIDDEN
 10
347.7607155578084
 20
265.62593982525561
 30
0.0
 11
349.14635620386372
 21
268.0259398252557
 31
0.0
  0
LINE
  5
F63
  8
HIDDEN
  6
HIDDEN
 10
347.7607155578084
 20
265.62593982525561
 30
0.0
 11
347.7607155578084
 21
270.42593982525568
 31
0.0
  0
LINE
  5
F64
  8
HIDDEN
  6
HIDDEN
 10
335.76071555780851
 20
270.42593982525568
 30
0.0
 11
347.7607155578084
 21
270.42593982525568
 31
0.0
  0
LINE
  5
F65
  8
HIDDEN
  6
HIDDEN
 10
335.76071555780851
 20
265.62593982525561
 30
0.0
 11
347.7607155578084
 21
265.62593982525561
 31
0.0
  0
LINE
  5
F66
  8
HIDDEN
  6
HIDDEN
 10
329.76071555780851
 20
271.0259398252557
 30
0.0
 11
344.76071555780851
 21
271.0259398252557
 31
0.0
  0
LINE
  5
F67
  8
HIDDEN
  6
HIDDEN
 10
329.76071555780851
 20
265.0259398252557
 30
0.0
 11
344.76071555780851
 21
265.0259398252557
 31
0.0
  0
LINE
  5
F68
  8
CENTER
  6
CENTER
 10
326.67316544975711
 20
306.0259398252557
 30
0.0
 11
360.76071555780851
 21
306.0259398252557
 31
0.0
  0
LINE
  5
F69
  8
CENTER
  6
CENTER
 10
327.3375854195001
 20
268.0259398252557
 30
0.0
 11
360.76071555780851
 21
268.0259398252557
 31
0.0
  0
LINE
  5
F6A
  8
HIDDEN
  6
HIDDEN
 10
335.76071555780851
 20
184.1460982339463
 30
0.0
 11
335.76071555780851
 21
190.1460982339463
 31
0.0
  0
LINE
  5
F6B
  8
HIDDEN
  6
HIDDEN
 10
347.76071555780851
 20
189.54609823394631
 30
0.0
 11
349.14635620386372
 21
187.1460982339463
 31
0.0
  0
LINE
  5
F6C
  8
HIDDEN
  6
HIDDEN
 10
347.76071555780851
 20
184.7460982339463
 30
0.0
 11
347.76071555780851
 21
189.54609823394631
 31
0.0
  0
LINE
  5
F6D
  8
HIDDEN
  6
HIDDEN
 10
347.76071555780851
 20
184.7460982339463
 30
0.0
 11
349.14635620386372
 21
187.1460982339463
 31
0.0
  0
LINE
  5
F6E
  8
HIDDEN
  6
HIDDEN
 10
344.76071555780851
 20
184.1460982339463
 30
0.0
 11
344.76071555780851
 21
190.1460982339463
 31
0.0
  0
LINE
  5
F6F
  8
HIDDEN
  6
HIDDEN
 10
335.76071555780851
 20
184.7460982339463
 30
0.0
 11
347.76071555780851
 21
184.7460982339463
 31
0.0
  0
LINE
  5
F70
  8
HIDDEN
  6
HIDDEN
 10
335.76071555780851
 20
189.54609823394631
 30
0.0
 11
347.76071555780851
 21
189.54609823394631
 31
0.0
  0
LINE
  5
F71
  8
HIDDEN
  6
HIDDEN
 10
329.76071555780851
 20
184.1460982339463
 30
0.0
 11
344.76071555780851
 21
184.1460982339463
 31
0.0
  0
LINE
  5
F72
  8
HIDDEN
  6
HIDDEN
 10
329.76071555780851
 20
190.1460982339463
 30
0.0
 11
344.76071555780851
 21
190.1460982339463
 31
0.0
  0
LINE
  5
F73
  8
HIDDEN
  6
HIDDEN
 10
335.76071555780851
 20
146.1460982339463
 30
0.0
 11
335.76071555780851
 21
152.1460982339463
 31
0.0
  0
LINE
  5
F74
  8
HIDDEN
  6
HIDDEN
 10
344.76071555780851
 20
146.1460982339463
 30
0.0
 11
344.76071555780851
 21
152.1460982339463
 31
0.0
  0
LINE
  5
F75
  8
HIDDEN
  6
HIDDEN
 10
347.76071555780851
 20
151.54609823394631
 30
0.0
 11
349.14635620386372
 21
149.1460982339463
 31
0.0
  0
LINE
  5
F76
  8
HIDDEN
  6
HIDDEN
 10
347.76071555780851
 20
146.74609823394621
 30
0.0
 11
349.14635620386372
 21
149.1460982339463
 31
0.0
  0
LINE
  5
F77
  8
HIDDEN
  6
HIDDEN
 10
347.76071555780851
 20
146.74609823394621
 30
0.0
 11
347.76071555780851
 21
151.54609823394631
 31
0.0
  0
LINE
  5
F78
  8
HIDDEN
  6
HIDDEN
 10
335.76071555780851
 20
151.54609823394631
 30
0.0
 11
347.76071555780851
 21
151.54609823394631
 31
0.0
  0
LINE
  5
F79
  8
HIDDEN
  6
HIDDEN
 10
335.76071555780851
 20
146.74609823394621
 30
0.0
 11
347.76071555780851
 21
146.74609823394621
 31
0.0
  0
LINE
  5
F7A
  8
HIDDEN
  6
HIDDEN
 10
329.76071555780851
 20
152.1460982339463
 30
0.0
 11
344.76071555780851
 21
152.1460982339463
 31
0.0
  0
LINE
  5
F7B
  8
HIDDEN
  6
HIDDEN
 10
329.76071555780851
 20
146.1460982339463
 30
0.0
 11
344.76071555780851
 21
146.1460982339463
 31
0.0
  0
LINE
  5
F7C
  8
CENTER
  6
CENTER
 10
326.67316544975722
 20
187.1460982339463
 30
0.0
 11
360.76071555780851
 21
187.1460982339463
 31
0.0
  0
LINE
  5
F7D
  8
CENTER
  6
CENTER
 10
327.33758541950021
 20
149.1460982339463
 30
0.0
 11
360.76071555780851
 21
149.1460982339463
 31
0.0
  0
LINE
  5
F7E
  8
CENTER
  6
CENTER
 10
353.26071555780851
 20
199.18890763617171
 30
0.0
 11
353.26071555780851
 21
180.8008652939406
 31
0.0
  0
LINE
  5
F7F
  8
CENTER
  6
CENTER
 10
344.76071555780851
 20
198.74796986229629
 30
0.0
 11
344.76071555780851
 21
180.77542970660551
 31
0.0
  0
LINE
  5
F80
  8
HIDDEN
  6
HIDDEN
 10
586.76071555780857
 20
303.0259398252557
 30
0.0
 11
586.76071555780857
 21
309.0259398252557
 31
0.0
  0
LINE
  5
F81
  8
HIDDEN
  6
HIDDEN
 10
574.76071555780857
 20
308.42593982525568
 30
0.0
 11
573.37507491175336
 21
306.0259398252557
 31
0.0
  0
LINE
  5
F82
  8
HIDDEN
  6
HIDDEN
 10
574.76071555780857
 20
303.62593982525573
 30
0.0
 11
574.76071555780857
 21
308.42593982525568
 31
0.0
  0
LINE
  5
F83
  8
HIDDEN
  6
HIDDEN
 10
574.76071555780857
 20
303.62593982525573
 30
0.0
 11
573.37507491175336
 21
306.0259398252557
 31
0.0
  0
LINE
  5
F84
  8
HIDDEN
  6
HIDDEN
 10
577.76071555780868
 20
303.0259398252557
 30
0.0
 11
577.76071555780868
 21
309.0259398252557
 31
0.0
  0
LINE
  5
F85
  8
HIDDEN
  6
HIDDEN
 10
586.76071555780857
 20
303.62593982525573
 30
0.0
 11
574.76071555780857
 21
303.62593982525573
 31
0.0
  0
LINE
  5
F86
  8
HIDDEN
  6
HIDDEN
 10
586.76071555780857
 20
308.42593982525568
 30
0.0
 11
574.76071555780857
 21
308.42593982525568
 31
0.0
  0
LINE
  5
F87
  8
HIDDEN
  6
HIDDEN
 10
592.76071555780857
 20
303.0259398252557
 30
0.0
 11
577.76071555780868
 21
303.0259398252557
 31
0.0
  0
LINE
  5
F88
  8
HIDDEN
  6
HIDDEN
 10
592.76071555780857
 20
309.0259398252557
 30
0.0
 11
577.76071555780868
 21
309.0259398252557
 31
0.0
  0
LINE
  5
F89
  8
HIDDEN
  6
HIDDEN
 10
586.76071555780857
 20
265.0259398252557
 30
0.0
 11
586.76071555780857
 21
271.0259398252557
 31
0.0
  0
LINE
  5
F8A
  8
HIDDEN
  6
HIDDEN
 10
577.76071555780868
 20
265.0259398252557
 30
0.0
 11
577.76071555780868
 21
271.0259398252557
 31
0.0
  0
LINE
  5
F8B
  8
HIDDEN
  6
HIDDEN
 10
574.76071555780857
 20
270.42593982525568
 30
0.0
 11
573.37507491175336
 21
268.0259398252557
 31
0.0
  0
LINE
  5
F8C
  8
HIDDEN
  6
HIDDEN
 10
574.76071555780857
 20
265.62593982525561
 30
0.0
 11
573.37507491175336
 21
268.0259398252557
 31
0.0
  0
LINE
  5
F8D
  8
HIDDEN
  6
HIDDEN
 10
574.76071555780857
 20
265.62593982525561
 30
0.0
 11
574.76071555780857
 21
270.42593982525568
 31
0.0
  0
LINE
  5
F8E
  8
HIDDEN
  6
HIDDEN
 10
586.76071555780857
 20
270.42593982525568
 30
0.0
 11
574.76071555780857
 21
270.42593982525568
 31
0.0
  0
LINE
  5
F8F
  8
HIDDEN
  6
HIDDEN
 10
586.76071555780857
 20
265.62593982525561
 30
0.0
 11
574.76071555780857
 21
265.62593982525561
 31
0.0
  0
LINE
  5
F90
  8
HIDDEN
  6
HIDDEN
 10
592.76071555780857
 20
271.0259398252557
 30
0.0
 11
577.76071555780868
 21
271.0259398252557
 31
0.0
  0
LINE
  5
F91
  8
HIDDEN
  6
HIDDEN
 10
592.76071555780857
 20
265.0259398252557
 30
0.0
 11
577.76071555780868
 21
265.0259398252557
 31
0.0
  0
LINE
  5
F92
  8
CENTER
  6
CENTER
 10
595.84826566586003
 20
306.0259398252557
 30
0.0
 11
561.76071555780857
 21
306.0259398252557
 31
0.0
  0
LINE
  5
F93
  8
CENTER
  6
CENTER
 10
595.18384569611703
 20
268.0259398252557
 30
0.0
 11
561.76071555780857
 21
268.0259398252557
 31
0.0
  0
LINE
  5
F94
  8
HIDDEN
  6
HIDDEN
 10
586.76071555780857
 20
184.1460982339463
 30
0.0
 11
586.76071555780857
 21
190.1460982339463
 31
0.0
  0
LINE
  5
F95
  8
HIDDEN
  6
HIDDEN
 10
574.76071555780857
 20
189.54609823394631
 30
0.0
 11
573.37507491175336
 21
187.1460982339463
 31
0.0
  0
LINE
  5
F96
  8
HIDDEN
  6
HIDDEN
 10
574.76071555780857
 20
184.7460982339463
 30
0.0
 11
574.76071555780857
 21
189.54609823394631
 31
0.0
  0
LINE
  5
F97
  8
HIDDEN
  6
HIDDEN
 10
574.76071555780857
 20
184.7460982339463
 30
0.0
 11
573.37507491175336
 21
187.1460982339463
 31
0.0
  0
LINE
  5
F98
  8
HIDDEN
  6
HIDDEN
 10
577.76071555780868
 20
184.1460982339463
 30
0.0
 11
577.76071555780868
 21
190.1460982339463
 31
0.0
  0
LINE
  5
F99
  8
HIDDEN
  6
HIDDEN
 10
586.76071555780857
 20
184.7460982339463
 30
0.0
 11
574.76071555780857
 21
184.7460982339463
 31
0.0
  0
LINE
  5
F9A
  8
HIDDEN
  6
HIDDEN
 10
586.76071555780857
 20
189.54609823394631
 30
0.0
 11
574.76071555780857
 21
189.54609823394631
 31
0.0
  0
LINE
  5
F9B
  8
HIDDEN
  6
HIDDEN
 10
592.76071555780857
 20
184.1460982339463
 30
0.0
 11
577.76071555780868
 21
184.1460982339463
 31
0.0
  0
LINE
  5
F9C
  8
HIDDEN
  6
HIDDEN
 10
592.76071555780857
 20
190.1460982339463
 30
0.0
 11
577.76071555780868
 21
190.1460982339463
 31
0.0
  0
LINE
  5
F9D
  8
HIDDEN
  6
HIDDEN
 10
586.76071555780857
 20
146.1460982339463
 30
0.0
 11
586.76071555780857
 21
152.1460982339463
 31
0.0
  0
LINE
  5
F9E
  8
HIDDEN
  6
HIDDEN
 10
577.76071555780868
 20
146.1460982339463
 30
0.0
 11
577.76071555780868
 21
152.1460982339463
 31
0.0
  0
LINE
  5
F9F
  8
HIDDEN
  6
HIDDEN
 10
574.76071555780857
 20
151.54609823394631
 30
0.0
 11
573.37507491175336
 21
149.1460982339463
 31
0.0
  0
LINE
  5
FA0
  8
HIDDEN
  6
HIDDEN
 10
574.76071555780857
 20
146.74609823394621
 30
0.0
 11
573.37507491175336
 21
149.1460982339463
 31
0.0
  0
LINE
  5
FA1
  8
HIDDEN
  6
HIDDEN
 10
574.76071555780857
 20
146.74609823394621
 30
0.0
 11
574.76071555780857
 21
151.54609823394631
 31
0.0
  0
LINE
  5
FA2
  8
HIDDEN
  6
HIDDEN
 10
586.76071555780857
 20
151.54609823394631
 30
0.0
 11
574.76071555780857
 21
151.54609823394631
 31
0.0
  0
LINE
  5
FA3
  8
HIDDEN
  6
HIDDEN
 10
586.76071555780857
 20
146.74609823394621
 30
0.0
 11
574.76071555780857
 21
146.74609823394621
 31
0.0
  0
LINE
  5
FA4
  8
HIDDEN
  6
HIDDEN
 10
592.76071555780857
 20
152.1460982339463
 30
0.0
 11
577.76071555780868
 21
152.1460982339463
 31
0.0
  0
LINE
  5
FA5
  8
HIDDEN
  6
HIDDEN
 10
592.76071555780857
 20
146.1460982339463
 30
0.0
 11
577.76071555780868
 21
146.1460982339463
 31
0.0
  0
LINE
  5
FA6
  8
CENTER
  6
CENTER
 10
595.84826566586003
 20
187.1460982339463
 30
0.0
 11
561.76071555780857
 21
187.1460982339463
 31
0.0
  0
LINE
  5
FA7
  8
CENTER
  6
CENTER
 10
595.18384569611703
 20
149.1460982339463
 30
0.0
 11
561.76071555780857
 21
149.1460982339463
 31
0.0
  0
LINE
  5
FA8
  8
CENTER
  6
CENTER
 10
569.26071555780868
 20
199.18890763617171
 30
0.0
 11
569.26071555780868
 21
180.8008652939406
 31
0.0
  0
LINE
  5
FA9
  8
CENTER
  6
CENTER
 10
577.76071555780868
 20
198.74796986229629
 30
0.0
 11
577.76071555780868
 21
180.77542970660551
 31
0.0
  0
CIRCLE
  5
FAA
  8
0
  6
CONTINUOUS
 10
461.26071555780862
 20
469.0468298204878
 30
0.0
 40
4.25
  0
CIRCLE
  5
FAB
  8
0
  6
CONTINUOUS
 10
461.26071555780862
 20
469.0468298204878
 30
0.0
 40
3.9035796766743651
  0
POLYLINE
  5
FAC
  8
0
  6
CONTINUOUS
 66
     1
 10
0.0
 20
0.0
 30
0.0
 70
     1
  0
VERTEX
  5
14C0
  8
0
  6
CONTINUOUS
 10
460.10601501942858
 20
471.04682982048791
 30
0.0
  0
VERTEX
  5
14C1
  8
0
  6
CONTINUOUS
 10
458.95131448105047
 20
469.0468298204878
 30
0.0
  0
VERTEX
  5
14C2
  8
0
  6
CONTINUOUS
 10
460.10601501942858
 20
467.04682982048791
 30
0.0
  0
VERTEX
  5
14C3
  8
0
  6
CONTINUOUS
 10
462.41541609618861
 20
467.04682982048791
 30
0.0
  0
VERTEX
  5
14C4
  8
0
  6
CONTINUOUS
 10
463.57011663456672
 20
469.0468298204878
 30
0.0
  0
VERTEX
  5
14C5
  8
0
  6
CONTINUOUS
 10
462.41541609618861
 20
471.04682982048791
 30
0.0
  0
SEQEND
  5
14C6
  8
0
  6
CONTINUOUS
  0
CIRCLE
  5
FB4
  8
0
  6
CONTINUOUS
 10
461.26071555780862
 20
409.04682982048791
 30
0.0
 40
4.25
  0
CIRCLE
  5
FB5
  8
0
  6
CONTINUOUS
 10
461.26071555780862
 20
409.04682982048791
 30
0.0
 40
3.9035796766743651
  0
POLYLINE
  5
FB6
  8
0
  6
CONTINUOUS
 66
     1
 10
0.0
 20
0.0
 30
0.0
 70
     1
  0
VERTEX
  5
14C7
  8
0
  6
CONTINUOUS
 10
460.10601501942858
 20
411.0468298204878
 30
0.0
  0
VERTEX
  5
14C8
  8
0
  6
CONTINUOUS
 10
458.95131448105047
 20
409.04682982048791
 30
0.0
  0
VERTEX
  5
14C9
  8
0
  6
CONTINUOUS
 10
460.10601501942858
 20
407.0468298204878
 30
0.0
  0
VERTEX
  5
14CA
  8
0
  6
CONTINUOUS
 10
462.41541609618861
 20
407.0468298204878
 30
0.0
  0
VERTEX
  5
14CB
  8
0
  6
CONTINUOUS
 10
463.57011663456672
 20
409.04682982048791
 30
0.0
  0
VERTEX
  5
14CC
  8
0
  6
CONTINUOUS
 10
462.41541609618861
 20
411.0468298204878
 30
0.0
  0
SEQEND
  5
14CD
  8
0
  6
CONTINUOUS
  0
CIRCLE
  5
FBE
  8
0
  6
CONTINUOUS
 10
431.26071555780862
 20
439.0468298204878
 30
0.0
 40
4.25
  0
CIRCLE
  5
FBF
  8
0
  6
CONTINUOUS
 10
431.26071555780862
 20
439.0468298204878
 30
0.0
 40
3.9035796766743651
  0
POLYLINE
  5
FC0
  8
0
  6
CONTINUOUS
 66
     1
 10
0.0
 20
0.0
 30
0.0
 70
     1
  0
VERTEX
  5
14CE
  8
0
  6
CONTINUOUS
 10
430.10601501942858
 20
441.0468298204878
 30
0.0
  0
VERTEX
  5
14CF
  8
0
  6
CONTINUOUS
 10
428.95131448105047
 20
439.0468298204878
 30
0.0
  0
VERTEX
  5
14D0
  8
0
  6
CONTINUOUS
 10
430.10601501942858
 20
437.0468298204878
 30
0.0
  0
VERTEX
  5
14D1
  8
0
  6
CONTINUOUS
 10
432.41541609618861
 20
437.0468298204878
 30
0.0
  0
VERTEX
  5
14D2
  8
0
  6
CONTINUOUS
 10
433.57011663456677
 20
439.0468298204878
 30
0.0
  0
VERTEX
  5
14D3
  8
0
  6
CONTINUOUS
 10
432.41541609618861
 20
441.0468298204878
 30
0.0
  0
SEQEND
  5
14D4
  8
0
  6
CONTINUOUS
  0
CIRCLE
  5
FC8
  8
0
  6
CONTINUOUS
 10
491.26071555780851
 20
439.0468298204878
 30
0.0
 40
4.25
  0
CIRCLE
  5
FC9
  8
0
  6
CONTINUOUS
 10
491.26071555780851
 20
439.0468298204878
 30
0.0
 40
3.9035796766743651
  0
POLYLINE
  5
FCA
  8
0
  6
CONTINUOUS
 66
     1
 10
0.0
 20
0.0
 30
0.0
 70
     1
  0
VERTEX
  5
14D5
  8
0
  6
CONTINUOUS
 10
490.10601501942858
 20
441.0468298204878
 30
0.0
  0
VERTEX
  5
14D6
  8
0
  6
CONTINUOUS
 10
488.95131448105042
 20
439.0468298204878
 30
0.0
  0
VERTEX
  5
14D7
  8
0
  6
CONTINUOUS
 10
490.10601501942858
 20
437.0468298204878
 30
0.0
  0
VERTEX
  5
14D8
  8
0
  6
CONTINUOUS
 10
492.41541609618861
 20
437.0468298204878
 30
0.0
  0
VERTEX
  5
14D9
  8
0
  6
CONTINUOUS
 10
493.57011663456672
 20
439.0468298204878
 30
0.0
  0
VERTEX
  5
14DA
  8
0
  6
CONTINUOUS
 10
492.41541609618861
 20
441.0468298204878
 30
0.0
  0
SEQEND
  5
14DB
  8
0
  6
CONTINUOUS
  0
CIRCLE
  5
FD2
  8
0
  6
CONTINUOUS
 10
461.26071555780862
 20
110.6460982339463
 30
0.0
 40
4.25
  0
CIRCLE
  5
FD3
  8
0
  6
CONTINUOUS
 10
461.26071555780862
 20
110.6460982339463
 30
0.0
 40
3.9035796766743651
  0
POLYLINE
  5
FD4
  8
0
  6
CONTINUOUS
 66
     1
 10
0.0
 20
0.0
 30
0.0
 70
     1
  0
VERTEX
  5
14DC
  8
0
  6
CONTINUOUS
 10
460.10601501942858
 20
108.6460982339463
 30
0.0
  0
VERTEX
  5
14DD
  8
0
  6
CONTINUOUS
 10
458.95131448105047
 20
110.6460982339463
 30
0.0
  0
VERTEX
  5
14DE
  8
0
  6
CONTINUOUS
 10
460.10601501942858
 20
112.6460982339463
 30
0.0
  0
VERTEX
  5
14DF
  8
0
  6
CONTINUOUS
 10
462.41541609618861
 20
112.6460982339463
 30
0.0
  0
VERTEX
  5
14E0
  8
0
  6
CONTINUOUS
 10
463.57011663456672
 20
110.6460982339463
 30
0.0
  0
VERTEX
  5
14E1
  8
0
  6
CONTINUOUS
 10
462.41541609618861
 20
108.6460982339463
 30
0.0
  0
SEQEND
  5
14E2
  8
0
  6
CONTINUOUS
  0
CIRCLE
  5
FDC
  8
0
  6
CONTINUOUS
 10
431.26071555780862
 20
140.6460982339463
 30
0.0
 40
4.25
  0
CIRCLE
  5
FDD
  8
0
  6
CONTINUOUS
 10
431.26071555780862
 20
140.6460982339463
 30
0.0
 40
3.9035796766743651
  0
POLYLINE
  5
FDE
  8
0
  6
CONTINUOUS
 66
     1
 10
0.0
 20
0.0
 30
0.0
 70
     1
  0
VERTEX
  5
14E3
  8
0
  6
CONTINUOUS
 10
430.10601501942858
 20
138.6460982339463
 30
0.0
  0
VERTEX
  5
14E4
  8
0
  6
CONTINUOUS
 10
428.95131448105047
 20
140.6460982339463
 30
0.0
  0
VERTEX
  5
14E5
  8
0
  6
CONTINUOUS
 10
430.10601501942858
 20
142.6460982339463
 30
0.0
  0
VERTEX
  5
14E6
  8
0
  6
CONTINUOUS
 10
432.41541609618861
 20
142.6460982339463
 30
0.0
  0
VERTEX
  5
14E7
  8
0
  6
CONTINUOUS
 10
433.57011663456677
 20
140.6460982339463
 30
0.0
  0
VERTEX
  5
14E8
  8
0
  6
CONTINUOUS
 10
432.41541609618861
 20
138.6460982339463
 30
0.0
  0
SEQEND
  5
14E9
  8
0
  6
CONTINUOUS
  0
CIRCLE
  5
FE6
  8
0
  6
CONTINUOUS
 10
461.26071555780862
 20
170.6460982339463
 30
0.0
 40
4.25
  0
CIRCLE
  5
FE7
  8
0
  6
CONTINUOUS
 10
461.26071555780862
 20
170.6460982339463
 30
0.0
 40
3.9035796766743651
  0
POLYLINE
  5
FE8
  8
0
  6
CONTINUOUS
 66
     1
 10
0.0
 20
0.0
 30
0.0
 70
     1
  0
VERTEX
  5
14EA
  8
0
  6
CONTINUOUS
 10
460.10601501942858
 20
168.6460982339463
 30
0.0
  0
VERTEX
  5
14EB
  8
0
  6
CONTINUOUS
 10
458.95131448105047
 20
170.6460982339463
 30
0.0
  0
VERTEX
  5
14EC
  8
0
  6
CONTINUOUS
 10
460.10601501942858
 20
172.6460982339463
 30
0.0
  0
VERTEX
  5
14ED
  8
0
  6
CONTINUOUS
 10
462.41541609618861
 20
172.6460982339463
 30
0.0
  0
VERTEX
  5
14EE
  8
0
  6
CONTINUOUS
 10
463.57011663456672
 20
170.6460982339463
 30
0.0
  0
VERTEX
  5
14EF
  8
0
  6
CONTINUOUS
 10
462.41541609618861
 20
168.6460982339463
 30
0.0
  0
SEQEND
  5
14F0
  8
0
  6
CONTINUOUS
  0
CIRCLE
  5
FF0
  8
0
  6
CONTINUOUS
 10
491.26071555780851
 20
140.6460982339463
 30
0.0
 40
4.25
  0
CIRCLE
  5
FF1
  8
0
  6
CONTINUOUS
 10
491.26071555780851
 20
140.6460982339463
 30
0.0
 40
3.9035796766743651
  0
POLYLINE
  5
FF2
  8
0
  6
CONTINUOUS
 66
     1
 10
0.0
 20
0.0
 30
0.0
 70
     1
  0
VERTEX
  5
14F1
  8
0
  6
CONTINUOUS
 10
490.10601501942858
 20
138.6460982339463
 30
0.0
  0
VERTEX
  5
14F2
  8
0
  6
CONTINUOUS
 10
488.95131448105042
 20
140.6460982339463
 30
0.0
  0
VERTEX
  5
14F3
  8
0
  6
CONTINUOUS
 10
490.10601501942858
 20
142.6460982339463
 30
0.0
  0
VERTEX
  5
14F4
  8
0
  6
CONTINUOUS
 10
492.41541609618861
 20
142.6460982339463
 30
0.0
  0
VERTEX
  5
14F5
  8
0
  6
CONTINUOUS
 10
493.57011663456672
 20
140.6460982339463
 30
0.0
  0
VERTEX
  5
14F6
  8
0
  6
CONTINUOUS
 10
492.41541609618861
 20
138.6460982339463
 30
0.0
  0
SEQEND
  5
14F7
  8
0
  6
CONTINUOUS
  0
SOLID
  5
FFA
  8
DIM
  6
CONTINUOUS
 10
757.62079384892616
 20
324.52593982525582
 30
0.0
 11
758.62079384892627
 21
324.52593982525582
 31
0.0
 12
758.12079384892627
 22
327.52593982525582
 32
0.0
 13
758.12079384892627
 23
327.52593982525582
 33
0.0
  0
LINE
  5
FFB
  8
DIM
  6
CONTINUOUS
 10
740.6207938489265
 20
327.52593982525582
 30
0.0
 11
759.12079384892627
 21
327.52593982525582
 31
0.0
  0
LINE
  5
FFC
  8
DIM
  6
CONTINUOUS
 10
758.12079384892627
 20
246.5259398252557
 30
0.0
 11
758.12079384892627
 21
327.5259398252557
 31
0.0
  0
LINE
  5
FFD
  8
DIM
  6
CONTINUOUS
 10
479.26071555780862
 20
436.54682982048803
 30
0.0
 11
479.26071555780862
 21
441.5468298204878
 31
0.0
  0
SOLID
  5
FFE
  8
DIM
  6
CONTINUOUS
 10
479.76071555780862
 20
444.5468298204878
 30
0.0
 11
478.76071555780851
 21
444.5468298204878
 31
0.0
 12
479.26071555780862
 22
441.5468298204878
 32
0.0
 13
479.26071555780862
 23
441.5468298204878
 33
0.0
  0
SOLID
  5
FFF
  8
DIM
  6
CONTINUOUS
 10
479.76071555780862
 20
433.54682982048791
 30
0.0
 11
478.76071555780851
 21
433.54682982048791
 31
0.0
 12
479.26071555780862
 22
436.54682982048803
 32
0.0
 13
479.26071555780862
 23
436.54682982048803
 33
0.0
  0
LINE
  5
1000
  8
DIM
  6
CONTINUOUS
 10
479.26071555780862
 20
447.5468298204878
 30
0.0
 11
479.26071555780862
 21
450.2968298204878
 31
0.0
  0
LINE
  5
1001
  8
DIM
  6
CONTINUOUS
 10
479.26071555780862
 20
444.5468298204878
 30
0.0
 11
479.26071555780862
 21
447.5468298204878
 31
0.0
  0
LINE
  5
1002
  8
DIM
  6
CONTINUOUS
 10
479.26071555780862
 20
433.54682982048791
 30
0.0
 11
479.26071555780862
 21
430.54682982048791
 31
0.0
  0
LINE
  5
1003
  8
DIM
  6
CONTINUOUS
 10
471.76071555780862
 20
441.5468298204878
 30
0.0
 11
480.26071555780862
 21
441.5468298204878
 31
0.0
  0
LINE
  5
1004
  8
DIM
  6
CONTINUOUS
 10
471.76071555780862
 20
436.54682982048803
 30
0.0
 11
480.26071555780862
 21
436.54682982048803
 31
0.0
  0
LINE
  5
1005
  8
0
 10
470.76071555780851
 20
436.54682982048803
 30
0.0
 11
467.79906397311959
 21
436.54682982048803
 31
0.0
  0
LINE
  5
1006
  8
0
 10
470.76071555780862
 20
441.5468298204878
 30
0.0
 11
467.79906397311959
 21
441.5468298204878
 31
0.0
  0
LINE
  5
1007
  8
0
 10
470.76071555780862
 20
441.5468298204878
 30
0.0
 11
470.76071555780862
 21
436.5468298204878
 31
0.0
  0
TEXT
  5
1008
  8
DIM
  6
CONTINUOUS
 10
477.76071555780862
 20
448.4218298204878
 30
0.0
 40
3.0
  1
5
 50
90.0
  7
ROMANSS
 72
     1
 11
476.26071555780862
 21
449.4218298204878
 31
0.0
 73
     2
  0
ARC
  5
1009
  8
0
  6
CONTINUOUS
 10
461.26071555780862
 20
439.0468298204878
 30
0.0
 40
6.9999999999999707
 50
20.924832427638449
 51
339.07516757236249
  0
LINE
  5
100A
  8
DIM
  6
CONTINUOUS
 10
458.38757817090431
 20
432.66364240697942
 30
0.0
 11
468.38226443202387
 21
454.86862147784967
 31
0.0
  0
SOLID
  5
100B
  8
DIM
  6
CONTINUOUS
 10
460.0748647233994
 20
435.19407005656092
 30
0.0
 11
459.16298080718383
 21
435.60451825469028
 31
0.0
 12
458.38757817090402
 22
432.66364240697919
 32
0.0
 13
458.38757817090402
 23
432.66364240697919
 33
0.0
  0
SOLID
  5
100C
  8
DIM
  6
CONTINUOUS
 10
462.44656639221762
 20
442.8995895844148
 30
0.0
 11
463.35845030843319
 21
442.48914138628538
 31
0.0
 12
464.133852944713
 22
445.43001723399658
 32
0.0
 13
464.133852944713
 23
445.43001723399658
 33
0.0
  0
LINE
  5
100D
  8
DIM
  6
CONTINUOUS
 10
470.03384358195331
 20
430.14277317916037
 30
0.0
 11
445.05826724732202
 21
455.4910806153818
 31
0.0
  0
SOLID
  5
100E
  8
DIM
  6
CONTINUOUS
 10
467.57213059050571
 20
431.9288216521129
 30
0.0
 11
468.28445512181179
 21
432.63067189404461
 31
0.0
 12
470.03384358195348
 22
430.1427731791602
 32
0.0
 13
470.03384358195348
 23
430.1427731791602
 33
0.0
  0
SOLID
  5
100F
  8
DIM
  6
CONTINUOUS
 10
454.94930052511143
 20
446.16483798886247
 30
0.0
 11
454.23697599380517
 21
445.46298774693082
 31
0.0
 12
452.48758753366349
 22
447.95088646181529
 32
0.0
 13
452.48758753366349
 23
447.95088646181529
 33
0.0
  0
TEXT
  5
1010
  8
DIM
  6
CONTINUOUS
 10
445.00615703295369
 20
456.98649575387537
 30
0.0
 40
3.0
  1
%%c25x1dp
  7
ROMANSS
 11
445.00615703295369
 21
458.48649575387537
 31
0.0
 73
     2
  0
LINE
  5
1011
  8
DIM
  6
CONTINUOUS
 10
445.05826724732202
 20
455.4910806153818
 30
0.0
 11
461.08423467685179
 21
455.49108061538169
 31
0.0
  0
LINE
  5
1012
  8
DIM
  6
CONTINUOUS
 10
454.26071555780868
 20
437.52430374811593
 30
0.0
 11
454.26071555780862
 21
417.91032660468881
 31
0.0
  0
LINE
  5
1013
  8
DIM
  6
CONTINUOUS
 10
470.76071555780868
 20
435.51294970322999
 30
0.0
 11
470.76071555780862
 21
417.91032660468881
 31
0.0
  0
LINE
  5
1014
  8
CENTER
  6
CENTER
 10
461.26071555780862
 20
418.00468108183588
 30
0.0
 11
461.26071555780862
 21
380.5468298204878
 31
0.0
  0
CIRCLE
  5
1015
  8
0
  6
CONTINUOUS
 10
461.26071555780868
 20
140.64609823394639
 30
0.0
 40
12.49999999999997
  0
LINE
  5
1016
  8
0
 10
470.76071555780868
 20
138.1460982339465
 30
0.0
 11
467.79906397311981
 21
138.1460982339465
 31
0.0
  0
LINE
  5
1017
  8
0
 10
470.76071555780868
 20
143.14609823394639
 30
0.0
 11
467.79906397311981
 21
143.14609823394639
 31
0.0
  0
LINE
  5
1018
  8
0
 10
470.76071555780868
 20
143.14609823394639
 30
0.0
 11
470.76071555780868
 21
138.14609823394639
 31
0.0
  0
ARC
  5
1019
  8
0
  6
CONTINUOUS
 10
461.26071555780868
 20
140.64609823394639
 30
0.0
 40
6.9999999999999707
 50
20.924832427638449
 51
339.07516757236249
  0
LINE
  5
101A
  8
HIDDEN
  6
HIDDEN
 10
448.76071555780862
 20
327.5259398252557
 30
0.0
 11
448.76071555780862
 21
246.5259398252557
 31
0.0
  0
LINE
  5
101B
  8
HIDDEN
  6
HIDDEN
 10
454.26071555780862
 20
326.5259398252557
 30
0.0
 11
454.26071555780862
 21
247.5259398252559
 31
0.0
  0
LINE
  5
101C
  8
HIDDEN
  6
HIDDEN
 10
467.79906397311959
 20
326.5259398252557
 30
0.0
 11
467.79906397311959
 21
247.52593982525579
 31
0.0
  0
LINE
  5
101D
  8
HIDDEN
  6
HIDDEN
 10
470.76071555780862
 20
326.5259398252557
 30
0.0
 11
470.76071555780862
 21
247.5259398252559
 31
0.0
  0
LINE
  5
101E
  8
HIDDEN
  6
HIDDEN
 10
473.76071555780862
 20
327.52593982525582
 30
0.0
 11
473.76071555780851
 21
246.5259398252557
 31
0.0
  0
LINE
  5
101F
  8
HIDDEN
  6
HIDDEN
 10
448.76071555780862
 20
326.5259398252557
 30
0.0
 11
473.76071555780862
 21
326.5259398252557
 31
0.0
  0
SOLID
  5
1020
  8
DIM
  6
CONTINUOUS
 10
408.76071555780862
 20
243.52593982525579
 30
0.0
 11
409.76071555780862
 21
243.52593982525579
 31
0.0
 12
409.26071555780862
 22
246.52593982525579
 32
0.0
 13
409.26071555780862
 23
246.52593982525579
 33
0.0
  0
LINE
  5
1021
  8
DIM
  6
CONTINUOUS
 10
409.26071555780851
 20
240.40292365026181
 30
0.0
 11
409.26071555780862
 21
254.5097825127435
 31
0.0
  0
LINE
  5
1022
  8
DIM
  6
CONTINUOUS
 10
447.78555939747059
 20
247.5259398252557
 30
0.0
 11
408.26071555780862
 21
247.52593982525579
 31
0.0
  0
SOLID
  5
1023
  8
DIM
  6
CONTINUOUS
 10
408.76071555780862
 20
250.52593982525579
 30
0.0
 11
409.76071555780862
 21
250.52593982525579
 31
0.0
 12
409.26071555780862
 22
247.52593982525579
 32
0.0
 13
409.26071555780862
 23
247.52593982525579
 33
0.0
  0
LINE
  5
1024
  8
DIM
  6
CONTINUOUS
 10
425.15423483930471
 20
246.5259398252559
 30
0.0
 11
408.26071555780862
 21
246.52593982525579
 31
0.0
  0
LINE
  5
1025
  8
HIDDEN
  6
HIDDEN
 10
448.76071555780862
 20
247.52593982525579
 30
0.0
 11
473.76071555780862
 21
247.5259398252559
 31
0.0
  0
TEXT
  5
1026
  8
DIM
  6
CONTINUOUS
 10
407.76071555780851
 20
252.72088500536969
 30
0.0
 40
3.0
  1
1
 50
90.0
  7
ROMANSS
 72
     1
 11
406.26071555780862
 21
253.07802786251261
 31
0.0
 73
     2
  0
LINE
  5
1027
  8
DIM
  6
CONTINUOUS
 10
461.26071555780862
 20
379.02430374811593
 30
0.0
 11
461.26071555780862
 21
361.59000800394898
 31
0.0
  0
ARC
  5
1028
  8
DIM
  6
CONTINUOUS
 10
461.26071555780862
 20
439.0468298204878
 30
0.0
 40
75.965044551669564
 50
270.0
 51
0.0
  0
TEXT
  5
102D
  8
LOGO
 62
     6
 10
726.59193219389454
 20
6.8107479689317207
 30
0.0
 40
14.663067554990709
  1
作動角度
 41
0.9
  7
CHINESET
 72
     4
 11
752.98545379287782
 21
13.68466222504634
 31
0.0
  0
LINE
  5
102E
  8
LOGO
 62
     6
 10
790.84992642476072
 20
-13.80858944056113
 30
0.0
 11
715.12098116099492
 21
-13.80858944056123
 31
0.0
  0
LINE
  5
102F
  8
LOGO
 62
     6
 10
790.84992642476072
 20
26.514846335663321
 30
0.0
 11
715.12098116099492
 21
26.514846335663321
 31
0.0
  0
TEXT
  5
1030
  8
LOGO
  6
CONTINUOUS
 62
     6
 10
718.42250884182829
 20
-7.6989779593151138
 30
0.0
 40
9.1644172218691935
  1
Rotary angle
 41
0.8
  7
CHINESET
 72
     4
 11
752.98545379287782
 21
-4.6441722186920478
 31
0.0
  0
TEXT
  5
1031
  8
LOGO
  6
CONTINUOUS
 62
     7
 10
739.85851759671709
 20
50.134480974980427
 30
0.0
 40
18.32883444373838
  1
90
  7
CHINESET
 72
     1
 11
754.69614547974345
 21
59.29889819684962
 31
0.0
 73
     2
  0
LINE
  5
1032
  8
LOGO
 62
     6
 10
783.51839264726527
 20
76.002699333756979
 30
0.0
 11
722.45251493849025
 21
76.002699333756979
 31
0.0
  0
LINE
  5
1033
  8
LOGO
 62
     6
 10
783.51839264726527
 20
43.010797335027839
 30
0.0
 11
722.45251493849025
 21
43.010797335027867
 31
0.0
  0
LINE
  5
1034
  8
LOGO
 62
     1
 10
810.0
 20
87.0
 30
0.0
 11
130.0
 21
87.0
 31
0.0
  0
LINE
  5
1035
  8
LOGO
 62
     1
 10
810.0
 20
-22.973006662430318
 30
0.0
 11
130.0
 21
-22.973006662430318
 31
0.0
  0
LINE
  5
1036
  8
LOGO
  6
CONTINUOUS
 62
     6
 10
339.09654533049962
 20
57.772836935849412
 30
0.0
 11
359.11406800747437
 21
60.416912921971658
 31
0.0
  0
LINE
  5
1037
  8
LOGO
  6
CONTINUOUS
 62
     6
 10
339.09654533049962
 20
50.290405679894988
 30
0.0
 11
359.11406800747437
 21
47.646329693772742
 31
0.0
  0
LINE
  5
1038
  8
LOGO
 62
     1
 10
371.9406146573466
 20
65.005398667513944
 30
0.0
 11
210.64687155244891
 21
65.005398667513944
 31
0.0
  0
LINE
  5
1039
  8
LOGO
 62
     1
 10
371.9406146573466
 20
43.010797335027867
 30
0.0
 11
210.64687155244891
 21
43.010797335027867
 31
0.0
  0
TEXT
  5
103A
  8
LOGO
 62
     6
 10
315.1230411907606
 20
70.504049000635462
 30
0.0
 40
10.99730066624303
  1
1 : 1
  7
CHINESET
 72
     1
 11
334.49923760271253
 21
76.002699333756979
 31
0.0
 73
     2
  0
TEXT
  5
103B
  8
LOGO
 62
     6
 10
315.1230411907606
 20
26.514846335663329
 30
0.0
 40
10.99730066624303
  1
m/m
  7
CHINESET
 72
     1
 11
334.49923760271253
 21
32.013496668784839
 31
0.0
 73
     2
  0
LINE
  5
103C
  8
LOGO
 62
     1
 10
371.9406146573466
 20
21.016196002541928
 30
0.0
 11
129.9999999999998
 21
21.016196002541928
 31
0.0
  0
TEXT
  5
103D
  8
LOGO
  6
CONTINUOUS
 62
     5
 10
133.5996021876534
 20
-1.3689754673336261
 30
0.0
 40
16.495950999364549
  1
金器工業股份有限公司
 41
0.8
  7
LOGO
  0
TEXT
  5
103E
  8
LOGO
  6
CONTINUOUS
 62
     5
 10
138.323047612972
 20
-17.868158379761539
 30
0.0
 40
10.99730066624303
  1
MINDMAN INDUSTRIAL CO.,LTD
 41
0.85
  7
CHINESET
  0
SOLID
  5
103F
  8
LOGO
 62
     5
 10
141.40987593447949
 20
39.297643017684862
 30
0.0
 11
146.16482017339331
 21
39.297643017683292
 31
0.0
 12
166.0044151012774
 22
84.387631490146177
 32
0.0
 13
170.7593593401908
 23
84.387631490143036
 33
0.0
  0
SOLID
  5
1040
  8
LOGO
 62
     5
 10
148.13238330674
 20
39.297643017684862
 30
0.0
 11
152.88732754565331
 21
39.297643017684862
 31
0.0
 12
170.7593593401908
 22
80.780432412347622
 32
0.0
 13
166.0044151012774
 23
63.34563686966203
 33
0.0
  0
SOLID
  5
1041
  8
LOGO
 62
     2
 10
146.16482017339331
 20
39.297643017683292
 30
0.0
 11
148.13238330674
 21
39.297643017684862
 31
0.0
 12
170.7593593401908
 22
84.387631490143036
 32
0.0
 13
172.72692247353589
 23
84.387631490143036
 33
0.0
  0
SOLID
  5
1042
  8
LOGO
 62
     5
 10
146.30049103053511
 20
31.099463295419039
 30
0.0
 11
147.94012697498661
 21
31.099463295419039
 31
0.0
 12
146.30049103053511
 22
22.90128357315475
 32
0.0
 13
147.94012697498661
 23
22.90128357315475
 33
0.0
  0
SOLID
  5
1043
  8
LOGO
 62
     5
 10
133.78653426433979
 20
22.90128357315475
 30
0.0
 11
135.4261702087947
 21
22.90128357315475
 31
0.0
 12
140.04351264743639
 22
31.099463295419039
 32
0.0
 13
141.68314859188831
 23
31.099463295419039
 33
0.0
  0
SOLID
  5
1044
  8
LOGO
 62
     5
 10
140.04351264743639
 20
31.099463295419039
 30
0.0
 11
141.68314859188831
 21
31.099463295419039
 31
0.0
 12
140.04351264743639
 22
22.90128357315475
 32
0.0
 13
141.68314859188831
 23
22.90128357315475
 33
0.0
  0
SOLID
  5
1045
  8
LOGO
 62
     5
 10
140.04351264743639
 20
22.90128357315475
 30
0.0
 11
141.68314859188831
 21
22.90128357315475
 31
0.0
 12
146.30049103053511
 22
31.099463295419039
 32
0.0
 13
147.94012697498661
 23
31.099463295419039
 33
0.0
  0
LINE
  5
1046
  8
LOGO
 62
     1
 10
130.0
 20
-22.973006662430318
 30
0.0
 11
130.0
 21
87.0
 31
0.0
  0
TEXT
  5
1047
  8
LOGO
 62
     6
 10
219.71473509287341
 20
70.509461058049951
 30
0.0
 40
10.99730066624303
  1
比例 Scale:
 41
0.9
  7
CHINESET
 72
     4
 11
254.636074217421
 21
76.002699333756979
 31
0.0
  0
TEXT
  5
1048
  8
LOGO
 62
     6
 10
223.55888081683241
 20
48.66414230924687
 30
0.0
 40
10.99730066624303
  1
投影 View:
 41
0.9
  7
CHINESET
 72
     4
 11
254.636074217421
 21
54.008098001270888
 31
0.0
  0
TEXT
  5
1049
  8
LOGO
 62
     6
 10
224.63406333732681
 20
26.514846335663329
 30
0.0
 40
10.99730066624303
  1
單位 Unit:
 41
0.9
  7
CHINESET
 72
     4
 11
254.636074217421
 21
32.013496668784839
 31
0.0
  0
POLYLINE
  5
104A
  8
LOGO
 62
     5
 66
     1
 10
0.0
 20
0.0
 30
0.0
 70
     1
 40
1.6422635661589591
 41
1.6422635661589591
  0
VERTEX
  5
14F8
  8
LOGO
 62
     5
 10
186.22144581518259
 20
27.000373434286072
 30
0.0
 42
1.0
  0
VERTEX
  5
14F9
  8
LOGO
 62
     5
 10
192.79050007981829
 20
27.000373434286072
 30
0.0
 42
1.0
  0
SEQEND
  5
14FA
  8
LOGO
 62
     5
  0
LINE
  5
104B
  8
LOGO
 62
     5
 10
202.07640587924519
 20
22.90128357315475
 30
0.0
 11
202.07640587924519
 21
27.820191406512659
 31
0.0
  0
SOLID
  5
104C
  8
LOGO
 62
     5
 10
191.96526290058941
 20
31.099463295419039
 30
0.0
 11
193.60489884504111
 21
31.099463295419039
 31
0.0
 12
191.96526290058941
 22
22.90128357315475
 32
0.0
 13
193.60489884504111
 23
22.90128357315475
 33
0.0
  0
SOLID
  5
104D
  8
LOGO
 62
     5
 10
195.5178621014326
 20
22.90128357315475
 30
0.0
 11
197.15749804588719
 21
22.90128357315475
 31
0.0
 12
195.5178621014326
 22
31.099463295419039
 32
0.0
 13
197.15749804588719
 23
31.099463295419039
 33
0.0
  0
SOLID
  5
104E
  8
LOGO
 62
     5
 10
200.4367699347938
 20
27.820191406512659
 30
0.0
 11
202.07640587924519
 21
27.82019140651245
 31
0.0
 12
200.4367699347938
 22
22.90128357315475
 32
0.0
 13
202.07640587924519
 23
22.90128357315475
 33
0.0
  0
SOLID
  5
104F
  8
LOGO
 62
     5
 10
168.46370505436369
 20
33.558917212099551
 30
0.0
 11
170.10334099881521
 21
33.558917212099551
 31
0.0
 12
168.46370505436369
 22
22.90128357315475
 32
0.0
 13
170.10334099881521
 23
22.90128357315475
 33
0.0
  0
SOLID
  5
1050
  8
LOGO
 62
     5
 10
172.01630425521151
 20
31.099463295419039
 30
0.0
 11
173.65594019966321
 21
31.099463295419039
 31
0.0
 12
172.01630425521151
 22
22.90128357315475
 32
0.0
 13
173.65594019966321
 23
22.90128357315475
 33
0.0
  0
SOLID
  5
1051
  8
LOGO
 62
     5
 10
176.9352120885695
 20
27.820191406512659
 30
0.0
 11
178.5748480330212
 21
27.820191406512659
 31
0.0
 12
176.9352120885695
 22
22.90128357315475
 32
0.0
 13
178.5748480330212
 23
22.90128357315475
 33
0.0
  0
SOLID
  5
1052
  8
LOGO
 62
     5
 10
181.85411992192769
 20
27.820191406512659
 30
0.0
 11
183.49375586637919
 21
27.820191406512659
 31
0.0
 12
181.85411992192769
 22
22.90128357315162
 32
0.0
 13
183.49375586637919
 23
22.90128357315162
 33
0.0
  0
LINE
  5
1053
  8
LOGO
 62
     1
 10
210.64687155244891
 20
21.0161960025418
 30
0.0
 11
210.64687155244891
 21
87.0
 31
0.0
  0
SOLID
  5
1054
  8
LOGO
 62
     5
 10
153.43365424234551
 20
31.099463295419039
 30
0.0
 11
155.0732901867969
 21
31.099463295419039
 31
0.0
 12
153.43365424234551
 22
22.90128357315475
 32
0.0
 13
155.0732901867969
 23
22.90128357315475
 33
0.0
  0
SOLID
  5
1055
  8
LOGO
 62
     5
 10
158.3525620757031
 20
27.820191406512659
 30
0.0
 11
159.9921980201577
 21
27.820191406512659
 31
0.0
 12
158.3525620757031
 22
22.90128357315475
 32
0.0
 13
159.9921980201577
 23
22.90128357315475
 33
0.0
  0
SOLID
  5
1056
  8
LOGO
 62
     5
 10
149.88105504149721
 20
31.099463295419039
 30
0.0
 11
151.52069098595359
 21
31.099463295419039
 31
0.0
 12
149.88105504149721
 22
22.90128357315162
 32
0.0
 13
151.52069098595359
 23
22.90128357315475
 33
0.0
  0
POLYLINE
  5
1057
  8
LOGO
 62
     5
 66
     1
 10
0.0
 20
0.0
 30
0.0
 70
     1
 40
1.6422635661589591
 41
1.6422635661589591
  0
VERTEX
  5
14FB
  8
LOGO
 62
     5
 10
162.7198879689584
 20
27.000373434286072
 30
0.0
 42
1.0
  0
VERTEX
  5
14FC
  8
LOGO
 62
     5
 10
169.2889422335943
 20
27.000373434286072
 30
0.0
 42
1.0
  0
SEQEND
  5
14FD
  8
LOGO
 62
     5
  0
POLYLINE
  5
1058
  8
LOGO
 62
     5
 66
     1
 10
0.0
 20
0.0
 30
0.0
 40
1.6422635661589591
 41
1.6422635661589591
  0
VERTEX
  5
14FE
  8
LOGO
 62
     5
 10
201.26052933957911
 20
27.820191406512659
 30
0.0
 42
1.0
  0
VERTEX
  5
14FF
  8
LOGO
 62
     5
 10
196.333738641102
 20
27.820191406512659
 30
0.0
 42
1.0
  0
SEQEND
  5
1500
  8
LOGO
 62
     5
  0
SOLID
  5
1059
  8
LOGO
 62
     5
 10
197.3214616403319
 20
39.297643017683292
 30
0.0
 11
202.07640587924519
 21
39.297643017683292
 31
0.0
 12
197.3214616403319
 22
84.387631490143036
 32
0.0
 13
202.07640587924519
 23
84.387631490146177
 33
0.0
  0
SOLID
  5
105A
  8
LOGO
 62
     5
 10
172.72692247353589
 20
84.387631490143036
 30
0.0
 11
177.48186671244909
 21
84.387631490146177
 31
0.0
 12
172.72692247353589
 22
42.904842095480276
 32
0.0
 13
177.48186671244909
 23
60.339637638165883
 33
0.0
  0
SOLID
  5
105B
  8
LOGO
 62
     5
 10
172.72692247353589
 20
42.904842095480276
 30
0.0
 11
177.48186671244909
 21
60.339637638165883
 31
0.0
 12
195.3538985069867
 22
84.387631490146177
 32
0.0
 13
190.5989542680729
 23
84.387631490146177
 33
0.0
  0
SOLID
  5
105C
  8
LOGO
 62
     5
 10
195.3538985069867
 20
80.780432412347622
 30
0.0
 11
190.5989542680729
 21
63.34563686966203
 31
0.0
 12
195.3538985069867
 22
39.297643017683292
 32
0.0
 13
190.5989542680729
 23
39.297643017683292
 33
0.0
  0
SOLID
  5
105D
  8
LOGO
 62
     2
 10
195.3538985069867
 20
84.387631490146177
 30
0.0
 11
197.3214616403319
 21
84.387631490143036
 31
0.0
 12
195.3538985069867
 22
39.297643017683292
 32
0.0
 13
197.3214616403319
 23
39.297643017683292
 33
0.0
  0
SOLID
  5
105E
  8
LOGO
 62
     5
 10
166.0044151012774
 20
39.297643017684862
 30
0.0
 11
170.7593593401908
 21
39.297643017684862
 31
0.0
 12
166.0044151012774
 22
63.34563686966203
 32
0.0
 13
170.7593593401908
 23
80.780432412347622
 33
0.0
  0
SOLID
  5
105F
  8
LOGO
 62
     2
 10
170.7593593401908
 20
84.387631490143036
 30
0.0
 11
172.72692247353589
 21
84.387631490143036
 31
0.0
 12
170.7593593401908
 22
39.297643017684862
 32
0.0
 13
172.72692247353589
 23
39.297643017684862
 33
0.0
  0
SOLID
  5
1060
  8
LOGO
 62
     5
 10
172.72692247353589
 20
39.297643017684862
 30
0.0
 11
177.48186671244909
 21
39.297643017684862
 31
0.0
 12
195.3538985069867
 22
80.780432412347622
 32
0.0
 13
190.5989542680729
 23
63.34563686966203
 33
0.0
  0
SOLID
  5
1061
  8
LOGO
 62
     2
 10
170.7593593401908
 20
39.297643017684862
 30
0.0
 11
172.72692247353589
 21
39.297643017684862
 31
0.0
 12
195.3538985069867
 22
84.387631490146177
 32
0.0
 13
197.3214616403319
 23
84.387631490143036
 33
0.0
  0
POLYLINE
  5
1062
  8
LOGO
 62
     5
 66
     1
 10
0.0
 20
0.0
 30
0.0
 40
1.6422635661589591
 41
1.6422635661589591
  0
VERTEX
  5
1501
  8
LOGO
 62
     5
 10
177.75897149335489
 20
27.820191406512659
 30
0.0
 42
1.0
  0
VERTEX
  5
1502
  8
LOGO
 62
     5
 10
172.83218079487779
 20
27.820191406512659
 30
0.0
 42
1.0
  0
SEQEND
  5
1503
  8
LOGO
 62
     5
  0
POLYLINE
  5
1063
  8
LOGO
 62
     5
 66
     1
 10
0.0
 20
0.0
 30
0.0
 40
1.6422635661589591
 41
1.6422635661589591
  0
VERTEX
  5
1504
  8
LOGO
 62
     5
 10
159.17632148048881
 20
27.820191406512659
 30
0.0
 42
1.0
  0
VERTEX
  5
1505
  8
LOGO
 62
     5
 10
154.24953078201179
 20
27.820191406512659
 30
0.0
 42
1.0
  0
SEQEND
  5
1506
  8
LOGO
 62
     5
  0
SOLID
  5
1064
  8
LOGO
 62
     5
 10
149.88105504149721
 20
32.247208456535482
 30
0.0
 11
151.52069098595359
 21
32.247208456535482
 31
0.0
 12
149.88105504149721
 22
33.558917212099551
 32
0.0
 13
151.52069098595359
 23
33.558917212099551
 33
0.0
  0
POLYLINE
  5
1065
  8
LOGO
 62
     5
 66
     1
 10
0.0
 20
0.0
 30
0.0
 70
     1
  0
VERTEX
  5
1507
  8
LOGO
 62
     5
 10
187.04651903082151
 20
27.000373434286871
 30
0.0
 42
1.0000000573306349
  0
VERTEX
  5
1508
  8
LOGO
 62
     5
 10
191.96542686418161
 20
27.000373434286871
 30
0.0
 42
1.0000000573306349
  0
SEQEND
  5
1509
  8
LOGO
 62
     5
  0
CIRCLE
  5
1066
  8
LOGO
 62
     5
 10
189.50597294750139
 20
27.000373434286882
 30
0.0
 40
2.4594539166796578
  0
POLYLINE
  5
1067
  8
LOGO
 62
     5
 66
     1
 10
0.0
 20
0.0
 30
0.0
 40
1.6422635661589591
 41
1.6422635661589591
  0
VERTEX
  5
150A
  8
LOGO
 62
     5
 10
182.67787932671291
 20
27.820191406512659
 30
0.0
 42
1.0
  0
VERTEX
  5
150B
  8
LOGO
 62
     5
 10
177.75108862823581
 20
27.820191406512659
 30
0.0
 42
1.0
  0
SEQEND
  5
150C
  8
LOGO
 62
     5
  0
LINE
  5
1068
  8
LOGO
 62
     1
 10
298.62527688239311
 20
21.0161960025418
 30
0.0
 11
298.62527688239311
 21
87.0
 31
0.0
  0
CIRCLE
  5
1069
  8
LOGO
  6
CONTINUOUS
 62
     6
 10
318.98815458656571
 20
54.0316213078722
 30
0.0
 40
6.385291614099458
  0
CIRCLE
  5
106A
  8
LOGO
  6
CONTINUOUS
 62
     6
 10
318.98815458656571
 20
54.0316213078722
 30
0.0
 40
3.7412156279772142
  0
LINE
  5
106B
  8
LOGO
 62
     6
 10
339.09654533049991
 20
50.290405679894988
 30
0.0
 11
339.09654533049962
 21
57.77283693584944
 31
0.0
  0
TEXT
  5
106C
  8
LOGO
  6
CONTINUOUS
 62
     6
 10
549.73677433311968
 20
-9.2263808296265317
 30
0.0
 40
9.1644172218691935
  1
Model
  7
CHINESET
 72
     4
 11
567.1928071366799
 21
-4.6441722186919341
 31
0.0
  0
TEXT
  5
106D
  8
LOGO
  6
CONTINUOUS
 62
     7
 10
534.02634480991526
 20
50.342331112523219
 30
0.0
 40
18.32883444373838
  1
MRTF
  7
CHINESET
 72
     1
 11
567.1928071366799
 21
59.506748334392412
 31
0.0
 73
     2
  0
LINE
  5
106E
  8
LOGO
 62
     6
 10
611.18200980165204
 20
76.002699333756979
 30
0.0
 11
523.20360447170776
 21
76.002699333756979
 31
0.0
  0
LINE
  5
106F
  8
LOGO
 62
     6
 10
611.18200980165204
 20
43.010797335027867
 30
0.0
 11
523.20360447170776
 21
43.010797335027867
 31
0.0
  0
LINE
  5
1070
  8
LOGO
 62
     6
 10
603.85047602415671
 20
26.514846335663321
 30
0.0
 11
530.53513824920333
 21
26.514846335663321
 31
0.0
  0
LINE
  5
1071
  8
LOGO
 62
     6
 10
603.85047602415671
 20
-13.80858944056116
 30
0.0
 11
530.53513824920333
 21
-13.80858944056123
 31
0.0
  0
TEXT
  5
1072
  8
LOGO
 62
     7
 10
380.94244282225691
 20
59.465260222354729
 30
0.0
 40
21.994601332486059
  1
訂購代號:
  7
CHINESET
  0
TEXT
  5
1073
  8
LOGO
 62
     7
 10
378.31176724425649
 20
38.822697131804617
 30
0.0
 40
14.663067554990709
  1
Order example:
 41
0.8
  7
CHINESET
  0
LINE
  5
1074
  8
LOGO
 62
     1
 10
371.9406146573466
 20
-22.973006662430318
 30
0.0
 11
371.9406146573466
 21
87.0
 31
0.0
  0
LINE
  5
1075
  8
LOGO
 62
     6
 10
359.11406800747437
 20
47.646329693772742
 30
0.0
 11
359.11406800747437
 21
60.416912921971658
 31
0.0
  0
LINE
  5
1076
  8
LOGO
 62
     6
 10
530.53513824920333
 20
26.514846335663321
 30
0.0
 11
530.53513824920333
 21
-13.80858944056123
 31
0.0
  0
LINE
  5
1077
  8
LOGO
 62
     6
 10
523.20360447170776
 20
76.002699333756979
 30
0.0
 11
523.20360447170776
 21
43.010797335027867
 31
0.0
  0
TEXT
  5
1078
  8
LOGO
  6
CONTINUOUS
 62
     7
 10
653.94042562156176
 20
50.134480974980647
 30
0.0
 40
18.32883444373838
  1
40
  7
CHINESET
 72
     1
 11
668.77805350458823
 21
59.298898196849841
 31
0.0
 73
     2
  0
LINE
  5
1079
  8
LOGO
 62
     6
 10
696.49504603345349
 20
-13.80858944056093
 30
0.0
 11
637.63967760199125
 21
-13.80858944056102
 31
0.0
  0
LINE
  5
107A
  8
LOGO
 62
     6
 10
696.49504603345349
 20
43.010797335028087
 30
0.0
 11
637.63967760199125
 21
43.010797335028087
 31
0.0
  0
LINE
  5
107B
  8
LOGO
 62
     6
 10
696.49504603345349
 20
26.51484633566352
 30
0.0
 11
637.63967760199125
 21
26.51484633566352
 31
0.0
  0
LINE
  5
107C
  8
LOGO
 62
     6
 10
696.49504603345349
 20
76.002699333757377
 30
0.0
 11
637.63967760199125
 21
76.002699333757164
 31
0.0
  0
LINE
  5
107D
  8
LOGO
 62
     6
 10
637.63967760199125
 20
26.51484633566352
 30
0.0
 11
637.63967760199125
 21
-13.80858944056093
 31
0.0
  0
LINE
  5
107E
  8
LOGO
 62
     6
 10
603.85047602415682
 20
26.514846335663321
 30
0.0
 11
603.85047602415682
 21
-13.80858944056113
 31
0.0
  0
TEXT
  5
107F
  8
LOGO
 62
     6
 10
552.52973958168934
 20
6.7283644282890478
 30
0.0
 40
14.663067554990709
  1
型式
  7
CHINESET
 72
     4
 11
567.1928071366799
 21
13.68466222504645
 31
0.0
  0
LINE
  5
1080
  8
LOGO
 62
     6
 10
567.1928071366799
 20
43.010797335027867
 30
0.0
 11
567.1928071366799
 21
26.514846335663321
 31
0.0
  0
LINE
  5
1081
  8
LOGO
 62
     6
 10
637.63967760199125
 20
76.002699333757164
 30
0.0
 11
637.63967760199125
 21
43.010797335028087
 31
0.0
  0
LINE
  5
1082
  8
LOGO
 62
     6
 10
611.18200980165204
 20
76.002699333756979
 30
0.0
 11
611.18200980165204
 21
43.010797335027867
 31
0.0
  0
LINE
  5
1083
  8
LOGO
  6
CONTINUOUS
 62
     7
 10
617.36621759272293
 20
59.389885803560169
 30
0.0
 11
631.93423769434935
 21
59.389885803560169
 31
0.0
  0
LINE
  5
1084
  8
LOGO
 62
     6
 10
715.12098116099492
 20
26.514846335663321
 30
0.0
 11
715.12098116099492
 21
-13.80858944056123
 31
0.0
  0
LINE
  5
1085
  8
LOGO
 62
     6
 10
696.49504603345349
 20
26.51484633566352
 30
0.0
 11
696.49504603345349
 21
-13.808589440560819
 31
0.0
  0
TEXT
  5
1086
  8
LOGO
  6
CONTINUOUS
 62
     6
 10
655.72094049540817
 20
-9.2263808296264322
 30
0.0
 40
9.1644172218691935
  1
Bore
 41
0.8
  7
CHINESET
 72
     4
 11
667.06736181772237
 21
-4.6441722186918346
 31
0.0
  0
TEXT
  5
1087
  8
LOGO
 62
     6
 10
653.04580346826265
 20
6.3531284475511969
 30
0.0
 40
14.663067554990709
  1
內徑
 41
0.9
  7
CHINESET
 72
     4
 11
667.06736181772237
 21
13.68466222504655
 31
0.0
  0
LINE
  5
1088
  8
LOGO
  6
CONTINUOUS
 62
     7
 10
702.17905492922193
 20
59.389885803560361
 30
0.0
 11
716.74707503084869
 21
59.389885803560361
 31
0.0
  0
LINE
  5
1089
  8
LOGO
 62
     6
 10
696.49504603345349
 20
76.002699333757377
 30
0.0
 11
696.49504603345349
 21
43.010797335028087
 31
0.0
  0
LINE
  5
108A
  8
LOGO
 62
     6
 10
667.06736097245346
 20
43.010797335028087
 30
0.0
 11
667.06736097245346
 21
26.51484633566352
 31
0.0
  0
LINE
  5
108B
  8
LOGO
 62
     6
 10
722.45251493849048
 20
76.002699333756979
 30
0.0
 11
722.45251493849025
 21
43.010797335027867
 31
0.0
  0
LINE
  5
108C
  8
LOGO
 62
     6
 10
753.76182993528414
 20
43.010797335027867
 30
0.0
 11
753.76182993528414
 21
26.514846335663321
 31
0.0
  0
LINE
  5
1092
  8
LOGO
 62
     6
 10
790.84992642476072
 20
26.514846335663321
 30
0.0
 11
790.84992642476072
 21
-13.96063553102203
 31
0.0
  0
LINE
  5
1093
  8
LOGO
 62
     6
 10
783.51839264726527
 20
76.002699333756979
 30
0.0
 11
783.51839264726527
 21
43.010797335027839
 31
0.0
  0
LINE
  5
109C
  8
LOGO
 62
     1
 10
810.0
 20
-22.973006662430318
 30
0.0
 11
810.0
 21
87.0
 31
0.0
  0
ENDSEC
  0
EOF
