  0
SECTION
  2
HEADER
  9
$ACADVER
  1
AC1009
  9
$INSBASE
 10
0.0
 20
0.0
 30
0.0
  9
$EXTMIN
 10
79.954836033232141
 20
-31.0613695027555
 30
-0.0015258207003583
  9
$EXTMAX
 10
810.03296090526635
 20
517.02182136175895
 30
0.0000000349246037
  9
$LIMMIN
 10
0.0
 20
0.0
  9
$LIMMAX
 10
840.0
 20
594.0
  9
$ORTHOMODE
 70
     1
  9
$REGENMODE
 70
     1
  9
$FILLMODE
 70
     1
  9
$QTEXTMODE
 70
     0
  9
$MIRRTEXT
 70
     1
  9
$DRAGMODE
 70
     2
  9
$LTSCALE
 40
1.0
  9
$OSMODE
 70
    39
  9
$ATTMODE
 70
     1
  9
$TEXTSIZE
 40
3.0
  9
$TRACEWID
 40
0.05
  9
$TEXTSTYLE
  7
ITALICT
  9
$CLAYER
  8
HIDDEN
  9
$CELTYPE
  6
CONTINUOUS
  9
$CECOLOR
 62
   256
  9
$DIMSCALE
 40
1.0
  9
$DIMASZ
 40
3.0
  9
$DIMEXO
 40
1.0
  9
$DIMDLI
 40
1.6471290567571920E+015
  9
$DIMRND
 40
0.0
  9
$DIMDLE
 40
0.0
  9
$DIMEXE
 40
1.0
  9
$DIMTP
 40
0.15
  9
$DIMTM
 40
-0.1
  9
$DIMTXT
 40
3.0
  9
$DIMCEN
 40
2.0
  9
$DIMTSZ
 40
0.0
  9
$DIMTOL
 70
     0
  9
$DIMLIM
 70
     0
  9
$DIMTIH
 70
     0
  9
$DIMTOH
 70
     0
  9
$DIMSE1
 70
     0
  9
$DIMSE2
 70
     0
  9
$DIMTAD
 70
     1
  9
$DIMZIN
 70
     0
  9
$DIMBLK
  1

  9
$DIMASO
 70
     0
  9
$DIMSHO
 70
     0
  9
$DIMPOST
  1

  9
$DIMAPOST
  1

  9
$DIMALT
 70
     0
  9
$DIMALTD
 70
     2
  9
$DIMALTF
 40
25.399999999999999
  9
$DIMLFAC
 40
1.0
  9
$DIMTOFL
 70
     1
  9
$DIMTVP
 40
1.0
  9
$DIMTIX
 70
     0
  9
$DIMSOXD
 70
     0
  9
$DIMSAH
 70
     0
  9
$DIMBLK1
  1

  9
$DIMBLK2
  1

  9
$DIMSTYLE
  2
STANDARD
  9
$DIMCLRD
 70
     0
  9
$DIMCLRE
 70
     0
  9
$DIMCLRT
 70
     0
  9
$DIMTFAC
 40
1.0
  9
$DIMGAP
 40
0.09
  9
$LUNITS
 70
     2
  9
$LUPREC
 70
     2
  9
$SKETCHINC
 40
0.1
  9
$FILLETRAD
 40
0.75
  9
$AUNITS
 70
     0
  9
$AUPREC
 70
     2
  9
$MENU
  1
ACAD
  9
$ELEVATION
 40
0.0
  9
$PELEVATION
 40
0.0
  9
$THICKNESS
 40
0.0
  9
$LIMCHECK
 70
     0
  9
$BLIPMODE
 70
     0
  9
$CHAMFERA
 40
0.0
  9
$CHAMFERB
 40
0.0
  9
$SKPOLY
 70
     1
  9
$TDCREATE
 40
2450580.7034460641
  9
$TDUPDATE
 40
2451929.4830017942
  9
$TDINDWG
 40
0.0938754167
  9
$TDUSRTIMER
 40
0.0938754167
  9
$USRTIMER
 70
     1
  9
$ANGBASE
 50
0.0
  9
$ANGDIR
 70
     0
  9
$PDMODE
 70
     0
  9
$PDSIZE
 40
0.0
  9
$PLINEWID
 40
0.0
  9
$COORDS
 70
     2
  9
$SPLFRAME
 70
     0
  9
$SPLINETYPE
 70
     6
  9
$SPLINESEGS
 70
     8
  9
$ATTDIA
 70
     0
  9
$ATTREQ
 70
     1
  9
$HANDLING
 70
 12289
  9
$HANDSEED
  5
150D
  9
$SURFTAB1
 70
     6
  9
$SURFTAB2
 70
     6
  9
$SURFTYPE
 70
     6
  9
$SURFU
 70
     6
  9
$SURFV
 70
     6
  9
$UCSNAME
  2

  9
$UCSORG
 10
0.0
 20
0.0
 30
0.0
  9
$UCSXDIR
 10
1.0
 20
0.0
 30
0.0
  9
$UCSYDIR
 10
0.0
 20
1.0
 30
0.0
  9
$PUCSNAME
  2

  9
$PUCSORG
 10
0.0
 20
0.0
 30
0.0
  9
$PUCSXDIR
 10
1.0
 20
0.0
 30
0.0
  9
$PUCSYDIR
 10
0.0
 20
1.0
 30
0.0
  9
$USERI1
 70
     0
  9
$USERI2
 70
-31485
  9
$USERI3
 70
     0
  9
$USERI4
 70
     0
  9
$USERI5
 70
     0
  9
$USERR1
 40
0.0
  9
$USERR2
 40
0.0
  9
$USERR3
 40
0.0
  9
$USERR4
 40
0.0
  9
$USERR5
 40
0.0
  9
$WORLDVIEW
 70
     1
  9
$SHADEDGE
 70
     3
  9
$SHADEDIF
 70
    70
  9
$TILEMODE
 70
     1
  9
$MAXACTVP
 70
    64
  9
$PLIMCHECK
 70
     0
  9
$PEXTMIN
 10
1.0000000000000000E+020
 20
1.0000000000000000E+020
 30
1.0000000000000000E+020
  9
$PEXTMAX
 10
-1.0000000000000000E+020
 20
-1.0000000000000000E+020
 30
-1.0000000000000000E+020
  9
$PLIMMIN
 10
0.0
 20
0.0
  9
$PLIMMAX
 10
12.0
 20
9.0
  9
$UNITMODE
 70
     0
  9
$VISRETAIN
 70
     1
  9
$PLINEGEN
 70
     0
  9
$PSLTSCALE
 70
     0
  0
ENDSEC
  0
SECTION
  2
TABLES
  0
TABLE
  2
VPORT
 70
     2
  0
VPORT
  2
*ACTIVE
 70
     0
 10
0.0
 20
0.0
 11
1.0
 21
1.0
 12
444.9938984692493
 22
242.98022592950181
 13
0.0
 23
0.0
 14
1.0
 24
1.0
 15
0.0
 25
0.0
 16
0.0
 26
0.0
 36
1.0
 17
0.0
 27
0.0
 37
0.0
 40
554.12822605787323
 41
1.7274401473296499
 42
1.0
 43
0.0
 44
0.0
 50
0.0
 51
0.0
 71
     0
 72
   100
 73
     1
 74
     1
 75
     0
 76
     0
 77
     0
 78
     0
  0
ENDTAB
  0
TABLE
  2
LTYPE
 70
     3
  0
LTYPE
  2
CONTINUOUS
 70
     0
  3
Solid line
 72
    65
 73
     0
 40
0.0
  0
LTYPE
  2
CENTER
 70
     0
  3
_______________ _ _______________ _ ___________
 72
    65
 73
     4
 40
18.0
 49
15.0
 49
-1.0
 49
1.0
 49
-1.0
  0
LTYPE
  2
HIDDEN
 70
     0
  3
___ ___ ___ ___ ___ ___ ___ ___ ___ ___ 
 72
    65
 73
     2
 40
4.0
 49
3.0
 49
-1.0
  0
ENDTAB
  0
TABLE
  2
LAYER
 70
     5
  0
LAYER
  2
0
 70
     0
 62
     7
  6
CONTINUOUS
  0
LAYER
  2
HIDDEN
 70
     0
 62
     6
  6
HIDDEN
  0
LAYER
  2
DIM
 70
     0
 62
     5
  6
CONTINUOUS
  0
LAYER
  2
CENTER
 70
     0
 62
     1
  6
CENTER
  0
LAYER
  2
LOGO
 70
     0
 62
     7
  6
CONTINUOUS
  0
ENDTAB
  0
TABLE
  2
STYLE
 70
     8
  0
STYLE
  2
STANDARD
 70
     0
 40
0.0
 41
1.0
 50
0.0
 71
     0
 42
3.0
  3
txt
  4

  0
STYLE
  2
ITALICT
 70
     0
 40
0.0
 41
1.0
 50
0.0
 71
     0
 42
3.0
  3
ITALICT.SHX
  4

  0
STYLE
  2
ROMANSS
 70
     0
 40
0.0
 41
1.0
 50
0.0
 71
     0
 42
3.0
  3
ROMANSS.SHX
  4
LMP
  0
STYLE
  2
CHINESET
 70
     0
 40
0.0
 41
1.0
 50
0.0
 71
     0
 42
4.0
  3
C:\r13\com\fonts\simplex.shx
  4
C:\r13\com\fonts\chineset.shx
  0
STYLE
  2
LOGO
 70
     0
 40
0.0
 41
1.0
 50
0.0
 71
     0
 42
5.0
  3
txt
  4

  0
ENDTAB
  0
TABLE
  2
VIEW
 70
     0
  0
ENDTAB
  0
TABLE
  2
UCS
 70
     0
  0
ENDTAB
  0
TABLE
  2
APPID
 70
     2
  0
APPID
  2
ACAD
 70
     0
  0
APPID
  2
TCAD
 70
     0
  0
ENDTAB
  0
TABLE
  2
DIMSTYLE
 70
     1
  0
DIMSTYLE
  2
STANDARD
 70
     0
  3

  4

  5

  6

  7

 40
1.0
 41
0.18
 42
0.0625
 43
0.38
 44
0.18
 45
0.0
 46
0.0
 47
0.0
 48
0.0
140
0.18
141
0.09
142
0.0
143
25.399999999999999
144
1.0
145
0.0
146
1.0
147
0.09
 71
     0
 72
     0
 73
     1
 74
     1
 75
     0
 76
     0
 77
     0
 78
     0
170
     0
171
     2
172
     0
173
     0
174
     0
175
     0
176
     0
177
     0
178
     0
  0
ENDTAB
  0
ENDSEC
  0
SECTION
  2
BLOCKS
  0
BLOCK
  8
0
  2
$MODEL_SPACE
 70
     0
 10
0.0
 20
0.0
 30
0.0
  3
$MODEL_SPACE
  1

  0
ENDBLK
  5
3F
  8
0
  0
BLOCK
 67
     1
  8
0
  2
$PAPER_SPACE
 70
     0
 10
0.0
 20
0.0
 30
0.0
  3
$PAPER_SPACE
  1

  0
ENDBLK
  5
3D
 67
     1
  8
0
  0
ENDSEC
  0
SECTION
  2
ENTITIES
  0
LINE
  5
B25
  8
0
 62
     4
 10
810.0
 20
517.0
 30
0.0
 11
810.0
 21
87.0
 31
0.0
  0
LINE
  5
B26
  8
0
 62
     4
 10
80.0
 20
87.0
 30
0.0
 11
80.0
 21
517.0
 31
0.0
  0
LINE
  5
B27
  8
0
 62
     4
 10
810.0
 20
87.0
 30
0.0
 11
80.0
 21
87.0
 31
0.0
  0
LINE
  5
B29
  8
0
 62
     4
 10
80.0
 20
517.0
 30
0.0
 11
810.0
 21
517.0
 31
0.0
  0
LINE
  5
B32
  8
CENTER
  6
CENTER
 10
266.26071555780862
 20
173.1460982339463
 30
0.0
 11
606.87700834977966
 21
173.1460982339463
 31
0.0
  0
LINE
  5
B33
  8
0
 10
398.76071555780868
 20
197.34609823394629
 30
0.0
 11
303.26071555780862
 21
197.34609823394621
 31
0.0
  0
LINE
  5
B34
  8
0
 10
398.76071555780862
 20
148.94609823394629
 30
0.0
 11
303.26071555780868
 21
148.94609823394629
 31
0.0
  0
LINE
  5
B35
  8
0
 10
398.76071555780862
 20
161.34387393129441
 30
0.0
 11
303.26071555780868
 21
161.34387393129441
 31
0.0
  0
LINE
  5
B36
  8
0
 10
398.76071555780862
 20
184.94832253659811
 30
0.0
 11
303.26071555780868
 21
184.94832253659811
 31
0.0
  0
LINE
  5
B37
  8
CENTER
  6
CENTER
 10
266.26071555780862
 20
292.0259398252557
 30
0.0
 11
605.64813400425669
 21
292.0259398252557
 31
0.0
  0
LINE
  5
B38
  8
DIM
  6
CONTINUOUS
 10
260.55837233721871
 20
227.5259398252557
 30
0.0
 11
612.12416282147456
 21
227.5259398252557
 31
0.0
  0
LINE
  5
B39
  8
0
 10
398.76071555780862
 20
440.7468298204879
 30
0.0
 11
303.26071555780868
 21
440.7468298204879
 31
0.0
  0
LINE
  5
B3A
  8
0
 10
398.76071555780862
 20
428.34905412313969
 30
0.0
 11
303.26071555780868
 21
428.34905412313969
 31
0.0
  0
LINE
  5
B3B
  8
0
 10
398.76071555780862
 20
404.74460551783602
 30
0.0
 11
303.26071555780868
 21
404.74460551783602
 31
0.0
  0
LINE
  5
B3C
  8
0
 10
398.76071555780868
 20
392.34682982048793
 30
0.0
 11
303.26071555780862
 21
392.34682982048793
 31
0.0
  0
LINE
  5
B3D
  8
0
 10
398.76071555780851
 20
316.22593982525558
 30
0.0
 11
303.26071555780862
 21
316.22593982525558
 31
0.0
  0
LINE
  5
B3E
  8
0
 10
398.76071555780862
 20
303.82816412790748
 30
0.0
 11
303.26071555780862
 21
303.82816412790748
 31
0.0
  0
LINE
  5
B3F
  8
0
 10
398.76071555780862
 20
280.22371552260381
 30
0.0
 11
303.26071555780862
 21
280.22371552260381
 31
0.0
  0
LINE
  5
B40
  8
0
 10
398.76071555780862
 20
267.82593982525572
 30
0.0
 11
303.26071555780862
 21
267.82593982525572
 31
0.0
  0
LINE
  5
B41
  8
CENTER
  6
CENTER
 10
266.26071555780862
 20
416.5468298204878
 30
0.0
 11
606.87700834977966
 21
416.5468298204878
 31
0.0
  0
LINE
  5
B42
  8
CENTER
  6
CENTER
 10
161.40063726669081
 20
337.36721272647628
 30
0.0
 11
161.40063726669081
 21
248.5259398252557
 31
0.0
  0
LINE
  5
B43
  8
0
  6
CONTINUOUS
 10
196.40063726669081
 20
332.5259398252557
 30
0.0
 11
126.40063726669079
 21
332.5259398252557
 31
0.0
  0
LINE
  5
B44
  8
0
  6
CONTINUOUS
 10
197.40063726669081
 20
331.5259398252557
 30
0.0
 11
125.40063726669079
 21
331.5259398252557
 31
0.0
  0
LINE
  5
B45
  8
0
  6
CONTINUOUS
 10
216.90063726669069
 20
324.5259398252557
 30
0.0
 11
123.90063726669079
 21
324.52593982525559
 31
0.0
  0
LINE
  5
B46
  8
0
  6
CONTINUOUS
 10
197.40063726669081
 20
252.5259398252557
 30
0.0
 11
125.40063726669079
 21
252.5259398252557
 31
0.0
  0
LINE
  5
B47
  8
0
  6
CONTINUOUS
 10
196.40063726669081
 20
251.5259398252557
 30
0.0
 11
126.40063726669079
 21
251.5259398252557
 31
0.0
  0
LINE
  5
B48
  8
CENTER
  6
CENTER
 10
219.90063726669081
 20
292.0259398252557
 30
0.0
 11
120.90063726669079
 21
292.0259398252557
 31
0.0
  0
LINE
  5
B49
  8
0
  6
CONTINUOUS
 10
216.90063726669069
 20
259.5259398252557
 30
0.0
 11
123.90063726669079
 21
259.5259398252557
 31
0.0
  0
LINE
  5
B4A
  8
0
  6
CONTINUOUS
 10
125.40063726669079
 20
331.5259398252557
 30
0.0
 11
126.40063726669079
 21
332.5259398252557
 31
0.0
  0
LINE
  5
B4B
  8
0
 10
125.40063726669079
 20
324.5259398252557
 30
0.0
 11
125.40063726669079
 21
331.5259398252557
 31
0.0
  0
LINE
  5
B4C
  8
0
 10
125.40063726669079
 20
259.5259398252557
 30
0.0
 11
125.40063726669079
 21
252.5259398252557
 31
0.0
  0
LINE
  5
B4D
  8
0
  6
CONTINUOUS
 10
125.40063726669079
 20
252.5259398252557
 30
0.0
 11
126.40063726669079
 21
251.5259398252557
 31
0.0
  0
LINE
  5
B4E
  8
CENTER
  6
CENTER
 10
131.40063726669081
 20
275.6235821953095
 30
0.0
 11
131.40063726669081
 21
255.2594542982205
 31
0.0
  0
LINE
  5
B4F
  8
0
 10
123.90063726669079
 20
324.52593982525559
 30
0.0
 11
123.90063726669079
 21
259.5259398252557
 31
0.0
  0
LINE
  5
B50
  8
CENTER
  6
CENTER
 10
131.40063726669081
 20
309.68902943176522
 30
0.0
 11
131.40063726669081
 21
329.36460111853501
 31
0.0
  0
LINE
  5
B51
  8
0
  6
CONTINUOUS
 10
197.40063726669081
 20
331.5259398252557
 30
0.0
 11
196.40063726669081
 21
332.5259398252557
 31
0.0
  0
LINE
  5
B52
  8
0
 10
197.40063726669081
 20
324.5259398252557
 30
0.0
 11
197.40063726669081
 21
331.5259398252557
 31
0.0
  0
LINE
  5
B53
  8
CENTER
  6
CENTER
 10
169.90063726669069
 20
279.5259398252557
 30
0.0
 11
169.90063726669069
 21
266.5259398252557
 31
0.0
  0
LINE
  5
B54
  8
0
 10
187.90063726669081
 20
269.5259398252557
 30
0.0
 11
187.90063726669081
 21
273.13149619756462
 31
0.0
  0
LINE
  5
B55
  8
0
 10
189.90063726669081
 20
269.5259398252557
 30
0.0
 11
189.90063726669081
 21
273.13149619756462
 31
0.0
  0
LINE
  5
B56
  8
0
 10
180.90063726669081
 20
269.5259398252557
 30
0.0
 11
180.90063726669081
 21
275.29273929457429
 31
0.0
  0
ARC
  5
B57
  8
0
 10
169.90063726669069
 20
273.0259398252557
 30
0.0
 40
7.5
 50
335.68426082882991
 51
34.193077125139702
  0
LINE
  5
B58
  8
0
 10
196.90063726669081
 20
269.5259398252557
 30
0.0
 11
196.90063726669081
 21
275.29273929457429
 31
0.0
  0
ARC
  5
B59
  8
0
 10
197.90063726669081
 20
269.5259398252557
 30
0.0
 40
1.0
 50
180.0
 51
270.0
  0
LINE
  5
B5A
  8
0
 10
186.90063726669081
 20
268.5259398252557
 30
0.0
 11
177.6466039591061
 21
268.5259398252557
 31
0.0
  0
ARC
  5
B5B
  8
0
 10
190.90063726669081
 20
269.5259398252557
 30
0.0
 40
1.0
 50
180.0
 51
270.0
  0
ARC
  5
B5C
  8
0
 10
186.90063726669081
 20
269.5259398252557
 30
0.0
 40
1.0
 50
270.0
 51
0.0
  0
ARC
  5
B5D
  8
0
 10
177.6466039591061
 20
269.5259398252557
 30
0.0
 40
1.0
 50
155.68426082881459
 51
270.0
  0
ARC
  5
B5E
  8
0
 10
179.90063726669081
 20
269.5259398252557
 30
0.0
 40
1.0
 50
270.0
 51
0.0
  0
ARC
  5
B5F
  8
0
 10
197.90063726669081
 20
275.29273929457429
 30
0.0
 40
1.0
 50
118.2737136313652
 51
180.0
  0
LINE
  5
B60
  8
0
 10
196.90063726669081
 20
314.5259398252557
 30
0.0
 11
196.90063726669081
 21
308.75914035593712
 31
0.0
  0
ARC
  5
B61
  8
0
 10
197.90063726669081
 20
308.75914035593712
 30
0.0
 40
1.0
 50
180.0
 51
241.7262863686347
  0
ARC
  5
B62
  8
0
 10
197.90063726669081
 20
314.5259398252557
 30
0.0
 40
1.0
 50
90.0
 51
180.0
  0
ARC
  5
B63
  8
0
 10
169.90063726669069
 20
311.0259398252557
 30
0.0
 40
7.5
 50
245.6842608288265
 51
304.19307712514018
  0
LINE
  5
B64
  8
0
 10
166.40063726669081
 20
300.0259398252557
 30
0.0
 11
172.16743673600939
 21
300.0259398252557
 31
0.0
  0
ARC
  5
B65
  8
0
 10
170.00619363899969
 20
290.0259398252557
 30
0.0
 40
1.0
 50
6.0423284190542867
 51
90.0
  0
ARC
  5
B66
  8
0
 10
188.90063726669081
 20
292.0259398252557
 30
0.0
 40
17.999999999999972
 50
139.6507090048799
 51
173.9576715809458
  0
ARC
  5
B67
  8
0
 10
170.00619363899969
 20
294.0259398252557
 30
0.0
 40
1.0
 50
270.0
 51
353.95767158094571
  0
ARC
  5
B68
  8
0
 10
169.90063726669069
 20
273.0259398252557
 30
0.0
 40
7.5
 50
55.806922874859701
 51
114.315739171172
  0
LINE
  5
B69
  8
CENTER
  6
CENTER
 10
176.40063726669081
 20
273.0259398252557
 30
0.0
 11
163.40063726669081
 21
273.0259398252557
 31
0.0
  0
LINE
  5
B6A
  8
0
 10
166.40063726669081
 20
284.0259398252557
 30
0.0
 11
172.16743673600939
 21
284.0259398252557
 31
0.0
  0
ARC
  5
B6B
  8
0
 10
188.90063726669081
 20
292.0259398252557
 30
0.0
 40
17.999999999999972
 50
186.04232841905389
 51
220.34929099511979
  0
ARC
  5
B6C
  8
0
 10
188.90063726669081
 20
292.0259398252557
 30
0.0
 40
17.999999999999972
 50
229.6507090048799
 51
263.95767158094588
  0
ARC
  5
B6D
  8
0
 10
190.90063726669081
 20
273.13149619756462
 30
0.0
 40
1.0
 50
96.042328419054286
 51
180.0
  0
ARC
  5
B6E
  8
0
 10
186.90063726669081
 20
273.13149619756462
 30
0.0
 40
1.0
 50
0.0
 51
83.957671580945714
  0
ARC
  5
B6F
  8
0
 10
176.9228926280654
 20
277.92687484307072
 30
0.0
 40
0.5
 50
49.650709004877889
 51
135.0
  0
ARC
  5
B70
  8
0
 10
179.90063726669081
 20
275.29273929457429
 30
0.0
 40
1.0
 50
0.0
 51
61.72628636863471
  0
ARC
  5
B71
  8
0
 10
174.8015722845058
 20
280.04819518663038
 30
0.0
 40
0.5
 50
315.00000000000688
 51
40.349290995122097
  0
ARC
  5
B72
  8
0
 10
174.3965047876344
 20
279.64312768975901
 30
0.0
 40
0.5
 50
235.80692287485761
 51
315.0
  0
LINE
  5
B73
  8
0
 10
175.15512567509921
 20
279.6946417960371
 30
0.0
 11
174.7500581782277
 21
279.28957429916579
 31
0.0
  0
LINE
  5
B74
  8
0
 10
176.56933923747229
 20
278.28042823366388
 30
0.0
 11
176.16427174060081
 21
277.87536073679257
 31
0.0
  0
ARC
  5
B75
  8
0
 10
176.5178251311942
 20
277.52180734619941
 30
0.0
 40
0.5
 50
135.0
 51
214.19307712514231
  0
ARC
  5
B76
  8
0
 10
172.16743673600939
 20
283.0259398252557
 30
0.0
 40
1.0
 50
28.273713631367489
 51
90.0
  0
LINE
  5
B77
  8
0
 10
175.15512567509921
 20
304.35723785447431
 30
0.0
 11
174.7500581782277
 21
304.76230535134562
 31
0.0
  0
ARC
  5
B78
  8
0
 10
172.16743673600939
 20
301.0259398252557
 30
0.0
 40
1.0
 50
270.0
 51
331.72628636863169
  0
ARC
  5
B79
  8
0
 10
174.8015722845058
 20
304.00368446388109
 30
0.0
 40
0.5
 50
319.65070900487791
 51
44.999999999993094
  0
ARC
  5
B7A
  8
0
 10
174.3965047876344
 20
304.4087519607524
 30
0.0
 40
0.5
 50
45.0
 51
124.1930771251423
  0
LINE
  5
B7B
  8
0
 10
165.40063726669081
 20
290.0259398252557
 30
0.0
 11
165.40063726669081
 21
280.77190651767091
 31
0.0
  0
ARC
  5
B7C
  8
0
 10
166.40063726669081
 20
280.77190651767091
 30
0.0
 40
1.0
 50
180.0
 51
294.31573917118533
  0
ARC
  5
B7D
  8
0
 10
166.40063726669081
 20
283.0259398252557
 30
0.0
 40
1.0
 50
90.0
 51
180.0
  0
LINE
  5
B7E
  8
0
 10
165.40063726669081
 20
294.0259398252557
 30
0.0
 11
165.40063726669081
 21
303.2799731328405
 31
0.0
  0
ARC
  5
B7F
  8
0
 10
166.40063726669081
 20
290.0259398252557
 30
0.0
 40
1.0
 50
90.0
 51
180.0
  0
ARC
  5
B80
  8
0
 10
166.40063726669081
 20
294.0259398252557
 30
0.0
 40
1.0
 50
180.0
 51
270.0
  0
LINE
  5
B81
  8
0
 10
166.40063726669081
 20
291.0259398252557
 30
0.0
 11
170.00619363899969
 21
291.0259398252557
 31
0.0
  0
LINE
  5
B82
  8
0
 10
166.40063726669081
 20
293.0259398252557
 30
0.0
 11
170.00619363899969
 21
293.0259398252557
 31
0.0
  0
ARC
  5
B83
  8
0
 10
166.40063726669081
 20
303.2799731328405
 30
0.0
 40
1.0
 50
65.684260828814644
 51
180.0
  0
ARC
  5
B84
  8
0
 10
166.40063726669081
 20
301.0259398252557
 30
0.0
 40
1.0
 50
180.0
 51
270.0
  0
LINE
  5
B85
  8
CENTER
  6
CENTER
 10
176.40063726669081
 20
311.0259398252557
 30
0.0
 11
163.40063726669081
 21
311.0259398252557
 31
0.0
  0
LINE
  5
B86
  8
0
 10
186.90063726669081
 20
315.5259398252557
 30
0.0
 11
177.6466039591061
 21
315.5259398252557
 31
0.0
  0
ARC
  5
B87
  8
0
 10
188.90063726669081
 20
292.0259398252557
 30
0.0
 40
17.999999999999972
 50
96.042328419054115
 51
130.34929099511999
  0
LINE
  5
B88
  8
0
 10
189.90063726669081
 20
314.5259398252557
 30
0.0
 11
189.90063726669081
 21
310.92038345294679
 31
0.0
  0
LINE
  5
B89
  8
0
 10
187.90063726669081
 20
314.5259398252557
 30
0.0
 11
187.90063726669081
 21
310.92038345294679
 31
0.0
  0
ARC
  5
B8A
  8
0
 10
190.90063726669081
 20
310.92038345294679
 30
0.0
 40
1.0
 50
180.0
 51
263.95767158094571
  0
ARC
  5
B8B
  8
0
 10
186.90063726669081
 20
310.92038345294679
 30
0.0
 40
1.0
 50
276.04232841905417
 51
0.0
  0
ARC
  5
B8C
  8
0
 10
190.90063726669081
 20
314.5259398252557
 30
0.0
 40
1.0
 50
90.0
 51
180.0
  0
ARC
  5
B8D
  8
0
 10
186.90063726669081
 20
314.5259398252557
 30
0.0
 40
1.0
 50
0.0
 51
90.0
  0
ARC
  5
B8E
  8
0
 10
169.90063726669069
 20
311.0259398252557
 30
0.0
 40
7.5
 50
325.80692287486028
 51
24.31573917117197
  0
LINE
  5
B8F
  8
0
 10
180.90063726669081
 20
314.5259398252557
 30
0.0
 11
180.90063726669081
 21
308.75914035593712
 31
0.0
  0
ARC
  5
B90
  8
0
 10
176.9228926280654
 20
306.1250048074408
 30
0.0
 40
0.5
 50
225.0
 51
310.34929099512209
  0
ARC
  5
B91
  8
0
 10
179.90063726669081
 20
308.75914035593712
 30
0.0
 40
1.0
 50
298.27371363136518
 51
0.0
  0
LINE
  5
B92
  8
0
 10
176.56933923747229
 20
305.77145141684741
 30
0.0
 11
176.16427174060081
 21
306.17651891371878
 31
0.0
  0
ARC
  5
B93
  8
0
 10
176.5178251311942
 20
306.53007230431211
 30
0.0
 40
0.5
 50
145.80692287485761
 51
225.0
  0
ARC
  5
B94
  8
0
 10
177.6466039591061
 20
314.5259398252557
 30
0.0
 40
1.0
 50
90.0
 51
204.3157391711853
  0
ARC
  5
B95
  8
0
 10
179.90063726669081
 20
314.5259398252557
 30
0.0
 40
1.0
 50
0.0
 51
90.0
  0
POLYLINE
  5
B96
  8
0
 66
     1
 10
0.0
 20
0.0
 30
0.0
 70
     1
  0
VERTEX
  5
13ED
  8
0
 10
172.90063726669081
 20
312.75799063282471
 30
0.0
  0
VERTEX
  5
13EE
  8
0
 10
172.90063726669081
 20
309.29388901768692
 30
0.0
  0
VERTEX
  5
13EF
  8
0
 10
169.90063726669069
 20
307.56183821011803
 30
0.0
  0
VERTEX
  5
13F0
  8
0
 10
166.90063726669081
 20
309.29388901768692
 30
0.0
  0
VERTEX
  5
13F1
  8
0
 10
166.90063726669081
 20
312.75799063282471
 30
0.0
  0
VERTEX
  5
13F2
  8
0
 10
169.90063726669069
 20
314.4900414403935
 30
0.0
  0
SEQEND
  5
13F3
  8
0
  0
CIRCLE
  5
B9E
  8
0
 10
169.90063726669069
 20
311.0259398252557
 30
0.0
 40
5.5
  0
CIRCLE
  5
B9F
  8
0
 10
169.90063726669069
 20
311.0259398252557
 30
0.0
 40
5.0
  0
CIRCLE
  5
BA0
  8
0
 10
169.90063726669069
 20
273.0259398252557
 30
0.0
 40
5.5
  0
CIRCLE
  5
BA1
  8
0
 10
169.90063726669069
 20
273.0259398252557
 30
0.0
 40
5.0
  0
POLYLINE
  5
BA2
  8
0
 66
     1
 10
0.0
 20
0.0
 30
0.0
 70
     1
  0
VERTEX
  5
13F4
  8
0
 10
172.90063726669081
 20
274.75799063282471
 30
0.0
  0
VERTEX
  5
13F5
  8
0
 10
172.90063726669081
 20
271.29388901768692
 30
0.0
  0
VERTEX
  5
13F6
  8
0
 10
169.90063726669069
 20
269.56183821011803
 30
0.0
  0
VERTEX
  5
13F7
  8
0
 10
166.90063726669081
 20
271.29388901768692
 30
0.0
  0
VERTEX
  5
13F8
  8
0
 10
166.90063726669081
 20
274.75799063282471
 30
0.0
  0
VERTEX
  5
13F9
  8
0
 10
169.90063726669069
 20
276.4900414403935
 30
0.0
  0
SEQEND
  5
13FA
  8
0
  0
ARC
  5
BAA
  8
0
 10
174.3965047876344
 20
279.64312768975918
 30
0.0
 40
0.5
 50
235.80692287485761
 51
315.0
  0
LINE
  5
BAB
  8
0
 10
197.40063726669081
 20
259.5259398252557
 30
0.0
 11
197.40063726669081
 21
252.5259398252557
 31
0.0
  0
LINE
  5
BAC
  8
0
  6
CONTINUOUS
 10
197.40063726669081
 20
252.5259398252557
 30
0.0
 11
196.40063726669081
 21
251.5259398252557
 31
0.0
  0
LINE
  5
BAD
  8
CENTER
  6
CENTER
 10
191.40063726669081
 20
275.6235821953095
 30
0.0
 11
191.40063726669081
 21
255.09918084764951
 31
0.0
  0
LINE
  5
BAE
  8
CENTER
  6
CENTER
 10
227.7033600754111
 20
273.5259398252557
 30
0.0
 11
208.63296701152481
 21
273.5259398252557
 31
0.0
  0
LINE
  5
BAF
  8
0
  6
CONTINUOUS
 62
     2
 10
222.0006372666893
 20
270.32593982525498
 30
0.0
 11
224.5006372666893
 21
270.32593982525498
 31
0.0
  0
LINE
  5
BB0
  8
0
  6
CONTINUOUS
 62
     2
 10
222.0006372666893
 20
276.72593982525638
 30
0.0
 11
224.5006372666893
 21
276.72593982525638
 31
0.0
  0
LINE
  5
BB1
  8
0
  6
CONTINUOUS
 10
222.0006372666893
 20
277.5259398252557
 30
0.0
 11
223.70063726668999
 21
277.5259398252557
 31
0.0
  0
LINE
  5
BB2
  8
0
  6
CONTINUOUS
 10
222.0006372666893
 20
269.5259398252557
 30
0.0
 11
223.70063726668999
 21
269.5259398252557
 31
0.0
  0
LINE
  5
BB3
  8
0
  6
CONTINUOUS
 10
224.90063726669081
 20
270.72593982525638
 30
0.0
 11
224.90063726669081
 21
276.32593982525492
 31
0.0
  0
LINE
  5
BB4
  8
0
  6
CONTINUOUS
 10
223.70063726668999
 20
269.5259398252557
 30
0.0
 11
223.70063726668999
 21
277.5259398252557
 31
0.0
  0
LINE
  5
BB5
  8
0
  6
CONTINUOUS
 10
223.70063726668999
 20
269.5259398252557
 30
0.0
 11
224.90063726669081
 21
270.72593982525638
 31
0.0
  0
LINE
  5
BB6
  8
0
  6
CONTINUOUS
 10
223.70063726668999
 20
277.5259398252557
 30
0.0
 11
224.90063726669081
 21
276.32593982525498
 31
0.0
  0
LINE
  5
BB7
  8
CENTER
  6
CENTER
 10
207.90063726669081
 20
279.5259398252557
 30
0.0
 11
207.90063726669081
 21
266.5259398252557
 31
0.0
  0
ARC
  5
BB8
  8
0
 10
207.90063726669081
 20
273.0259398252557
 30
0.0
 40
7.5
 50
145.80692287486011
 51
204.31573917116859
  0
ARC
  5
BB9
  8
0
 10
200.1546705742756
 20
269.5259398252557
 30
0.0
 40
1.0
 50
270.0
 51
24.315739171181711
  0
LINE
  5
BBA
  8
0
 10
212.40063726669081
 20
290.0259398252557
 30
0.0
 11
212.40063726669081
 21
280.7719065176708
 31
0.0
  0
ARC
  5
BBB
  8
0
 10
188.90063726669081
 20
292.0259398252557
 30
0.0
 40
17.999999999999972
 50
319.6507090048799
 51
353.95767158094588
  0
LINE
  5
BBC
  8
CENTER
  6
CENTER
 10
214.40063726669081
 20
273.0259398252557
 30
0.0
 11
201.40063726669081
 21
273.0259398252557
 31
0.0
  0
ARC
  5
BBD
  8
0
 10
207.90063726669081
 20
273.0259398252557
 30
0.0
 40
7.5
 50
65.684260828826382
 51
124.19307712513979
  0
ARC
  5
BBE
  8
0
 10
211.40063726669081
 20
280.7719065176708
 30
0.0
 40
1.0
 50
245.68426082881311
 51
0.0
  0
LINE
  5
BBF
  8
0
 10
215.40063726669101
 20
274.5259398252557
 30
0.0
 11
214.90063726669101
 21
274.5259398252557
 31
0.0
  0
ARC
  5
BC0
  8
0
 10
211.40063726669081
 20
298.01634104255908
 30
0.0
 40
1.0
 50
270.0
 51
0.0
  0
LINE
  5
BC1
  8
0
 10
206.9315854740295
 20
297.01634104255908
 30
0.0
 11
211.40063726669081
 21
297.01634104255908
 31
0.0
  0
ARC
  5
BC2
  8
0
 10
206.9315854740295
 20
298.01634104255908
 30
0.0
 40
1.0
 50
198.37797603959399
 51
270.0
  0
ARC
  5
BC3
  8
0
 10
201.28344940218761
 20
277.52180734619941
 30
0.0
 40
0.5
 50
325.80692287485948
 51
45.0
  0
ARC
  5
BC4
  8
0
 10
203.4047697457473
 20
279.64312768975901
 30
0.0
 40
0.5
 50
225.0
 51
304.19307712514228
  0
ARC
  5
BC5
  8
0
 10
202.99970224887591
 20
280.04819518663038
 30
0.0
 40
0.5
 50
139.65070900487791
 51
224.99999999999301
  0
LINE
  5
BC6
  8
0
 10
202.6461488582826
 20
279.6946417960371
 30
0.0
 11
203.051216355154
 21
279.28957429916568
 31
0.0
  0
LINE
  5
BC7
  8
0
 10
201.23193529590949
 20
278.28042823366388
 30
0.0
 11
201.63700279278069
 21
277.87536073679257
 31
0.0
  0
ARC
  5
BC8
  8
0
 10
200.8783819053161
 20
277.92687484307072
 30
0.0
 40
0.5
 50
45.000000000002302
 51
130.349290995122
  0
ARC
  5
BC9
  8
0
 10
207.90063726669081
 20
311.02593982525559
 30
0.0
 40
7.5
 50
235.80692287485999
 51
294.31573917117203
  0
ARC
  5
BCA
  8
0
 10
188.90063726669081
 20
292.0259398252557
 30
0.0
 40
17.999999999999972
 50
6.0423284190539261
 51
40.349290995119809
  0
LINE
  5
BCB
  8
0
 10
212.40063726669081
 20
294.02593982525559
 30
0.0
 11
212.40063726669081
 21
303.2799731328405
 31
0.0
  0
ARC
  5
BCC
  8
0
 10
211.40063726669081
 20
290.0259398252557
 30
0.0
 40
1.0
 50
0.0
 51
90.0
  0
ARC
  5
BCD
  8
0
 10
211.40063726669081
 20
294.02593982525559
 30
0.0
 40
1.0
 50
270.0
 51
0.0
  0
LINE
  5
BCE
  8
0
 10
211.40063726669081
 20
291.0259398252557
 30
0.0
 11
207.7950808943819
 21
291.0259398252557
 31
0.0
  0
ARC
  5
BCF
  8
0
 10
207.7950808943819
 20
290.0259398252557
 30
0.0
 40
1.0
 50
90.0
 51
173.95767158094571
  0
LINE
  5
BD0
  8
0
 10
211.40063726669081
 20
293.02593982525559
 30
0.0
 11
207.7950808943819
 21
293.02593982525559
 31
0.0
  0
ARC
  5
BD1
  8
0
 10
207.7950808943819
 20
294.02593982525559
 30
0.0
 40
1.0
 50
186.0423284190542
 51
270.0
  0
ARC
  5
BD2
  8
0
 10
211.40063726669081
 20
303.2799731328405
 30
0.0
 40
1.0
 50
0.0
 51
114.3157391711853
  0
LINE
  5
BD3
  8
0
 10
202.6461488582826
 20
304.35723785447419
 30
0.0
 11
203.051216355154
 21
304.76230535134562
 31
0.0
  0
ARC
  5
BD4
  8
0
 10
202.99970224887591
 20
304.00368446388097
 30
0.0
 40
0.5
 50
135.00000000000691
 51
220.349290995122
  0
ARC
  5
BD5
  8
0
 10
203.4047697457473
 20
304.40875196075228
 30
0.0
 40
0.5
 50
55.806922874857641
 51
135.0
  0
LINE
  5
BD6
  8
CENTER
  6
CENTER
 10
214.40063726669081
 20
311.0259398252557
 30
0.0
 11
201.40063726669081
 21
311.0259398252557
 31
0.0
  0
LINE
  5
BD7
  8
0
 10
215.40063726669101
 20
309.5259398252557
 30
0.0
 11
214.90063726669069
 21
309.5259398252557
 31
0.0
  0
ARC
  5
BD8
  8
0
 10
207.90063726669081
 20
311.0259398252557
 30
0.0
 40
7.5
 50
155.68426082882979
 51
214.19307712513981
  0
ARC
  5
BD9
  8
0
 10
201.28344940218761
 20
306.53007230431211
 30
0.0
 40
0.5
 50
315.0
 51
34.193077125140519
  0
LINE
  5
BDA
  8
0
 10
201.23193529590949
 20
305.77145141684741
 30
0.0
 11
201.63700279278069
 21
306.17651891371878
 31
0.0
  0
ARC
  5
BDB
  8
0
 10
200.8783819053161
 20
306.1250048074408
 30
0.0
 40
0.5
 50
229.65070900487791
 51
314.99999999999773
  0
ARC
  5
BDC
  8
0
 10
200.1546705742756
 20
314.5259398252557
 30
0.0
 40
1.0
 50
335.68426082881462
 51
90.0
  0
CIRCLE
  5
BDD
  8
0
 10
207.90063726669081
 20
311.0259398252557
 30
0.0
 40
5.0
  0
CIRCLE
  5
BDE
  8
0
 10
207.90063726669081
 20
311.0259398252557
 30
0.0
 40
5.5
  0
POLYLINE
  5
BDF
  8
0
 66
     1
 10
0.0
 20
0.0
 30
0.0
 70
     1
  0
VERTEX
  5
13FB
  8
0
 10
210.90063726669069
 20
312.75799063282471
 30
0.0
  0
VERTEX
  5
13FC
  8
0
 10
210.90063726669069
 20
309.29388901768692
 30
0.0
  0
VERTEX
  5
13FD
  8
0
 10
207.90063726669081
 20
307.56183821011803
 30
0.0
  0
VERTEX
  5
13FE
  8
0
 10
204.90063726669081
 20
309.29388901768692
 30
0.0
  0
VERTEX
  5
13FF
  8
0
 10
204.90063726669081
 20
312.75799063282471
 30
0.0
  0
VERTEX
  5
1400
  8
0
 10
207.90063726669081
 20
314.4900414403935
 30
0.0
  0
SEQEND
  5
1401
  8
0
  0
CIRCLE
  5
BE7
  8
0
 10
207.90063726669081
 20
273.0259398252557
 30
0.0
 40
5.5
  0
CIRCLE
  5
BE8
  8
0
 10
207.90063726669081
 20
273.0259398252557
 30
0.0
 40
5.0
  0
POLYLINE
  5
BE9
  8
0
 66
     1
 10
0.0
 20
0.0
 30
0.0
 70
     1
  0
VERTEX
  5
1402
  8
0
 10
210.90063726669069
 20
274.75799063282471
 30
0.0
  0
VERTEX
  5
1403
  8
0
 10
210.90063726669069
 20
271.29388901768692
 30
0.0
  0
VERTEX
  5
1404
  8
0
 10
207.90063726669081
 20
269.56183821011803
 30
0.0
  0
VERTEX
  5
1405
  8
0
 10
204.90063726669081
 20
271.29388901768692
 30
0.0
  0
VERTEX
  5
1406
  8
0
 10
204.90063726669081
 20
274.75799063282471
 30
0.0
  0
VERTEX
  5
1407
  8
0
 10
207.90063726669081
 20
276.4900414403935
 30
0.0
  0
SEQEND
  5
1408
  8
0
  0
LINE
  5
BF1
  8
CENTER
  6
CENTER
 10
219.90709250823841
 20
288.0259398252557
 30
0.0
 11
200.5070925082386
 21
288.0259398252557
 31
0.0
  0
LINE
  5
BF2
  8
CENTER
  6
CENTER
 10
220.00499279721581
 20
299.5259398252557
 30
0.0
 11
206.27705232868351
 21
299.5259398252557
 31
0.0
  0
LINE
  5
BF3
  8
0
  6
CONTINUOUS
 10
217.6206372666901
 20
273.5259398252557
 30
0.0
 11
221.18063726669141
 21
273.5259398252557
 31
0.0
  0
LINE
  5
BF4
  8
0
  6
CONTINUOUS
 10
216.90063726669069
 20
273.5259398252557
 30
0.0
 11
221.18063726669141
 21
273.5259398252557
 31
0.0
  0
ARC
  5
BF5
  8
0
  6
CONTINUOUS
 10
213.48365767107961
 20
277.0259398252557
 30
0.0
 40
8.4553825989878657
 50
335.5475759094079
 51
24.452424090592022
  0
LINE
  5
BF6
  8
0
  6
CONTINUOUS
 10
221.90063726669081
 20
280.5259398252557
 30
0.0
 11
216.90063726669069
 21
280.5259398252557
 31
0.0
  0
ARC
  5
BF7
  8
0
  6
CONTINUOUS
 10
225.31761686230229
 20
277.0259398252557
 30
0.0
 40
8.4553825989882458
 50
155.54757590941711
 51
204.45242409058281
  0
LINE
  5
BF8
  8
0
  6
CONTINUOUS
 10
216.90063726669069
 20
280.5259398252557
 30
0.0
 11
216.90063726669069
 21
273.5259398252557
 31
0.0
  0
LINE
  5
BF9
  8
0
  6
CONTINUOUS
 10
221.90063726669081
 20
280.5259398252557
 30
0.0
 11
221.90063726669081
 21
266.5259398252557
 31
0.0
  0
ARC
  5
BFA
  8
0
  6
CONTINUOUS
 10
213.48365767107961
 20
270.0259398252557
 30
0.0
 40
8.4553825989878657
 50
335.5475759094079
 51
24.452424090592022
  0
LINE
  5
BFB
  8
0
  6
CONTINUOUS
 10
221.90063726669081
 20
266.5259398252557
 30
0.0
 11
216.90063726669069
 21
266.5259398252557
 31
0.0
  0
ARC
  5
BFC
  8
0
  6
CONTINUOUS
 10
225.31761686230229
 20
270.0259398252557
 30
0.0
 40
8.4553825989882458
 50
155.54757590941711
 51
204.4524240905823
  0
LINE
  5
BFD
  8
0
  6
CONTINUOUS
 10
216.90063726669069
 20
266.5259398252557
 30
0.0
 11
216.90063726669069
 21
273.5259398252557
 31
0.0
  0
LINE
  5
BFE
  8
0
 10
190.90063726669081
 20
268.5259398252557
 30
0.0
 11
200.1546705742756
 21
268.5259398252557
 31
0.0
  0
CIRCLE
  5
BFF
  8
0
 10
188.90063726669081
 20
292.0259398252557
 30
0.0
 40
17.499999999999972
  0
ARC
  5
C00
  8
0
 10
188.90063726669081
 20
292.0259398252557
 30
0.0
 40
17.999999999999972
 50
276.04232841905389
 51
310.34929099511982
  0
LINE
  5
C01
  8
0
 10
190.90063726669081
 20
315.5259398252557
 30
0.0
 11
200.1546705742756
 21
315.5259398252557
 31
0.0
  0
ARC
  5
C02
  8
0
 10
188.90063726669081
 20
292.0259398252557
 30
0.0
 40
17.999999999999972
 50
49.650709004880191
 51
83.957671580946055
  0
LINE
  5
C03
  8
CENTER
  6
CENTER
 10
188.90063726669081
 20
320.0259398252557
 30
0.0
 11
188.90063726669081
 21
264.0259398252557
 31
0.0
  0
POLYLINE
  5
C04
  8
0
 66
     1
 10
0.0
 20
0.0
 30
0.0
 70
     1
  0
VERTEX
  5
1409
  8
0
 10
162.40063726669081
 20
311.0259398252557
 30
0.0
 42
-0.4142135623730951
  0
VERTEX
  5
140A
  8
0
 10
169.90063726669101
 20
318.5259398252557
 30
0.0
  0
VERTEX
  5
140B
  8
0
 10
207.90063726669081
 20
318.5259398252557
 30
0.0
 42
-0.4142135623730951
  0
VERTEX
  5
140C
  8
0
 10
215.40063726669081
 20
311.0259398252557
 30
0.0
  0
VERTEX
  5
140D
  8
0
 10
215.40063726669081
 20
273.0259398252557
 30
0.0
 42
-0.4142135623730951
  0
VERTEX
  5
140E
  8
0
 10
207.90063726669081
 20
265.5259398252557
 30
0.0
  0
VERTEX
  5
140F
  8
0
 10
169.90063726669101
 20
265.5259398252557
 30
0.0
 42
-0.4142135623730951
  0
VERTEX
  5
1410
  8
0
 10
162.40063726669081
 20
273.0259398252557
 30
0.0
  0
SEQEND
  5
1411
  8
0
  0
POLYLINE
  5
C0E
  8
0
 66
     1
 10
0.0
 20
0.0
 30
0.0
 70
     1
  0
VERTEX
  5
1412
  8
0
 10
162.90063726669081
 20
311.0259398252557
 30
0.0
 42
-0.4142135623730951
  0
VERTEX
  5
1413
  8
0
 10
169.90063726669101
 20
318.0259398252557
 30
0.0
  0
VERTEX
  5
1414
  8
0
 10
207.90063726669081
 20
318.0259398252557
 30
0.0
 42
-0.4142135623730951
  0
VERTEX
  5
1415
  8
0
 10
214.90063726669069
 20
311.0259398252557
 30
0.0
  0
VERTEX
  5
1416
  8
0
 10
214.90063726669069
 20
273.0259398252557
 30
0.0
 42
-0.4142135623730951
  0
VERTEX
  5
1417
  8
0
 10
207.90063726669081
 20
266.0259398252557
 30
0.0
  0
VERTEX
  5
1418
  8
0
 10
169.90063726669101
 20
266.0259398252557
 30
0.0
 42
-0.4142135623730957
  0
VERTEX
  5
1419
  8
0
 10
162.90063726669081
 20
273.0259398252557
 30
0.0
  0
SEQEND
  5
141A
  8
0
  0
LINE
  5
C18
  8
CENTER
  6
CENTER
 10
207.90063726669081
 20
317.5259398252557
 30
0.0
 11
207.90063726669081
 21
304.5259398252557
 31
0.0
  0
LINE
  5
C19
  8
CENTER
  6
CENTER
 10
169.90063726669069
 20
317.5259398252557
 30
0.0
 11
169.90063726669069
 21
304.5259398252557
 31
0.0
  0
LINE
  5
C1A
  8
0
 10
216.90063726669069
 20
324.5259398252557
 30
0.0
 11
216.90063726669069
 21
259.5259398252557
 31
0.0
  0
LINE
  5
C1B
  8
CENTER
  6
CENTER
 10
191.40063726669081
 20
309.68902943176522
 30
0.0
 11
191.40063726669081
 21
329.35953922432071
 31
0.0
  0
LINE
  5
C1C
  8
0
 10
303.26071555780862
 20
199.6460982339463
 30
0.0
 11
273.26071555780862
 21
199.1460982339463
 31
0.0
  0
LINE
  5
C1D
  8
0
 10
303.26071555780862
 20
146.6460982339463
 30
0.0
 11
273.26071555780862
 21
147.1460982339463
 31
0.0
  0
LINE
  5
C1E
  8
0
 10
273.26071555780862
 20
147.1460982339463
 30
0.0
 11
273.26071555780862
 21
199.1460982339463
 31
0.0
  0
LINE
  5
C1F
  8
0
 10
273.26071555780862
 20
155.6460982339463
 30
0.0
 11
270.26071555780862
 21
155.6460982339463
 31
0.0
  0
ARC
  5
C20
  8
0
 10
270.26071555780862
 20
156.6460982339463
 30
0.0
 40
1.0
 50
180.0
 51
270.0
  0
ARC
  5
C21
  8
0
 10
270.26071555780862
 20
189.6460982339463
 30
0.0
 40
1.0
 50
90.0
 51
180.0
  0
LINE
  5
C22
  8
0
 10
273.26071555780862
 20
190.6460982339463
 30
0.0
 11
270.26071555780862
 21
190.6460982339463
 31
0.0
  0
LINE
  5
C23
  8
0
 10
269.26071555780868
 20
156.6460982339463
 30
0.0
 11
269.26071555780868
 21
189.6460982339463
 31
0.0
  0
LINE
  5
C24
  8
0
 10
303.26071555780862
 20
146.6460982339463
 30
0.0
 11
303.26071555780862
 21
199.6460982339463
 31
0.0
  0
TEXT
  5
C25
  8
DIM
  6
CONTINUOUS
 10
261.48860648815901
 20
229.0259398252557
 30
0.0
 40
3.0
  1
4
  7
ROMANSS
 72
     1
 11
262.56003505958751
 21
230.5259398252557
 31
0.0
 73
     2
  0
SOLID
  5
C27
  8
DIM
  6
CONTINUOUS
 10
266.26071555780862
 20
228.0259398252557
 30
0.0
 11
266.26071555780862
 21
227.0259398252557
 31
0.0
 12
269.26071555780862
 22
227.5259398252557
 32
0.0
 13
269.26071555780862
 23
227.5259398252557
 33
0.0
  0
LINE
  5
C28
  8
DIM
  6
CONTINUOUS
 10
269.26071555780862
 20
273.52119511208087
 30
0.0
 11
269.26071555780862
 21
226.5259398252557
 31
0.0
  0
SOLID
  5
C29
  8
DIM
  6
CONTINUOUS
 10
276.26071555780862
 20
228.0259398252557
 30
0.0
 11
276.26071555780862
 21
227.0259398252557
 31
0.0
 12
273.26071555780862
 22
227.5259398252557
 32
0.0
 13
273.26071555780862
 23
227.5259398252557
 33
0.0
  0
LINE
  5
C2A
  8
DIM
  6
CONTINUOUS
 10
273.26071555780862
 20
265.0259398252557
 30
0.0
 11
273.26071555780862
 21
226.5259398252557
 31
0.0
  0
LINE
  5
C2B
  8
0
  6
CONTINUOUS
 10
293.51071555780851
 20
298.22690171957902
 30
0.0
 11
292.20229357290492
 21
297.47148393438141
 31
0.0
  0
LINE
  5
C2C
  8
0
  6
CONTINUOUS
 10
294.01071555780851
 20
297.3608763157946
 30
0.0
 11
292.70229357290492
 21
296.60545853059699
 31
0.0
  0
ARC
  5
C2D
  8
0
  6
CONTINUOUS
 10
296.76071555780851
 20
299.5259398252557
 30
0.0
 40
3.5
 50
278.21321070173809
 51
321.78678929826299
  0
LINE
  5
C2E
  8
0
  6
CONTINUOUS
 10
300.01071555780851
 20
298.22690171957902
 30
0.0
 11
301.31913754271199
 21
297.47148393438141
 31
0.0
  0
LINE
  5
C2F
  8
0
  6
CONTINUOUS
 10
299.51071555780862
 20
297.3608763157946
 30
0.0
 11
300.8191375427121
 21
296.60545853059699
 31
0.0
  0
LINE
  5
C30
  8
0
  6
CONTINUOUS
 10
296.26071555780851
 20
294.55100263972258
 30
0.0
 11
296.26071555780851
 21
296.06183821011791
 31
0.0
  0
LINE
  5
C31
  8
0
  6
CONTINUOUS
 10
297.26071555780851
 20
294.55100263972258
 30
0.0
 11
297.26071555780851
 21
296.06183821011791
 31
0.0
  0
ARC
  5
C32
  8
0
  6
CONTINUOUS
 10
296.76071555780851
 20
299.5259398252557
 30
0.0
 40
3.5
 50
218.21321070173829
 51
261.78678929826179
  0
CIRCLE
  5
C33
  8
0
 10
288.26071555780862
 20
288.0259398252557
 30
0.0
 40
3.9999999999999711
  0
LINE
  5
C34
  8
CENTER
  6
CENTER
 10
299.96071555780861
 20
288.0259398252557
 30
0.0
 11
276.56071555780858
 21
288.0259398252557
 31
0.0
  0
LINE
  5
C35
  8
0
  6
CONTINUOUS
 10
292.20229357290492
 20
301.58039571613011
 30
0.0
 11
293.51071555780851
 21
300.82497793093239
 31
0.0
  0
LINE
  5
C36
  8
0
  6
CONTINUOUS
 10
292.70229357290492
 20
302.44642111991448
 30
0.0
 11
294.01071555780851
 21
301.6910033347167
 31
0.0
  0
ARC
  5
C37
  8
0
  6
CONTINUOUS
 10
296.76071555780851
 20
299.5259398252557
 30
0.0
 40
3.5
 50
38.213210701738312
 51
81.786789298261766
  0
LINE
  5
C38
  8
0
  6
CONTINUOUS
 10
301.31913754271199
 20
301.58039571613011
 30
0.0
 11
300.01071555780851
 21
300.82497793093239
 31
0.0
  0
LINE
  5
C39
  8
0
  6
CONTINUOUS
 10
300.8191375427121
 20
302.44642111991448
 30
0.0
 11
299.51071555780862
 21
301.6910033347167
 31
0.0
  0
LINE
  5
C3A
  8
0
  6
CONTINUOUS
 10
296.26071555780851
 20
302.99004144039338
 30
0.0
 11
296.26071555780851
 21
304.50087701078871
 31
0.0
  0
LINE
  5
C3B
  8
0
  6
CONTINUOUS
 10
297.26071555780851
 20
302.99004144039338
 30
0.0
 11
297.26071555780851
 21
304.50087701078871
 31
0.0
  0
ARC
  5
C3C
  8
0
  6
CONTINUOUS
 10
296.76071555780851
 20
299.5259398252557
 30
0.0
 40
3.5
 50
98.213210701738234
 51
141.7867892982616
  0
LINE
  5
C3D
  8
CENTER
  6
CENTER
 10
296.76071555780851
 20
306.38991005952192
 30
0.0
 11
296.76071555780851
 21
292.66196959098949
 31
0.0
  0
CIRCLE
  5
C3E
  8
0
  6
CONTINUOUS
 10
296.76071555780851
 20
299.5259398252557
 30
0.0
 40
2.5
  0
ARC
  5
C3F
  8
0
  6
CONTINUOUS
 10
296.76071555780851
 20
299.5259398252557
 30
0.0
 40
3.5
 50
338.21321070173769
 51
21.786789298262239
  0
POLYLINE
  5
C40
  8
0
  6
CONTINUOUS
 66
     1
 10
0.0
 20
0.0
 30
0.0
 70
     1
  0
VERTEX
  5
141B
  8
0
  6
CONTINUOUS
 10
297.62674096159299
 20
298.0259398252557
 30
0.0
  0
VERTEX
  5
141C
  8
0
  6
CONTINUOUS
 10
298.49276636537741
 20
299.5259398252557
 30
0.0
  0
VERTEX
  5
141D
  8
0
  6
CONTINUOUS
 10
297.62674096159299
 20
301.0259398252557
 30
0.0
  0
VERTEX
  5
141E
  8
0
  6
CONTINUOUS
 10
295.89469015402409
 20
301.0259398252557
 30
0.0
  0
VERTEX
  5
141F
  8
0
  6
CONTINUOUS
 10
295.02866475023973
 20
299.5259398252557
 30
0.0
  0
VERTEX
  5
1420
  8
0
  6
CONTINUOUS
 10
295.89469015402409
 20
298.0259398252557
 30
0.0
  0
SEQEND
  5
1421
  8
0
  6
CONTINUOUS
  0
ARC
  5
C48
  8
0
  6
CONTINUOUS
 10
296.76071555780851
 20
299.5259398252557
 30
0.0
 40
3.5
 50
158.2132107017386
 51
201.78678929826131
  0
CIRCLE
  5
C49
  8
0
 10
288.26071555780862
 20
288.0259398252557
 30
0.0
 40
8.6999999999999993
  0
CIRCLE
  5
C4A
  8
0
 10
288.26071555780862
 20
288.0259398252557
 30
0.0
 40
6.7000000000000028
  0
ARC
  5
C4B
  8
0
 62
     2
 10
288.26071555780862
 20
288.0259398252557
 30
0.0
 40
6.5999999999999996
 50
333.86110377669672
 51
284.99745208060762
  0
CIRCLE
  5
C4C
  8
0
 10
288.26071555780862
 20
288.0259398252557
 30
0.0
 40
5.7000000000000011
  0
LINE
  5
C4D
  8
CENTER
  6
CENTER
 10
288.26071555780862
 20
299.72593982525569
 30
0.0
 11
288.26071555780862
 21
276.32593982525572
 31
0.0
  0
LINE
  5
C4E
  8
CENTER
  6
CENTER
 10
303.62468579207467
 20
299.5259398252557
 30
0.0
 11
289.8967453235424
 21
299.5259398252557
 31
0.0
  0
CIRCLE
  5
C4F
  8
0
 10
296.76071555780851
 20
299.5259398252557
 30
0.0
 40
5.0
  0
CIRCLE
  5
C50
  8
0
 10
296.76071555780851
 20
299.5259398252557
 30
0.0
 40
5.2999999999999989
  0
LINE
  5
C51
  8
0
 10
303.26071555780862
 20
265.5259398252557
 30
0.0
 11
273.26071555780862
 21
266.0259398252557
 31
0.0
  0
ARC
  5
C52
  8
0
 10
270.26071555780862
 20
275.5259398252557
 30
0.0
 40
1.0
 50
180.0
 51
270.0
  0
LINE
  5
C53
  8
0
 10
273.26071555780862
 20
274.5259398252557
 30
0.0
 11
270.26071555780862
 21
274.5259398252557
 31
0.0
  0
ARC
  5
C54
  8
0
 10
270.26071555780862
 20
308.5259398252557
 30
0.0
 40
1.0
 50
90.0
 51
180.0
  0
LINE
  5
C55
  8
0
 10
273.26071555780862
 20
309.5259398252557
 30
0.0
 11
270.26071555780862
 21
309.5259398252557
 31
0.0
  0
LINE
  5
C56
  8
0
 10
269.26071555780862
 20
275.5259398252557
 30
0.0
 11
269.26071555780862
 21
308.5259398252557
 31
0.0
  0
LINE
  5
C57
  8
0
 10
303.26071555780851
 20
318.5259398252557
 30
0.0
 11
273.26071555780851
 21
318.0259398252557
 31
0.0
  0
LINE
  5
C58
  8
0
 10
273.26071555780862
 20
266.0259398252557
 30
0.0
 11
273.26071555780862
 21
318.0259398252557
 31
0.0
  0
LINE
  5
C59
  8
0
 10
303.26071555780862
 20
265.5259398252557
 30
0.0
 11
303.26071555780851
 21
318.5259398252557
 31
0.0
  0
LINE
  5
C5A
  8
0
 10
273.26071555780862
 20
434.04682982048791
 30
0.0
 11
270.26071555780862
 21
434.04682982048791
 31
0.0
  0
ARC
  5
C5B
  8
0
 10
270.26071555780862
 20
433.0468298204878
 30
0.0
 40
1.0
 50
90.0
 51
180.0
  0
ARC
  5
C5C
  8
0
 10
270.26071555780862
 20
400.0468298204878
 30
0.0
 40
1.0
 50
180.0
 51
270.0
  0
LINE
  5
C5D
  8
0
 10
273.26071555780862
 20
399.0468298204878
 30
0.0
 11
270.26071555780862
 21
399.0468298204878
 31
0.0
  0
LINE
  5
C5E
  8
0
 10
273.26071555780862
 20
442.5468298204878
 30
0.0
 11
273.26071555780862
 21
390.5468298204878
 31
0.0
  0
LINE
  5
C5F
  8
0
 10
269.26071555780868
 20
433.0468298204878
 30
0.0
 11
269.26071555780868
 21
400.0468298204878
 31
0.0
  0
LINE
  5
C60
  8
0
 10
303.26071555780862
 20
443.0468298204878
 30
0.0
 11
303.26071555780862
 21
390.0468298204878
 31
0.0
  0
LINE
  5
C61
  8
0
 10
303.26071555780862
 20
390.0468298204878
 30
0.0
 11
273.26071555780862
 21
390.5468298204878
 31
0.0
  0
LINE
  5
C62
  8
0
 10
303.26071555780862
 20
443.0468298204878
 30
0.0
 11
273.26071555780862
 21
442.5468298204878
 31
0.0
  0
SOLID
  5
C63
  8
DIM
  6
CONTINUOUS
 10
383.76071555780862
 20
335.52593982525582
 30
0.0
 11
384.76071555780862
 21
335.52593982525582
 31
0.0
 12
384.26071555780862
 22
332.52593982525582
 32
0.0
 13
384.26071555780862
 23
332.52593982525582
 33
0.0
  0
LINE
  5
C64
  8
DIM
  6
CONTINUOUS
 10
384.26071555780851
 20
338.64895600024971
 30
0.0
 11
384.26071555780862
 21
324.54209713776811
 31
0.0
  0
LINE
  5
C65
  8
DIM
  6
CONTINUOUS
 10
662.21304223966922
 20
316.49966284491961
 30
0.0
 11
650.08120420804653
 21
338.90196995392222
 31
0.0
  0
TEXT
  5
C66
  8
DIM
  6
CONTINUOUS
 10
597.64405835412697
 20
335.91731033921837
 30
0.0
 40
3.0
  1
2-G1/4
  7
ROMANSS
 11
597.64405835412697
 21
337.41731033921837
 31
0.0
 73
     2
  0
LINE
  5
C67
  8
DIM
  6
CONTINUOUS
 10
756.6207938489265
 20
243.92713420812871
 30
0.0
 11
756.6207938489265
 21
341.74579716328032
 31
0.0
  0
LINE
  5
C68
  8
CENTER
  6
CENTER
 10
711.1207938489265
 20
336.54513913537181
 30
0.0
 11
711.1207938489265
 21
248.5259398252557
 31
0.0
  0
LINE
  5
C69
  8
CENTER
  6
CENTER
 10
436.26071555780862
 20
335.54167759595123
 30
0.0
 11
436.26071555780862
 21
248.5259398252557
 31
0.0
  0
LINE
  5
C6A
  8
0
 10
473.76071555780862
 20
197.34609823394629
 30
0.0
 11
569.26071555780868
 21
197.34609823394621
 31
0.0
  0
LINE
  5
C6B
  8
0
 10
473.76071555780862
 20
184.94832253659811
 30
0.0
 11
569.26071555780868
 21
184.94832253659811
 31
0.0
  0
LINE
  5
C6C
  8
0
 10
473.76071555780862
 20
148.94609823394629
 30
0.0
 11
569.26071555780868
 21
148.94609823394629
 31
0.0
  0
LINE
  5
C6D
  8
0
 10
473.76071555780862
 20
161.34387393129441
 30
0.0
 11
569.26071555780868
 21
161.34387393129441
 31
0.0
  0
LINE
  5
C6E
  8
0
 10
473.76071555780862
 20
303.8281641279076
 30
0.0
 11
569.26071555780868
 21
303.8281641279076
 31
0.0
  0
LINE
  5
C6F
  8
0
 10
473.76071555780862
 20
316.22593982525581
 30
0.0
 11
569.26071555780868
 21
316.22593982525558
 31
0.0
  0
LINE
  5
C70
  8
0
 10
473.76071555780862
 20
280.22371552260381
 30
0.0
 11
569.26071555780868
 21
280.22371552260381
 31
0.0
  0
LINE
  5
C71
  8
0
 10
473.76071555780862
 20
267.82593982525577
 30
0.0
 11
569.26071555780868
 21
267.82593982525577
 31
0.0
  0
CIRCLE
  5
C72
  8
0
  6
CONTINUOUS
 10
436.26071555780862
 20
145.6460982339463
 30
0.0
 40
35.0
  0
LINE
  5
C73
  8
0
 10
473.76071555780862
 20
108.1460982339463
 30
0.0
 11
473.76071555780862
 21
201.1460982339463
 31
0.0
  0
LINE
  5
C74
  8
0
 10
398.76071555780862
 20
108.1460982339463
 30
0.0
 11
398.76071555780862
 21
201.1460982339463
 31
0.0
  0
LINE
  5
C75
  8
CENTER
  6
CENTER
 10
436.26071555780862
 20
105.1460982339463
 30
0.0
 11
436.26071555780862
 21
204.1460982339463
 31
0.0
  0
CIRCLE
  5
C76
  8
0
  6
CONTINUOUS
 10
436.26071555780862
 20
145.6460982339463
 30
0.0
 40
36.0
  0
CIRCLE
  5
C77
  8
CENTER
  6
CENTER
 10
436.26071555780862
 20
145.6460982339463
 30
0.0
 40
30.0
  0
LINE
  5
C78
  8
0
 10
398.76071555780862
 20
108.1460982339463
 30
0.0
 11
473.76071555780862
 21
108.1460982339463
 31
0.0
  0
CIRCLE
  5
C79
  8
0
  6
CONTINUOUS
 10
415.0475121222122
 20
124.43289479835001
 30
0.0
 40
2.0499999999999989
  0
LINE
  5
C7A
  8
CENTER
  6
CENTER
 10
410.80487143509282
 20
120.1902541112306
 30
0.0
 11
419.64370619992468
 21
129.02908887606239
 31
0.0
  0
ARC
  5
C7B
  8
0
  6
CONTINUOUS
 62
     2
 10
415.04751212221203
 20
124.43289479835011
 30
0.0
 40
2.5
 50
201.03635853977079
 51
155.01845143419251
  0
CIRCLE
  5
C7C
  8
0
  6
CONTINUOUS
 10
406.26071555780862
 20
115.6460982339463
 30
0.0
 40
2.5
  0
ARC
  5
C7D
  8
0
  6
CONTINUOUS
 62
     2
 10
406.26071555780862
 20
115.6460982339463
 30
0.0
 40
3.0
 50
338.35967540570613
 51
287.47149231941358
  0
LINE
  5
C7E
  8
CENTER
  6
CENTER
 10
406.26071555780862
 20
109.6460982339463
 30
0.0
 11
406.26071555780862
 21
121.6460982339463
 31
0.0
  0
LINE
  5
C7F
  8
CENTER
  6
CENTER
 10
400.26071555780862
 20
115.6460982339463
 30
0.0
 11
412.26071555780851
 21
115.6460982339463
 31
0.0
  0
LINE
  5
C80
  8
CENTER
  6
CENTER
 10
460.26071555780862
 20
115.6460982339463
 30
0.0
 11
472.26071555780862
 21
115.6460982339463
 31
0.0
  0
CIRCLE
  5
C81
  8
0
  6
CONTINUOUS
 10
466.26071555780851
 20
115.6460982339463
 30
0.0
 40
2.5
  0
ARC
  5
C82
  8
0
  6
CONTINUOUS
 62
     2
 10
466.26071555780851
 20
115.6460982339463
 30
0.0
 40
3.0
 50
248.3596754057061
 51
197.47149231941381
  0
LINE
  5
C83
  8
CENTER
  6
CENTER
 10
466.26071555780851
 20
109.6460982339463
 30
0.0
 11
466.26071555780851
 21
121.6460982339463
 31
0.0
  0
POLYLINE
  5
C84
  8
0
  6
CONTINUOUS
 66
     1
 10
0.0
 20
0.0
 30
0.0
  0
VERTEX
  5
1422
  8
0
  6
CONTINUOUS
 10
454.76071555780862
 20
206.1460982339463
 30
0.0
 42
-0.0851703918331037
  0
VERTEX
  5
1423
  8
0
  6
CONTINUOUS
 10
458.76071555780862
 20
205.4580982339462
 30
0.0
 42
-0.3457679526359281
  0
VERTEX
  5
1424
  8
0
  6
CONTINUOUS
 10
461.6607155578082
 20
205.79967791062111
 30
0.0
  0
SEQEND
  5
1425
  8
0
  6
CONTINUOUS
  0
LINE
  5
C89
  8
0
  6
CONTINUOUS
 10
458.76071555780862
 20
207.94609823394561
 30
0.0
 11
457.5607155578079
 21
209.1460982339463
 31
0.0
  0
LINE
  5
C8A
  8
0
  6
CONTINUOUS
 10
450.76071555780862
 20
207.94609823394561
 30
0.0
 11
458.76071555780862
 21
207.94609823394561
 31
0.0
  0
LINE
  5
C8B
  8
0
  6
CONTINUOUS
 10
448.46071555780929
 20
206.1460982339463
 30
0.0
 11
461.0607155578079
 21
206.1460982339463
 31
0.0
  0
POLYLINE
  5
C8C
  8
0
  6
CONTINUOUS
 66
     1
 10
0.0
 20
0.0
 30
0.0
  0
VERTEX
  5
1426
  8
0
  6
CONTINUOUS
 10
454.76071555780862
 20
201.1460982339463
 30
0.0
 42
0.0851703918331037
  0
VERTEX
  5
1427
  8
0
  6
CONTINUOUS
 10
458.76071555780862
 20
201.83409823394641
 30
0.0
 42
0.3457679526359281
  0
VERTEX
  5
1428
  8
0
  6
CONTINUOUS
 10
461.6607155578082
 20
201.4925185572715
 30
0.0
  0
SEQEND
  5
1429
  8
0
  6
CONTINUOUS
  0
POLYLINE
  5
C91
  8
0
  6
CONTINUOUS
 66
     1
 10
0.0
 20
0.0
 30
0.0
 70
     1
  0
VERTEX
  5
142A
  8
0
  6
CONTINUOUS
 10
450.71926367348118
 20
280.5259398252557
 30
0.0
  0
VERTEX
  5
142B
  8
0
  6
CONTINUOUS
 10
446.67781178915379
 20
273.5259398252557
 30
0.0
  0
VERTEX
  5
142C
  8
0
  6
CONTINUOUS
 10
450.71926367348118
 20
266.5259398252557
 30
0.0
  0
VERTEX
  5
142D
  8
0
  6
CONTINUOUS
 10
458.8021674421359
 20
266.5259398252557
 30
0.0
  0
VERTEX
  5
142E
  8
0
  6
CONTINUOUS
 10
462.8436193264634
 20
273.5259398252557
 30
0.0
  0
VERTEX
  5
142F
  8
0
  6
CONTINUOUS
 10
458.8021674421359
 20
280.5259398252557
 30
0.0
  0
SEQEND
  5
1430
  8
0
  6
CONTINUOUS
  0
CIRCLE
  5
C99
  8
0
  6
CONTINUOUS
 10
454.76071555780862
 20
273.5259398252557
 30
0.0
 40
7.0
  0
CIRCLE
  5
C9A
  8
0
  6
CONTINUOUS
 10
454.76071555780862
 20
273.5259398252557
 30
0.0
 40
4.0
  0
LINE
  5
C9B
  8
CENTER
  6
CENTER
 10
444.76071555780862
 20
273.5259398252557
 30
0.0
 11
464.76071555780862
 21
273.5259398252557
 31
0.0
  0
CIRCLE
  5
C9C
  8
0
  6
CONTINUOUS
 10
457.47391899340499
 20
166.85930166954279
 30
0.0
 40
2.0499999999999989
  0
LINE
  5
C9D
  8
CENTER
  6
CENTER
 10
453.19592296722641
 20
162.58130564336409
 30
0.0
 11
461.75191501958358
 21
171.1372976957214
 31
0.0
  0
ARC
  5
C9E
  8
0
  6
CONTINUOUS
 62
     2
 10
457.47391899340488
 20
166.85930166954279
 30
0.0
 40
2.5
 50
201.03635853977079
 51
155.01845143419189
  0
LINE
  5
C9F
  8
CENTER
  6
CENTER
 10
398.76071555780862
 20
145.6460982339463
 30
0.0
 11
473.76071555780862
 21
145.6460982339463
 31
0.0
  0
LINE
  5
CA0
  8
0
 10
398.76071555780862
 20
201.1460982339463
 30
0.0
 11
473.76071555780862
 21
201.1460982339463
 31
0.0
  0
LINE
  5
CA1
  8
DIM
  6
CONTINUOUS
 10
401.76071555780862
 20
235.5259398252557
 30
0.0
 11
470.76071555780862
 21
235.5259398252557
 31
0.0
  0
LINE
  5
CA2
  8
DIM
  6
CONTINUOUS
 10
403.26071555780862
 20
243.52593982525559
 30
0.0
 11
469.26071555780862
 21
243.52593982525559
 31
0.0
  0
LINE
  5
CA3
  8
0
  6
CONTINUOUS
 10
401.26071555780862
 20
332.5259398252557
 30
0.0
 11
471.26071555780862
 21
332.5259398252557
 31
0.0
  0
LINE
  5
CA4
  8
0
  6
CONTINUOUS
 10
401.26071555780862
 20
251.5259398252557
 30
0.0
 11
471.26071555780862
 21
251.5259398252557
 31
0.0
  0
LINE
  5
CA5
  8
0
  6
CONTINUOUS
 10
398.76071555780862
 20
259.5259398252557
 30
0.0
 11
473.76071555780862
 21
259.5259398252557
 31
0.0
  0
LINE
  5
CA6
  8
0
  6
CONTINUOUS
 10
398.76071555780862
 20
324.5259398252557
 30
0.0
 11
473.76071555780862
 21
324.52593982525559
 31
0.0
  0
LINE
  5
CA7
  8
DIM
  6
CONTINUOUS
 10
422.78555939747059
 20
331.52593982525582
 30
0.0
 11
383.26071555780862
 21
331.52593982525582
 31
0.0
  0
POLYLINE
  5
CA8
  8
0
  6
CONTINUOUS
 66
     1
 10
0.0
 20
0.0
 30
0.0
 70
     1
 40
1.0
 41
1.0
  0
VERTEX
  5
1431
  8
0
  6
CONTINUOUS
 10
436.76071555780851
 20
292.0259398252557
 30
0.0
 42
1.0
  0
VERTEX
  5
1432
  8
0
  6
CONTINUOUS
 10
435.76071555780862
 20
292.0259398252557
 30
0.0
 42
1.0
  0
SEQEND
  5
1433
  8
0
  6
CONTINUOUS
  0
CIRCLE
  5
CAC
  8
0
  6
CONTINUOUS
 10
436.26071555780862
 20
292.0259398252557
 30
0.0
 40
4.0
  0
LINE
  5
CAD
  8
CENTER
  6
CENTER
 10
454.76071555780862
 20
184.88964590099829
 30
0.0
 11
454.76071555780862
 21
212.1460982339463
 31
0.0
  0
LINE
  5
CAE
  8
0
  6
CONTINUOUS
 62
     2
 10
457.96071555780929
 20
206.1460982339463
 30
0.0
 11
457.96071555780929
 21
208.74609823394479
 31
0.0
  0
LINE
  5
CAF
  8
0
  6
CONTINUOUS
 10
447.26071555780862
 20
205.45325758729589
 30
0.0
 11
448.46071555780929
 21
206.1460982339463
 31
0.0
  0
POLYLINE
  5
CB0
  8
0
  6
CONTINUOUS
 66
     1
 10
0.0
 20
0.0
 30
0.0
  0
VERTEX
  5
1434
  8
0
  6
CONTINUOUS
 10
454.76071555780862
 20
206.1460982339463
 30
0.0
 42
0.0851703918331037
  0
VERTEX
  5
1435
  8
0
  6
CONTINUOUS
 10
450.76071555780862
 20
205.4580982339462
 30
0.0
 42
0.3457679526359281
  0
VERTEX
  5
1436
  8
0
  6
CONTINUOUS
 10
447.86071555780899
 20
205.79967791062111
 30
0.0
  0
SEQEND
  5
1437
  8
0
  6
CONTINUOUS
  0
LINE
  5
CB5
  8
0
  6
CONTINUOUS
 10
450.76071555780862
 20
207.94609823394561
 30
0.0
 11
451.96071555780929
 21
209.1460982339463
 31
0.0
  0
LINE
  5
CB6
  8
0
  6
CONTINUOUS
 10
451.96071555780929
 20
209.1460982339463
 30
0.0
 11
457.56071555780778
 21
209.14609823394639
 31
0.0
  0
LINE
  5
CB7
  8
0
  6
CONTINUOUS
 10
450.76071555780862
 20
206.1460982339463
 30
0.0
 11
450.76071555780862
 21
207.94609823394561
 31
0.0
  0
LINE
  5
CB8
  8
0
  6
CONTINUOUS
 62
     2
 10
451.5607155578079
 20
206.1460982339463
 30
0.0
 11
451.5607155578079
 21
208.74609823394479
 31
0.0
  0
LINE
  5
CB9
  8
0
  6
CONTINUOUS
 10
447.26071555780868
 20
201.83893888059669
 30
0.0
 11
448.46071555780929
 21
201.1460982339463
 31
0.0
  0
POLYLINE
  5
CBA
  8
0
  6
CONTINUOUS
 66
     1
 10
0.0
 20
0.0
 30
0.0
  0
VERTEX
  5
1438
  8
0
  6
CONTINUOUS
 10
454.76071555780862
 20
201.1460982339463
 30
0.0
 42
-0.0851703918331037
  0
VERTEX
  5
1439
  8
0
  6
CONTINUOUS
 10
450.76071555780862
 20
201.83409823394641
 30
0.0
 42
-0.3457679526359281
  0
VERTEX
  5
143A
  8
0
  6
CONTINUOUS
 10
447.86071555780899
 20
201.4925185572715
 30
0.0
  0
SEQEND
  5
143B
  8
0
  6
CONTINUOUS
  0
LINE
  5
CBF
  8
0
  6
CONTINUOUS
 10
450.76071555780862
 20
201.83409823394641
 30
0.0
 11
450.76071555780862
 21
205.4580982339462
 31
0.0
  0
LINE
  5
CC0
  8
0
  6
CONTINUOUS
 10
447.26071555780862
 20
201.83893888059669
 30
0.0
 11
447.26071555780862
 21
205.45325758729589
 31
0.0
  0
ARC
  5
CC1
  8
0
  6
CONTINUOUS
 62
     2
 10
454.76071555780862
 20
273.5259398252557
 30
0.0
 40
3.399999999999999
 50
74.242562599195679
 51
23.283227219290101
  0
POLYLINE
  5
CC2
  8
0
  6
CONTINUOUS
 66
     1
 10
0.0
 20
0.0
 30
0.0
 70
     1
  0
VERTEX
  5
143C
  8
0
  6
CONTINUOUS
 10
453.60601501942858
 20
275.5259398252557
 30
0.0
  0
VERTEX
  5
143D
  8
0
  6
CONTINUOUS
 10
452.45131448105042
 20
273.5259398252557
 30
0.0
  0
VERTEX
  5
143E
  8
0
  6
CONTINUOUS
 10
453.60601501942858
 20
271.5259398252557
 30
0.0
  0
VERTEX
  5
143F
  8
0
  6
CONTINUOUS
 10
455.91541609618849
 20
271.5259398252557
 30
0.0
  0
VERTEX
  5
1440
  8
0
  6
CONTINUOUS
 10
457.07011663456672
 20
273.5259398252557
 30
0.0
  0
VERTEX
  5
1441
  8
0
  6
CONTINUOUS
 10
455.91541609618849
 20
275.5259398252557
 30
0.0
  0
SEQEND
  5
1442
  8
0
  6
CONTINUOUS
  0
LINE
  5
CCA
  8
CENTER
  6
CENTER
 10
454.76071555780862
 20
283.5259398252557
 30
0.0
 11
454.76071555780862
 21
263.5259398252557
 31
0.0
  0
POLYLINE
  5
CCB
  8
0
  6
CONTINUOUS
 66
     1
 10
0.0
 20
0.0
 30
0.0
  0
VERTEX
  5
1443
  8
0
  6
CONTINUOUS
 10
417.76071555780862
 20
206.1460982339463
 30
0.0
 42
0.0851703918331037
  0
VERTEX
  5
1444
  8
0
  6
CONTINUOUS
 10
413.76071555780862
 20
205.4580982339462
 30
0.0
 42
0.3457679526359281
  0
VERTEX
  5
1445
  8
0
  6
CONTINUOUS
 10
410.86071555780899
 20
205.79967791062111
 30
0.0
  0
SEQEND
  5
1446
  8
0
  6
CONTINUOUS
  0
LINE
  5
CD0
  8
0
  6
CONTINUOUS
 10
413.76071555780862
 20
207.94609823394561
 30
0.0
 11
414.96071555780941
 21
209.1460982339463
 31
0.0
  0
LINE
  5
CD1
  8
0
  6
CONTINUOUS
 10
421.76071555780862
 20
207.94609823394561
 30
0.0
 11
413.76071555780862
 21
207.94609823394561
 31
0.0
  0
LINE
  5
CD2
  8
0
  6
CONTINUOUS
 10
424.0607155578079
 20
206.1460982339463
 30
0.0
 11
411.46071555780918
 21
206.1460982339463
 31
0.0
  0
POLYLINE
  5
CD3
  8
0
  6
CONTINUOUS
 66
     1
 10
0.0
 20
0.0
 30
0.0
  0
VERTEX
  5
1447
  8
0
  6
CONTINUOUS
 10
417.76071555780851
 20
201.1460982339463
 30
0.0
 42
-0.0851703918331037
  0
VERTEX
  5
1448
  8
0
  6
CONTINUOUS
 10
413.76071555780851
 20
201.83409823394641
 30
0.0
 42
-0.3457679526359281
  0
VERTEX
  5
1449
  8
0
  6
CONTINUOUS
 10
410.86071555780887
 20
201.4925185572715
 30
0.0
  0
SEQEND
  5
144A
  8
0
  6
CONTINUOUS
  0
LINE
  5
CD8
  8
CENTER
  6
CENTER
 10
406.26071555780862
 20
169.6460982339463
 30
0.0
 11
406.26071555780862
 21
181.6460982339463
 31
0.0
  0
CIRCLE
  5
CD9
  8
0
  6
CONTINUOUS
 10
406.26071555780862
 20
175.6460982339463
 30
0.0
 40
2.5
  0
ARC
  5
CDA
  8
0
  6
CONTINUOUS
 62
     2
 10
406.26071555780862
 20
175.6460982339463
 30
0.0
 40
3.0
 50
338.35967540570613
 51
287.47149231941358
  0
LINE
  5
CDB
  8
CENTER
  6
CENTER
 10
400.26071555780862
 20
175.64609823394619
 30
0.0
 11
412.26071555780851
 21
175.6460982339463
 31
0.0
  0
LINE
  5
CDC
  8
0
  6
CONTINUOUS
 10
410.26071555780862
 20
205.45325758729589
 30
0.0
 11
411.46071555780929
 21
206.1460982339463
 31
0.0
  0
LINE
  5
CDD
  8
0
  6
CONTINUOUS
 62
     2
 10
414.5607155578079
 20
206.1460982339463
 30
0.0
 11
414.5607155578079
 21
208.74609823394479
 31
0.0
  0
LINE
  5
CDE
  8
0
  6
CONTINUOUS
 10
413.76071555780851
 20
206.1460982339463
 30
0.0
 11
413.76071555780862
 21
207.94609823394561
 31
0.0
  0
LINE
  5
CDF
  8
0
  6
CONTINUOUS
 10
410.26071555780851
 20
201.83893888059669
 30
0.0
 11
411.46071555780918
 21
201.1460982339463
 31
0.0
  0
LINE
  5
CE0
  8
0
  6
CONTINUOUS
 10
410.26071555780862
 20
201.83893888059669
 30
0.0
 11
410.26071555780862
 21
205.45325758729589
 31
0.0
  0
LINE
  5
CE1
  8
0
  6
CONTINUOUS
 10
413.76071555780862
 20
201.83409823394649
 30
0.0
 11
413.76071555780862
 21
205.4580982339462
 31
0.0
  0
LINE
  5
CE2
  8
0
  6
CONTINUOUS
 10
425.26071555780862
 20
205.45325758729589
 30
0.0
 11
424.0607155578079
 21
206.1460982339463
 31
0.0
  0
POLYLINE
  5
CE3
  8
0
  6
CONTINUOUS
 66
     1
 10
0.0
 20
0.0
 30
0.0
  0
VERTEX
  5
144B
  8
0
  6
CONTINUOUS
 10
417.76071555780862
 20
206.1460982339463
 30
0.0
 42
-0.0851703918331037
  0
VERTEX
  5
144C
  8
0
  6
CONTINUOUS
 10
421.76071555780862
 20
205.4580982339462
 30
0.0
 42
-0.3457679526359281
  0
VERTEX
  5
144D
  8
0
  6
CONTINUOUS
 10
424.6607155578082
 20
205.79967791062111
 30
0.0
  0
SEQEND
  5
144E
  8
0
  6
CONTINUOUS
  0
LINE
  5
CE8
  8
CENTER
  6
CENTER
 10
417.76071555780862
 20
184.88964590099829
 30
0.0
 11
417.76071555780862
 21
212.1460982339463
 31
0.0
  0
LINE
  5
CE9
  8
0
  6
CONTINUOUS
 10
421.76071555780862
 20
207.94609823394561
 30
0.0
 11
420.56071555780778
 21
209.1460982339463
 31
0.0
  0
LINE
  5
CEA
  8
0
  6
CONTINUOUS
 10
420.56071555780778
 20
209.1460982339463
 30
0.0
 11
414.96071555780941
 21
209.14609823394639
 31
0.0
  0
LINE
  5
CEB
  8
0
  6
CONTINUOUS
 10
421.76071555780862
 20
206.1460982339463
 30
0.0
 11
421.76071555780862
 21
207.94609823394561
 31
0.0
  0
LINE
  5
CEC
  8
0
  6
CONTINUOUS
 62
     2
 10
420.96071555780929
 20
206.1460982339463
 30
0.0
 11
420.96071555780929
 21
208.74609823394479
 31
0.0
  0
LINE
  5
CED
  8
0
  6
CONTINUOUS
 10
425.26071555780851
 20
201.83893888059669
 30
0.0
 11
424.06071555780778
 21
201.1460982339463
 31
0.0
  0
POLYLINE
  5
CEE
  8
0
  6
CONTINUOUS
 66
     1
 10
0.0
 20
0.0
 30
0.0
  0
VERTEX
  5
144F
  8
0
  6
CONTINUOUS
 10
417.76071555780851
 20
201.1460982339463
 30
0.0
 42
0.0851703918331037
  0
VERTEX
  5
1450
  8
0
  6
CONTINUOUS
 10
421.76071555780851
 20
201.83409823394641
 30
0.0
 42
0.3457679526359281
  0
VERTEX
  5
1451
  8
0
  6
CONTINUOUS
 10
424.66071555780809
 20
201.4925185572715
 30
0.0
  0
SEQEND
  5
1452
  8
0
  6
CONTINUOUS
  0
LINE
  5
CF3
  8
0
  6
CONTINUOUS
 10
421.76071555780862
 20
201.83409823394641
 30
0.0
 11
421.76071555780862
 21
205.4580982339462
 31
0.0
  0
LINE
  5
CF4
  8
0
  6
CONTINUOUS
 10
425.26071555780862
 20
201.83893888059669
 30
0.0
 11
425.26071555780862
 21
205.45325758729589
 31
0.0
  0
POLYLINE
  5
CF5
  8
0
  6
CONTINUOUS
 66
     1
 10
0.0
 20
0.0
 30
0.0
 70
     1
  0
VERTEX
  5
1453
  8
0
  6
CONTINUOUS
 10
413.71926367348118
 20
280.5259398252557
 30
0.0
  0
VERTEX
  5
1454
  8
0
  6
CONTINUOUS
 10
409.67781178915379
 20
273.5259398252557
 30
0.0
  0
VERTEX
  5
1455
  8
0
  6
CONTINUOUS
 10
413.71926367348118
 20
266.5259398252557
 30
0.0
  0
VERTEX
  5
1456
  8
0
  6
CONTINUOUS
 10
421.8021674421359
 20
266.5259398252557
 30
0.0
  0
VERTEX
  5
1457
  8
0
  6
CONTINUOUS
 10
425.8436193264634
 20
273.5259398252557
 30
0.0
  0
VERTEX
  5
1458
  8
0
  6
CONTINUOUS
 10
421.8021674421359
 20
280.5259398252557
 30
0.0
  0
SEQEND
  5
1459
  8
0
  6
CONTINUOUS
  0
CIRCLE
  5
CFD
  8
0
  6
CONTINUOUS
 10
417.76071555780862
 20
273.5259398252557
 30
0.0
 40
7.0
  0
POLYLINE
  5
CFE
  8
0
  6
CONTINUOUS
 66
     1
 10
0.0
 20
0.0
 30
0.0
 70
     1
  0
VERTEX
  5
145A
  8
0
  6
CONTINUOUS
 10
416.60601501942858
 20
275.5259398252557
 30
0.0
  0
VERTEX
  5
145B
  8
0
  6
CONTINUOUS
 10
415.45131448105042
 20
273.5259398252557
 30
0.0
  0
VERTEX
  5
145C
  8
0
  6
CONTINUOUS
 10
416.60601501942858
 20
271.5259398252557
 30
0.0
  0
VERTEX
  5
145D
  8
0
  6
CONTINUOUS
 10
418.91541609618849
 20
271.5259398252557
 30
0.0
  0
VERTEX
  5
145E
  8
0
  6
CONTINUOUS
 10
420.07011663456672
 20
273.5259398252557
 30
0.0
  0
VERTEX
  5
145F
  8
0
  6
CONTINUOUS
 10
418.91541609618849
 20
275.5259398252557
 30
0.0
  0
SEQEND
  5
1460
  8
0
  6
CONTINUOUS
  0
ARC
  5
D06
  8
0
  6
CONTINUOUS
 62
     2
 10
417.76071555780862
 20
273.5259398252557
 30
0.0
 40
3.399999999999999
 50
74.242562599195679
 51
23.283227219290101
  0
CIRCLE
  5
D07
  8
0
  6
CONTINUOUS
 10
417.76071555780862
 20
273.5259398252557
 30
0.0
 40
4.0
  0
LINE
  5
D08
  8
CENTER
  6
CENTER
 10
417.76071555780862
 20
283.5259398252557
 30
0.0
 11
417.76071555780862
 21
263.5259398252557
 31
0.0
  0
TEXT
  5
D09
  8
DIM
  6
CONTINUOUS
 10
382.76071555780862
 20
326.22777768583222
 30
0.0
 40
3.0
  1
1
 50
90.0
  7
ROMANSS
 72
     1
 11
381.26071555780862
 21
326.584920542975
 31
0.0
 73
     2
  0
SOLID
  5
D0A
  8
DIM
  6
CONTINUOUS
 10
383.76071555780862
 20
328.52593982525582
 30
0.0
 11
384.76071555780862
 21
328.52593982525582
 31
0.0
 12
384.26071555780862
 22
331.52593982525582
 32
0.0
 13
384.26071555780862
 23
331.52593982525582
 33
0.0
  0
LINE
  5
D0B
  8
DIM
  6
CONTINUOUS
 10
400.15423483930471
 20
332.5259398252557
 30
0.0
 11
383.26071555780862
 21
332.52593982525582
 31
0.0
  0
TEXT
  5
D0C
  8
DIM
  6
CONTINUOUS
 10
432.47500127209429
 20
229.0259398252557
 30
0.0
 40
3.0
  1
326
  7
ROMANSS
 72
     1
 11
436.26071555780862
 21
230.5259398252557
 31
0.0
 73
     2
  0
TEXT
  5
D0D
  8
DIM
  6
CONTINUOUS
 10
433.83214412923718
 20
237.0259398252557
 30
0.0
 40
3.0
  1
75
  7
ROMANSS
 72
     1
 11
436.26071555780862
 21
238.5259398252557
 31
0.0
 73
     2
  0
SOLID
  5
D0E
  8
DIM
  6
CONTINUOUS
 10
401.76071555780862
 20
236.0259398252557
 30
0.0
 11
401.76071555780862
 21
235.0259398252557
 31
0.0
 12
398.76071555780862
 22
235.5259398252557
 32
0.0
 13
398.76071555780862
 23
235.5259398252557
 33
0.0
  0
LINE
  5
D0F
  8
DIM
  6
CONTINUOUS
 10
398.76071555780862
 20
258.52593982525559
 30
0.0
 11
398.76071555780862
 21
234.5259398252557
 31
0.0
  0
TEXT
  5
D10
  8
DIM
  6
CONTINUOUS
 10
432.47500127209429
 20
245.0259398252557
 30
0.0
 40
3.0
  1
%%c72
  7
ROMANSS
 72
     1
 11
436.26071555780862
 21
246.5259398252557
 31
0.0
 73
     2
  0
SOLID
  5
D11
  8
DIM
  6
CONTINUOUS
 10
403.26071555780862
 20
244.02593982525559
 30
0.0
 11
403.26071555780862
 21
243.0259398252557
 31
0.0
 12
400.26071555780862
 22
243.52593982525559
 32
0.0
 13
400.26071555780862
 23
243.52593982525559
 33
0.0
  0
LINE
  5
D12
  8
DIM
  6
CONTINUOUS
 10
400.26071555780862
 20
251.5259398252557
 30
0.0
 11
400.26071555780862
 21
242.5259398252557
 31
0.0
  0
LINE
  5
D13
  8
CENTER
  6
CENTER
 10
406.26071555780868
 20
273.30489256945248
 30
0.0
 11
406.26071555780868
 21
256.57338562340931
 31
0.0
  0
LINE
  5
D14
  8
CENTER
  6
CENTER
 10
406.26071555780868
 20
311.2761604230509
 30
0.0
 11
406.26071555780868
 21
327.4784940271021
 31
0.0
  0
LINE
  5
D15
  8
0
  6
CONTINUOUS
 10
400.26071555780862
 20
331.5259398252557
 30
0.0
 11
401.26071555780862
 21
332.5259398252557
 31
0.0
  0
LINE
  5
D16
  8
0
 10
400.26071555780862
 20
324.5259398252557
 30
0.0
 11
400.26071555780862
 21
331.5259398252557
 31
0.0
  0
LINE
  5
D17
  8
0
  6
CONTINUOUS
 10
400.26071555780862
 20
252.5259398252557
 30
0.0
 11
401.26071555780862
 21
251.5259398252557
 31
0.0
  0
LINE
  5
D18
  8
0
 10
400.26071555780862
 20
259.5259398252557
 30
0.0
 11
400.26071555780862
 21
252.5259398252557
 31
0.0
  0
LINE
  5
D19
  8
0
 10
398.76071555780862
 20
324.5259398252557
 30
0.0
 11
398.76071555780862
 21
259.5259398252557
 31
0.0
  0
LINE
  5
D1A
  8
CENTER
  6
CENTER
 10
407.76071555780851
 20
273.5259398252557
 30
0.0
 11
427.76071555780862
 21
273.5259398252557
 31
0.0
  0
LINE
  5
D1B
  8
0
  6
CONTINUOUS
 10
462.26071555780862
 20
205.45325758729589
 30
0.0
 11
461.0607155578079
 21
206.1460982339463
 31
0.0
  0
LINE
  5
D1C
  8
0
  6
CONTINUOUS
 10
458.76071555780862
 20
206.1460982339463
 30
0.0
 11
458.76071555780862
 21
207.94609823394561
 31
0.0
  0
LINE
  5
D1D
  8
0
  6
CONTINUOUS
 10
462.26071555780862
 20
201.83893888059669
 30
0.0
 11
461.0607155578079
 21
201.1460982339463
 31
0.0
  0
LINE
  5
D1E
  8
0
  6
CONTINUOUS
 10
462.26071555780862
 20
201.83893888059669
 30
0.0
 11
462.26071555780862
 21
205.45325758729589
 31
0.0
  0
LINE
  5
D1F
  8
0
  6
CONTINUOUS
 10
458.76071555780862
 20
201.83409823394649
 30
0.0
 11
458.76071555780862
 21
205.4580982339462
 31
0.0
  0
LINE
  5
D20
  8
CENTER
  6
CENTER
 10
460.26071555780862
 20
175.6460982339463
 30
0.0
 11
472.26071555780862
 21
175.6460982339463
 31
0.0
  0
LINE
  5
D21
  8
CENTER
  6
CENTER
 10
466.26071555780851
 20
169.6460982339463
 30
0.0
 11
466.26071555780851
 21
181.6460982339463
 31
0.0
  0
CIRCLE
  5
D22
  8
0
  6
CONTINUOUS
 10
466.26071555780851
 20
175.6460982339463
 30
0.0
 40
2.5
  0
ARC
  5
D23
  8
0
  6
CONTINUOUS
 62
     2
 10
466.26071555780851
 20
175.6460982339463
 30
0.0
 40
3.0
 50
338.35967540570613
 51
287.47149231941358
  0
SOLID
  5
D24
  8
DIM
  6
CONTINUOUS
 10
470.76071555780862
 20
236.0259398252557
 30
0.0
 11
470.76071555780862
 21
235.0259398252557
 31
0.0
 12
473.76071555780862
 22
235.5259398252557
 32
0.0
 13
473.76071555780862
 23
235.5259398252557
 33
0.0
  0
LINE
  5
D25
  8
DIM
  6
CONTINUOUS
 10
473.76071555780862
 20
258.52593982525559
 30
0.0
 11
473.76071555780862
 21
234.5259398252557
 31
0.0
  0
SOLID
  5
D26
  8
DIM
  6
CONTINUOUS
 10
469.26071555780862
 20
244.02593982525559
 30
0.0
 11
469.26071555780862
 21
243.0259398252557
 31
0.0
 12
472.26071555780862
 22
243.52593982525559
 32
0.0
 13
472.26071555780862
 23
243.52593982525559
 33
0.0
  0
LINE
  5
D27
  8
DIM
  6
CONTINUOUS
 10
472.26071555780862
 20
251.5259398252557
 30
0.0
 11
472.26071555780862
 21
242.5259398252557
 31
0.0
  0
LINE
  5
D28
  8
CENTER
  6
CENTER
 10
466.26071555780851
 20
310.95336701204042
 30
0.0
 11
466.26071555780851
 21
327.4784940271021
 31
0.0
  0
LINE
  5
D29
  8
CENTER
  6
CENTER
 10
466.26071555780851
 20
273.33131489593382
 30
0.0
 11
466.26071555780851
 21
256.57338562340931
 31
0.0
  0
LINE
  5
D2A
  8
0
  6
CONTINUOUS
 10
472.26071555780862
 20
331.5259398252557
 30
0.0
 11
471.26071555780862
 21
332.5259398252557
 31
0.0
  0
LINE
  5
D2B
  8
0
 10
472.26071555780862
 20
324.5259398252557
 30
0.0
 11
472.26071555780862
 21
331.5259398252557
 31
0.0
  0
LINE
  5
D2C
  8
0
  6
CONTINUOUS
 10
472.26071555780862
 20
252.5259398252557
 30
0.0
 11
471.26071555780862
 21
251.5259398252557
 31
0.0
  0
LINE
  5
D2D
  8
0
 10
472.26071555780862
 20
259.5259398252557
 30
0.0
 11
472.26071555780862
 21
252.5259398252557
 31
0.0
  0
LINE
  5
D2E
  8
0
 10
473.76071555780862
 20
324.52593982525559
 30
0.0
 11
473.76071555780862
 21
259.5259398252557
 31
0.0
  0
LINE
  5
D2F
  8
DIM
  6
CONTINUOUS
 10
658.62079384892638
 20
235.5259398252557
 30
0.0
 11
745.62079384892638
 21
235.5259398252557
 31
0.0
  0
LINE
  5
D30
  8
CENTER
  6
CENTER
 10
652.51643831840136
 20
284.5259398252557
 30
0.0
 11
666.24437878693379
 21
284.5259398252557
 31
0.0
  0
LINE
  5
D31
  8
CENTER
  6
CENTER
 10
652.61433860737884
 20
296.02593982525559
 30
0.0
 11
672.0143386073787
 21
296.02593982525559
 31
0.0
  0
LINE
  5
D32
  8
0
  6
CONTINUOUS
 10
655.6207938489265
 20
259.5259398252557
 30
0.0
 11
748.6207938489265
 21
259.5259398252557
 31
0.0
  0
LINE
  5
D33
  8
0
  6
CONTINUOUS
 10
655.6207938489265
 20
324.5259398252557
 30
0.0
 11
748.6207938489265
 21
324.52593982525559
 31
0.0
  0
POLYLINE
  5
D34
  8
0
 66
     1
 10
0.0
 20
0.0
 30
0.0
 70
     1
  0
VERTEX
  5
1461
  8
0
 10
661.6207938489265
 20
274.75799063282471
 30
0.0
  0
VERTEX
  5
1462
  8
0
 10
661.6207938489265
 20
271.29388901768692
 30
0.0
  0
VERTEX
  5
1463
  8
0
 10
664.6207938489265
 20
269.56183821011803
 30
0.0
  0
VERTEX
  5
1464
  8
0
 10
667.62079384892638
 20
271.29388901768692
 30
0.0
  0
VERTEX
  5
1465
  8
0
 10
667.62079384892638
 20
274.75799063282471
 30
0.0
  0
VERTEX
  5
1466
  8
0
 10
664.6207938489265
 20
276.4900414403935
 30
0.0
  0
SEQEND
  5
1467
  8
0
  0
CIRCLE
  5
D3C
  8
0
 10
664.6207938489265
 20
273.0259398252557
 30
0.0
 40
5.0
  0
CIRCLE
  5
D3D
  8
0
 10
664.6207938489265
 20
273.0259398252557
 30
0.0
 40
5.5
  0
POLYLINE
  5
D3E
  8
0
 66
     1
 10
0.0
 20
0.0
 30
0.0
 70
     1
  0
VERTEX
  5
1468
  8
0
 10
661.6207938489265
 20
312.75799063282471
 30
0.0
  0
VERTEX
  5
1469
  8
0
 10
661.6207938489265
 20
309.29388901768692
 30
0.0
  0
VERTEX
  5
146A
  8
0
 10
664.6207938489265
 20
307.56183821011803
 30
0.0
  0
VERTEX
  5
146B
  8
0
 10
667.62079384892638
 20
309.29388901768692
 30
0.0
  0
VERTEX
  5
146C
  8
0
 10
667.62079384892638
 20
312.75799063282471
 30
0.0
  0
VERTEX
  5
146D
  8
0
 10
664.6207938489265
 20
314.4900414403935
 30
0.0
  0
SEQEND
  5
146E
  8
0
  0
CIRCLE
  5
D46
  8
0
 10
664.6207938489265
 20
311.0259398252557
 30
0.0
 40
5.5
  0
CIRCLE
  5
D47
  8
0
 10
664.6207938489265
 20
311.0259398252557
 30
0.0
 40
5.0
  0
LINE
  5
D48
  8
CENTER
  6
CENTER
 10
658.12079384892638
 20
311.0259398252557
 30
0.0
 11
671.12079384892638
 21
311.0259398252557
 31
0.0
  0
LINE
  5
D49
  8
0
 10
661.1207938489265
 20
293.02593982525559
 30
0.0
 11
664.72635022123541
 21
293.02593982525559
 31
0.0
  0
LINE
  5
D4A
  8
0
 10
661.1207938489265
 20
291.0259398252557
 30
0.0
 11
664.72635022123541
 21
291.0259398252557
 31
0.0
  0
ARC
  5
D4B
  8
0
 10
664.6207938489265
 20
311.02593982525559
 30
0.0
 40
7.5
 50
245.68426082882789
 51
304.1930771251387
  0
LINE
  5
D4C
  8
0
 10
665.58984564158777
 20
287.03553860795228
 30
0.0
 11
661.1207938489265
 21
287.03553860795228
 31
0.0
  0
ARC
  5
D4D
  8
0
 10
664.6207938489265
 20
273.0259398252557
 30
0.0
 40
7.5
 50
55.806922874861257
 51
114.3157391711738
  0
LINE
  5
D4E
  8
CENTER
  6
CENTER
 10
658.12079384892638
 20
273.0259398252557
 30
0.0
 11
671.12079384892638
 21
273.0259398252557
 31
0.0
  0
LINE
  5
D4F
  8
CENTER
  6
CENTER
 10
652.6207938489265
 20
292.0259398252557
 30
0.0
 11
751.6207938489265
 21
292.0259398252557
 31
0.0
  0
POLYLINE
  5
D50
  8
0
 66
     1
 10
0.0
 20
0.0
 30
0.0
 70
     1
  0
VERTEX
  5
146F
  8
0
 10
709.62079384892638
 20
311.0259398252557
 30
0.0
 42
0.4142135623730951
  0
VERTEX
  5
1470
  8
0
 10
702.62079384892616
 20
318.0259398252557
 30
0.0
  0
VERTEX
  5
1471
  8
0
 10
664.6207938489265
 20
318.0259398252557
 30
0.0
 42
0.4142135623730951
  0
VERTEX
  5
1472
  8
0
 10
657.6207938489265
 20
311.0259398252557
 30
0.0
  0
VERTEX
  5
1473
  8
0
 10
657.6207938489265
 20
273.0259398252557
 30
0.0
 42
0.4142135623730951
  0
VERTEX
  5
1474
  8
0
 10
664.6207938489265
 20
266.0259398252557
 30
0.0
  0
VERTEX
  5
1475
  8
0
 10
702.62079384892616
 20
266.0259398252557
 30
0.0
 42
0.4142135623730957
  0
VERTEX
  5
1476
  8
0
 10
709.62079384892638
 20
273.0259398252557
 30
0.0
  0
SEQEND
  5
1477
  8
0
  0
POLYLINE
  5
D5A
  8
0
 66
     1
 10
0.0
 20
0.0
 30
0.0
 70
     1
  0
VERTEX
  5
1478
  8
0
 10
710.1207938489265
 20
311.0259398252557
 30
0.0
 42
0.4142135623730951
  0
VERTEX
  5
1479
  8
0
 10
702.62079384892616
 20
318.5259398252557
 30
0.0
  0
VERTEX
  5
147A
  8
0
 10
664.6207938489265
 20
318.5259398252557
 30
0.0
 42
0.4142135623730951
  0
VERTEX
  5
147B
  8
0
 10
657.1207938489265
 20
311.0259398252557
 30
0.0
  0
VERTEX
  5
147C
  8
0
 10
657.1207938489265
 20
273.0259398252557
 30
0.0
 42
0.4142135623730951
  0
VERTEX
  5
147D
  8
0
 10
664.6207938489265
 20
265.5259398252557
 30
0.0
  0
VERTEX
  5
147E
  8
0
 10
702.62079384892616
 20
265.5259398252557
 30
0.0
 42
0.4142135623730951
  0
VERTEX
  5
147F
  8
0
 10
710.1207938489265
 20
273.0259398252557
 30
0.0
  0
SEQEND
  5
1480
  8
0
  0
LINE
  5
D64
  8
0
 10
599.26071555780857
 20
147.1460982339463
 30
0.0
 11
599.26071555780857
 21
199.1460982339463
 31
0.0
  0
LINE
  5
D65
  8
0
 10
599.26071555780857
 20
155.6460982339463
 30
0.0
 11
602.26071555780868
 21
155.6460982339463
 31
0.0
  0
ARC
  5
D66
  8
0
 10
602.26071555780868
 20
156.6460982339463
 30
0.0
 40
1.0
 50
270.0
 51
0.0
  0
ARC
  5
D67
  8
0
 10
602.26071555780868
 20
189.6460982339463
 30
0.0
 40
1.0
 50
0.0
 51
90.0
  0
LINE
  5
D68
  8
0
 10
603.26071555780857
 20
156.6460982339463
 30
0.0
 11
603.26071555780857
 21
189.6460982339463
 31
0.0
  0
LINE
  5
D69
  8
0
 10
569.26071555780868
 20
146.6460982339463
 30
0.0
 11
569.26071555780868
 21
199.6460982339463
 31
0.0
  0
LINE
  5
D6A
  8
0
 10
569.26071555780868
 20
199.6460982339463
 30
0.0
 11
599.26071555780857
 21
199.1460982339463
 31
0.0
  0
LINE
  5
D6B
  8
0
 10
569.26071555780868
 20
146.6460982339463
 30
0.0
 11
599.26071555780857
 21
147.1460982339463
 31
0.0
  0
ARC
  5
D6C
  8
0
  6
CONTINUOUS
 10
647.20381425331493
 20
270.0259398252557
 30
0.0
 40
8.4553825989882458
 50
335.54757590941512
 51
24.452424090584881
  0
ARC
  5
D6D
  8
0
  6
CONTINUOUS
 10
647.20381425331493
 20
277.0259398252557
 30
0.0
 40
8.4553825989882458
 50
335.54757590941512
 51
24.452424090584881
  0
LINE
  5
D6E
  8
0
  6
CONTINUOUS
 10
647.6207938489265
 20
270.72593982525638
 30
0.0
 11
647.6207938489265
 21
276.32593982525492
 31
0.0
  0
LINE
  5
D6F
  8
0
  6
CONTINUOUS
 10
648.82079384892722
 20
269.5259398252557
 30
0.0
 11
647.6207938489265
 21
270.72593982525638
 31
0.0
  0
LINE
  5
D70
  8
0
  6
CONTINUOUS
 10
650.52079384892795
 20
269.5259398252557
 30
0.0
 11
648.82079384892722
 21
269.5259398252557
 31
0.0
  0
LINE
  5
D71
  8
0
  6
CONTINUOUS
 10
648.82079384892722
 20
277.5259398252557
 30
0.0
 11
647.6207938489265
 21
276.32593982525498
 31
0.0
  0
LINE
  5
D72
  8
0
  6
CONTINUOUS
 10
650.52079384892795
 20
277.5259398252557
 30
0.0
 11
648.82079384892722
 21
277.5259398252557
 31
0.0
  0
LINE
  5
D73
  8
0
  6
CONTINUOUS
 10
655.6207938489265
 20
280.5259398252557
 30
0.0
 11
655.6207938489265
 21
273.5259398252557
 31
0.0
  0
LINE
  5
D74
  8
0
  6
CONTINUOUS
 10
650.62079384892638
 20
280.5259398252557
 30
0.0
 11
655.6207938489265
 21
280.5259398252557
 31
0.0
  0
ARC
  5
D75
  8
0
  6
CONTINUOUS
 10
659.03777344453749
 20
277.0259398252557
 30
0.0
 40
8.4553825989878657
 50
155.54757590940659
 51
204.4524240905933
  0
LINE
  5
D76
  8
0
  6
CONTINUOUS
 10
654.90079384892715
 20
273.5259398252557
 30
0.0
 11
651.34079384892584
 21
273.5259398252557
 31
0.0
  0
LINE
  5
D77
  8
0
  6
CONTINUOUS
 10
655.6207938489265
 20
266.5259398252557
 30
0.0
 11
655.6207938489265
 21
273.5259398252557
 31
0.0
  0
LINE
  5
D78
  8
0
  6
CONTINUOUS
 10
650.62079384892638
 20
266.5259398252557
 30
0.0
 11
655.6207938489265
 21
266.5259398252557
 31
0.0
  0
ARC
  5
D79
  8
0
  6
CONTINUOUS
 10
659.03777344453749
 20
270.0259398252557
 30
0.0
 40
8.4553825989878657
 50
155.54757590940659
 51
204.45242409059369
  0
LINE
  5
D7A
  8
0
  6
CONTINUOUS
 10
655.6207938489265
 20
273.5259398252557
 30
0.0
 11
651.34079384892584
 21
273.5259398252557
 31
0.0
  0
LINE
  5
D7B
  8
0
  6
CONTINUOUS
 62
     2
 10
650.52079384892795
 20
276.72593982525638
 30
0.0
 11
648.02079384892795
 21
276.72593982525638
 31
0.0
  0
LINE
  5
D7C
  8
0
  6
CONTINUOUS
 10
650.62079384892638
 20
280.5259398252557
 30
0.0
 11
650.62079384892638
 21
266.5259398252557
 31
0.0
  0
LINE
  5
D7D
  8
0
  6
CONTINUOUS
 62
     2
 10
650.52079384892795
 20
270.32593982525498
 30
0.0
 11
648.02079384892795
 21
270.32593982525498
 31
0.0
  0
LINE
  5
D7E
  8
0
  6
CONTINUOUS
 10
648.82079384892722
 20
269.5259398252557
 30
0.0
 11
648.82079384892722
 21
277.5259398252557
 31
0.0
  0
LINE
  5
D7F
  8
CENTER
  6
CENTER
 10
644.81807104020618
 20
273.5259398252557
 30
0.0
 11
663.88846410409235
 21
273.5259398252557
 31
0.0
  0
SOLID
  5
D80
  8
DIM
  6
CONTINUOUS
 10
662.65271078262526
 20
316.7377627658247
 30
0.0
 11
661.77337369671318
 21
316.26156292401481
 31
0.0
 12
663.64164176509894
 22
313.86165158718359
 32
0.0
 13
663.64164176509894
 23
313.86165158718359
 33
0.0
  0
LINE
  5
D81
  8
DIM
  6
CONTINUOUS
 10
596.64405835412697
 20
334.41731033921837
 30
0.0
 11
616.83444554685593
 21
334.41731033921837
 31
0.0
  0
LINE
  5
D82
  8
DIM
  6
CONTINUOUS
 10
590.48257925584039
 20
303.46738027571593
 30
0.0
 11
616.83444554685593
 21
334.41731033921837
 31
0.0
  0
SOLID
  5
D83
  8
DIM
  6
CONTINUOUS
 10
590.86327912209504
 20
303.14323893026022
 30
0.0
 11
590.10187938958586
 21
303.79152162117168
 31
0.0
 12
588.53773118310619
 22
301.18318107818931
 32
0.0
 13
588.53773118310619
 23
301.18318107818931
 33
0.0
  0
POLYLINE
  5
D84
  8
DIM
  6
CONTINUOUS
 66
     1
 10
0.0
 20
0.0
 30
0.0
 70
     1
  0
VERTEX
  5
1481
  8
DIM
  6
CONTINUOUS
 10
635.6979134734504
 20
290.50128359718337
 30
0.0
  0
VERTEX
  5
1482
  8
DIM
  6
CONTINUOUS
 10
635.6979134734504
 20
288.61578473715451
 30
0.0
  0
VERTEX
  5
1483
  8
DIM
  6
CONTINUOUS
 10
637.63866801086601
 20
288.61578473715451
 30
0.0
  0
VERTEX
  5
1484
  8
DIM
  6
CONTINUOUS
 10
637.63866801086601
 20
290.50128359718337
 30
0.0
  0
SEQEND
  5
1485
  8
DIM
  6
CONTINUOUS
  0
POLYLINE
  5
D8A
  8
DIM
  6
CONTINUOUS
 66
     1
 10
0.0
 20
0.0
 30
0.0
 70
     1
  0
VERTEX
  5
1486
  8
DIM
  6
CONTINUOUS
 10
627.6979134734504
 20
290.50128359718337
 30
0.0
  0
VERTEX
  5
1487
  8
DIM
  6
CONTINUOUS
 10
627.6979134734504
 20
288.61578473715451
 30
0.0
  0
VERTEX
  5
1488
  8
DIM
  6
CONTINUOUS
 10
629.63866801086601
 20
288.61578473715451
 30
0.0
  0
VERTEX
  5
1489
  8
DIM
  6
CONTINUOUS
 10
629.63866801086601
 20
290.50128359718337
 30
0.0
  0
SEQEND
  5
148A
  8
DIM
  6
CONTINUOUS
  0
TEXT
  5
D90
  8
DIM
  6
CONTINUOUS
 10
609.76071555780868
 20
288.24022553954143
 30
0.0
 40
3.0
  1
%%c35
 50
90.0
  7
ROMANSS
 72
     1
 11
608.26071555780857
 21
292.0259398252557
 31
0.0
 73
     2
  0
SOLID
  5
D91
  8
DIM
  6
CONTINUOUS
 10
610.76071555780868
 20
306.5259398252557
 30
0.0
 11
611.76071555780857
 21
306.5259398252557
 31
0.0
 12
611.26071555780857
 22
309.5259398252557
 32
0.0
 13
611.26071555780857
 23
309.5259398252557
 33
0.0
  0
SOLID
  5
D92
  8
DIM
  6
CONTINUOUS
 10
610.76071555780868
 20
277.5259398252557
 30
0.0
 11
611.76071555780857
 21
277.5259398252557
 31
0.0
 12
611.26071555780857
 22
274.5259398252557
 32
0.0
 13
611.26071555780857
 23
274.5259398252557
 33
0.0
  0
LINE
  5
D93
  8
DIM
  6
CONTINUOUS
 10
611.26071555780857
 20
277.5259398252557
 30
0.0
 11
611.26071555780857
 21
306.5259398252557
 31
0.0
  0
LINE
  5
D94
  8
DIM
  6
CONTINUOUS
 10
603.26071555780857
 20
309.5259398252557
 30
0.0
 11
612.26071555780857
 21
309.5259398252557
 31
0.0
  0
LINE
  5
D95
  8
DIM
  6
CONTINUOUS
 10
603.26071555780857
 20
274.5259398252557
 30
0.0
 11
612.26071555780857
 21
274.5259398252557
 31
0.0
  0
TEXT
  5
D96
  8
DIM
  6
CONTINUOUS
 10
630.12079384892616
 20
290.94415427734373
 30
0.0
 40
3.0
  1
53
 50
90.0
  7
ROMANSS
 72
     1
 11
628.62079384892616
 21
293.37272570591517
 31
0.0
 73
     2
  0
SOLID
  5
D97
  8
DIM
  6
CONTINUOUS
 10
631.12079384892616
 20
315.5259398252557
 30
0.0
 11
632.12079384892616
 21
315.5259398252557
 31
0.0
 12
631.62079384892616
 22
318.5259398252557
 32
0.0
 13
631.62079384892616
 23
318.5259398252557
 33
0.0
  0
SOLID
  5
D98
  8
DIM
  6
CONTINUOUS
 10
631.12079384892616
 20
268.5259398252557
 30
0.0
 11
632.12079384892616
 21
268.5259398252557
 31
0.0
 12
631.62079384892616
 22
265.5259398252557
 32
0.0
 13
631.62079384892616
 23
265.5259398252557
 33
0.0
  0
LINE
  5
D99
  8
DIM
  6
CONTINUOUS
 10
631.62079384892616
 20
268.5259398252557
 30
0.0
 11
631.62079384892616
 21
315.5259398252557
 31
0.0
  0
LINE
  5
D9A
  8
DIM
  6
CONTINUOUS
 10
663.62079384892638
 20
318.5259398252557
 30
0.0
 11
630.62079384892616
 21
318.5259398252557
 31
0.0
  0
LINE
  5
D9B
  8
DIM
  6
CONTINUOUS
 10
663.62079384892638
 20
265.5259398252557
 30
0.0
 11
630.62079384892616
 21
265.5259398252557
 31
0.0
  0
TEXT
  5
D9C
  8
DIM
  6
CONTINUOUS
 10
638.12079384892627
 20
290.94415427734373
 30
0.0
 40
3.0
  1
38
 50
90.0
  7
ROMANSS
 72
     1
 11
636.62079384892616
 21
293.37272570591517
 31
0.0
 73
     2
  0
SOLID
  5
D9D
  8
DIM
  6
CONTINUOUS
 10
639.12079384892616
 20
308.0259398252557
 30
0.0
 11
640.12079384892616
 21
308.0259398252557
 31
0.0
 12
639.62079384892616
 22
311.0259398252557
 32
0.0
 13
639.62079384892616
 23
311.0259398252557
 33
0.0
  0
SOLID
  5
D9E
  8
DIM
  6
CONTINUOUS
 10
639.12079384892616
 20
276.0259398252557
 30
0.0
 11
640.12079384892616
 21
276.0259398252557
 31
0.0
 12
639.62079384892616
 22
273.0259398252557
 32
0.0
 13
639.62079384892616
 23
273.0259398252557
 33
0.0
  0
LINE
  5
D9F
  8
DIM
  6
CONTINUOUS
 10
639.62079384892616
 20
276.0259398252557
 30
0.0
 11
639.62079384892616
 21
308.0259398252557
 31
0.0
  0
LINE
  5
DA0
  8
DIM
  6
CONTINUOUS
 10
657.1207938489265
 20
311.0259398252557
 30
0.0
 11
638.62079384892616
 21
311.0259398252557
 31
0.0
  0
LINE
  5
DA1
  8
DIM
  6
CONTINUOUS
 10
657.1207938489265
 20
273.0259398252557
 30
0.0
 11
638.62079384892616
 21
273.0259398252557
 31
0.0
  0
SOLID
  5
DA2
  8
DIM
  6
CONTINUOUS
 10
658.62079384892638
 20
236.0259398252557
 30
0.0
 11
658.62079384892638
 21
235.0259398252557
 31
0.0
 12
655.6207938489265
 22
235.5259398252557
 32
0.0
 13
655.6207938489265
 23
235.5259398252557
 33
0.0
  0
LINE
  5
DA3
  8
DIM
  6
CONTINUOUS
 10
655.6207938489265
 20
258.52593982525559
 30
0.0
 11
655.6207938489265
 21
234.5259398252557
 31
0.0
  0
TEXT
  5
DA4
  8
DIM
  6
CONTINUOUS
 10
609.6086078490456
 20
229.0259398252557
 30
0.0
 40
3.0
  1
4
  7
ROMANSS
 72
     1
 11
610.68003642047415
 21
230.5259398252557
 31
0.0
 73
     2
  0
SOLID
  5
DA5
  8
DIM
  6
CONTINUOUS
 10
606.26071555780868
 20
228.0259398252557
 30
0.0
 11
606.26071555780868
 21
227.0259398252557
 31
0.0
 12
603.26071555780857
 22
227.5259398252557
 32
0.0
 13
603.26071555780857
 23
227.5259398252557
 33
0.0
  0
LINE
  5
DA6
  8
DIM
  6
CONTINUOUS
 10
603.26071555780857
 20
273.52119511208087
 30
0.0
 11
603.26071555780857
 21
226.5259398252557
 31
0.0
  0
SOLID
  5
DA7
  8
DIM
  6
CONTINUOUS
 10
596.26071555780857
 20
228.0259398252557
 30
0.0
 11
596.26071555780857
 21
227.0259398252557
 31
0.0
 12
599.26071555780857
 22
227.5259398252557
 32
0.0
 13
599.26071555780857
 23
227.5259398252557
 33
0.0
  0
LINE
  5
DA8
  8
DIM
  6
CONTINUOUS
 10
599.26071555780857
 20
265.0259398252557
 30
0.0
 11
599.26071555780857
 21
226.5259398252557
 31
0.0
  0
ARC
  5
DA9
  8
0
  6
CONTINUOUS
 10
575.76071555780857
 20
284.5259398252557
 30
0.0
 40
3.5
 50
38.213210701738312
 51
81.786789298261766
  0
ARC
  5
DAA
  8
0
  6
CONTINUOUS
 10
575.76071555780857
 20
284.5259398252557
 30
0.0
 40
3.5
 50
338.21321070173849
 51
21.786789298261379
  0
LINE
  5
DAB
  8
0
  6
CONTINUOUS
 10
575.26071555780857
 20
289.50087701078883
 30
0.0
 11
575.26071555780857
 21
287.9900414403935
 31
0.0
  0
LINE
  5
DAC
  8
0
  6
CONTINUOUS
 10
576.26071555780868
 20
289.50087701078883
 30
0.0
 11
576.26071555780868
 21
287.9900414403935
 31
0.0
  0
LINE
  5
DAD
  8
0
  6
CONTINUOUS
 10
578.51071555780868
 20
286.69100333471681
 30
0.0
 11
579.81913754271216
 21
287.44642111991448
 31
0.0
  0
LINE
  5
DAE
  8
0
  6
CONTINUOUS
 10
579.01071555780868
 20
285.82497793093239
 30
0.0
 11
580.31913754271227
 21
286.58039571613
 31
0.0
  0
ARC
  5
DAF
  8
0
  6
CONTINUOUS
 10
575.76071555780857
 20
284.5259398252557
 30
0.0
 40
3.5
 50
278.21321070173809
 51
321.78678929826162
  0
LINE
  5
DB0
  8
0
  6
CONTINUOUS
 10
575.26071555780857
 20
281.06183821011791
 30
0.0
 11
575.26071555780857
 21
279.55100263972258
 31
0.0
  0
LINE
  5
DB1
  8
0
  6
CONTINUOUS
 10
576.26071555780868
 20
281.06183821011791
 30
0.0
 11
576.26071555780868
 21
279.55100263972258
 31
0.0
  0
LINE
  5
DB2
  8
0
  6
CONTINUOUS
 10
579.81913754271216
 20
281.60545853059688
 30
0.0
 11
578.51071555780868
 21
282.3608763157946
 31
0.0
  0
LINE
  5
DB3
  8
0
  6
CONTINUOUS
 10
580.31913754271227
 20
282.47148393438141
 30
0.0
 11
579.01071555780868
 21
283.22690171957902
 31
0.0
  0
POLYLINE
  5
DB4
  8
0
  6
CONTINUOUS
 66
     1
 10
0.0
 20
0.0
 30
0.0
 70
     1
  0
VERTEX
  5
148B
  8
0
  6
CONTINUOUS
 10
574.89469015402426
 20
286.0259398252557
 30
0.0
  0
VERTEX
  5
148C
  8
0
  6
CONTINUOUS
 10
574.02866475023984
 20
284.5259398252557
 30
0.0
  0
VERTEX
  5
148D
  8
0
  6
CONTINUOUS
 10
574.89469015402426
 20
283.0259398252557
 30
0.0
  0
VERTEX
  5
148E
  8
0
  6
CONTINUOUS
 10
576.62674096159321
 20
283.0259398252557
 30
0.0
  0
VERTEX
  5
148F
  8
0
  6
CONTINUOUS
 10
577.49276636537752
 20
284.5259398252557
 30
0.0
  0
VERTEX
  5
1490
  8
0
  6
CONTINUOUS
 10
576.62674096159321
 20
286.0259398252557
 30
0.0
  0
SEQEND
  5
1491
  8
0
  6
CONTINUOUS
  0
LINE
  5
DBC
  8
0
  6
CONTINUOUS
 10
573.01071555780857
 20
286.69100333471681
 30
0.0
 11
571.70229357290498
 21
287.44642111991448
 31
0.0
  0
ARC
  5
DBD
  8
0
  6
CONTINUOUS
 10
575.76071555780857
 20
284.5259398252557
 30
0.0
 40
3.5
 50
158.21321070173769
 51
201.78678929826219
  0
LINE
  5
DBE
  8
0
  6
CONTINUOUS
 10
572.51071555780857
 20
285.82497793093239
 30
0.0
 11
571.20229357290532
 21
286.58039571613
 31
0.0
  0
LINE
  5
DBF
  8
0
  6
CONTINUOUS
 10
571.70229357290498
 20
281.60545853059688
 30
0.0
 11
573.01071555780857
 21
282.3608763157946
 31
0.0
  0
LINE
  5
DC0
  8
0
  6
CONTINUOUS
 10
571.20229357290532
 20
282.47148393438141
 30
0.0
 11
572.51071555780857
 21
283.22690171957902
 31
0.0
  0
CIRCLE
  5
DC1
  8
0
 10
575.76071555780857
 20
284.5259398252557
 30
0.0
 40
5.2999999999999989
  0
CIRCLE
  5
DC2
  8
0
 10
575.76071555780857
 20
284.5259398252557
 30
0.0
 40
5.0
  0
ARC
  5
DC3
  8
0
  6
CONTINUOUS
 10
575.76071555780857
 20
284.5259398252557
 30
0.0
 40
3.5
 50
98.213210701738234
 51
141.7867892982643
  0
ARC
  5
DC4
  8
0
  6
CONTINUOUS
 10
575.76071555780857
 20
284.5259398252557
 30
0.0
 40
3.5
 50
218.21321070173829
 51
261.78678929826179
  0
CIRCLE
  5
DC5
  8
0
  6
CONTINUOUS
 10
575.76071555780857
 20
284.5259398252557
 30
0.0
 40
2.5
  0
LINE
  5
DC6
  8
CENTER
  6
CENTER
 10
575.76071555780857
 20
277.6619695909896
 30
0.0
 11
575.76071555780857
 21
291.38991005952192
 31
0.0
  0
LINE
  5
DC7
  8
CENTER
  6
CENTER
 10
568.89674532354252
 20
284.5259398252557
 30
0.0
 11
582.62468579207484
 21
284.5259398252557
 31
0.0
  0
LINE
  5
DC8
  8
0
 10
655.6207938489265
 20
324.5259398252557
 30
0.0
 11
655.6207938489265
 21
259.5259398252557
 31
0.0
  0
LINE
  5
DC9
  8
0
 10
657.12079384892616
 20
309.5259398252557
 30
0.0
 11
657.6207938489265
 21
309.5259398252557
 31
0.0
  0
ARC
  5
DCA
  8
0
 10
661.1207938489265
 20
303.2799731328405
 30
0.0
 40
1.0
 50
65.68426082881895
 51
180.0
  0
ARC
  5
DCB
  8
0
 10
661.1207938489265
 20
294.02593982525559
 30
0.0
 40
1.0
 50
180.0
 51
270.0
  0
ARC
  5
DCC
  8
0
 10
661.1207938489265
 20
290.0259398252557
 30
0.0
 40
1.0
 50
90.0
 51
180.0
  0
LINE
  5
DCD
  8
0
 10
660.1207938489265
 20
294.02593982525559
 30
0.0
 11
660.1207938489265
 21
303.2799731328405
 31
0.0
  0
ARC
  5
DCE
  8
0
 10
661.1207938489265
 20
286.03553860795228
 30
0.0
 40
1.0
 50
90.0
 51
180.0
  0
LINE
  5
DCF
  8
0
 10
657.12079384892616
 20
274.5259398252557
 30
0.0
 11
657.62079384892616
 21
274.5259398252557
 31
0.0
  0
ARC
  5
DD0
  8
0
 10
661.1207938489265
 20
280.7719065176708
 30
0.0
 40
1.0
 50
180.0
 51
294.31573917118101
  0
LINE
  5
DD1
  8
0
 10
660.1207938489265
 20
290.0259398252557
 30
0.0
 11
660.1207938489265
 21
280.7719065176708
 31
0.0
  0
ARC
  5
DD2
  8
0
 10
602.26071555780868
 20
308.5259398252557
 30
0.0
 40
1.0
 50
0.0
 51
90.0
  0
LINE
  5
DD3
  8
0
 10
599.26071555780857
 20
309.5259398252557
 30
0.0
 11
602.26071555780868
 21
309.5259398252557
 31
0.0
  0
ARC
  5
DD4
  8
0
 10
602.26071555780868
 20
275.5259398252557
 30
0.0
 40
1.0
 50
270.0
 51
0.0
  0
LINE
  5
DD5
  8
0
 10
599.26071555780857
 20
274.5259398252557
 30
0.0
 11
602.26071555780868
 21
274.5259398252557
 31
0.0
  0
LINE
  5
DD6
  8
0
 10
603.26071555780857
 20
308.5259398252557
 30
0.0
 11
603.26071555780857
 21
275.5259398252557
 31
0.0
  0
LINE
  5
DD7
  8
0
 10
599.26071555780857
 20
318.0259398252557
 30
0.0
 11
599.26071555780857
 21
266.0259398252557
 31
0.0
  0
CIRCLE
  5
DD8
  8
0
 10
584.26071555780857
 20
296.02593982525559
 30
0.0
 40
3.9999999999999711
  0
CIRCLE
  5
DD9
  8
0
 10
584.26071555780857
 20
296.02593982525559
 30
0.0
 40
5.7000000000000011
  0
LINE
  5
DDA
  8
0
 10
569.26071555780868
 20
318.5259398252557
 30
0.0
 11
569.26071555780868
 21
265.5259398252557
 31
0.0
  0
LINE
  5
DDB
  8
CENTER
  6
CENTER
 10
584.26071555780857
 20
284.3259398252556
 30
0.0
 11
584.26071555780857
 21
307.72593982525558
 31
0.0
  0
LINE
  5
DDC
  8
0
 10
569.26071555780868
 20
318.5259398252557
 30
0.0
 11
599.26071555780857
 21
318.0259398252557
 31
0.0
  0
LINE
  5
DDD
  8
0
 10
569.26071555780868
 20
265.5259398252557
 30
0.0
 11
599.26071555780857
 21
266.0259398252557
 31
0.0
  0
CIRCLE
  5
DDE
  8
0
 10
584.26071555780857
 20
296.02593982525559
 30
0.0
 40
8.6999999999999993
  0
CIRCLE
  5
DDF
  8
0
 10
584.26071555780857
 20
296.02593982525559
 30
0.0
 40
6.7000000000000028
  0
ARC
  5
DE0
  8
0
 62
     2
 10
584.26071555780857
 20
296.02593982525559
 30
0.0
 40
6.5999999999999996
 50
153.86110377669701
 51
104.9974520806085
  0
LINE
  5
DE1
  8
CENTER
  6
CENTER
 10
572.56071555780863
 20
296.02593982525559
 30
0.0
 11
595.96071555780873
 21
296.02593982525559
 31
0.0
  0
TEXT
  5
DE2
  8
DIM
  6
CONTINUOUS
 10
763.12079384892627
 20
290.26741041157459
 30
0.0
 40
3.0
  1
81
 50
90.0
  7
ROMANSS
 72
     1
 11
761.62079384892616
 21
292.05312469728881
 31
0.0
 73
     2
  0
SOLID
  5
DE3
  8
DIM
  6
CONTINUOUS
 10
764.12079384892616
 20
254.5259398252557
 30
0.0
 11
765.12079384892616
 21
254.5259398252557
 31
0.0
 12
764.62079384892616
 22
251.5259398252557
 32
0.0
 13
764.62079384892616
 23
251.5259398252557
 33
0.0
  0
LINE
  5
DE4
  8
DIM
  6
CONTINUOUS
 10
747.12079384892638
 20
251.5259398252557
 30
0.0
 11
765.62079384892616
 21
251.5259398252557
 31
0.0
  0
TEXT
  5
DE5
  8
DIM
  6
CONTINUOUS
 10
755.12079384892638
 20
289.1480847912589
 30
0.0
 40
3.0
  1
65
 50
90.0
  7
ROMANSS
 72
     1
 11
753.6207938489265
 21
291.5766562198304
 31
0.0
 73
     2
  0
SOLID
  5
DE6
  8
DIM
  6
CONTINUOUS
 10
756.1207938489265
 20
321.52593982525559
 30
0.0
 11
757.1207938489265
 21
321.52593982525559
 31
0.0
 12
756.6207938489265
 22
324.52593982525559
 32
0.0
 13
756.6207938489265
 23
324.52593982525559
 33
0.0
  0
SOLID
  5
DE7
  8
DIM
  6
CONTINUOUS
 10
756.1207938489265
 20
335.52593982525559
 30
0.0
 11
757.1207938489265
 21
335.52593982525559
 31
0.0
 12
756.6207938489265
 22
332.52593982525559
 32
0.0
 13
756.6207938489265
 23
332.52593982525559
 33
0.0
  0
LINE
  5
DE8
  8
DIM
  6
CONTINUOUS
 10
749.6207938489265
 20
324.52593982525559
 30
0.0
 11
757.6207938489265
 21
324.52593982525559
 31
0.0
  0
TEXT
  5
DE9
  8
DIM
  6
CONTINUOUS
 10
755.12079384892638
 20
244.82876371852331
 30
0.0
 40
3.0
  1
8
 50
90.0
  7
ROMANSS
 72
     1
 11
753.6207938489265
 21
245.82876371852319
 31
0.0
 73
     2
  0
SOLID
  5
DEA
  8
DIM
  6
CONTINUOUS
 10
756.1207938489265
 20
262.52593982525559
 30
0.0
 11
757.1207938489265
 21
262.52593982525559
 31
0.0
 12
756.6207938489265
 22
259.5259398252557
 32
0.0
 13
756.6207938489265
 23
259.5259398252557
 33
0.0
  0
SOLID
  5
DEB
  8
DIM
  6
CONTINUOUS
 10
756.1207938489265
 20
248.5259398252557
 30
0.0
 11
757.1207938489265
 21
248.5259398252557
 31
0.0
 12
756.6207938489265
 22
251.5259398252557
 32
0.0
 13
756.6207938489265
 23
251.5259398252557
 33
0.0
  0
LINE
  5
DEC
  8
DIM
  6
CONTINUOUS
 10
749.6207938489265
 20
259.5259398252557
 30
0.0
 11
757.6207938489265
 21
259.5259398252557
 31
0.0
  0
LINE
  5
DED
  8
DIM
  6
CONTINUOUS
 10
747.12079384892638
 20
251.5259398252557
 30
0.0
 11
757.6207938489265
 21
251.5259398252557
 31
0.0
  0
TEXT
  5
DEE
  8
DIM
  6
CONTINUOUS
 10
699.69222242035505
 20
237.0259398252557
 30
0.0
 40
3.0
  1
93
  7
ROMANSS
 72
     1
 11
702.1207938489265
 21
238.5259398252557
 31
0.0
 73
     2
  0
SOLID
  5
DEF
  8
DIM
  6
CONTINUOUS
 10
745.62079384892638
 20
236.0259398252557
 30
0.0
 11
745.62079384892638
 21
235.0259398252557
 31
0.0
 12
748.6207938489265
 22
235.5259398252557
 32
0.0
 13
748.6207938489265
 23
235.5259398252557
 33
0.0
  0
LINE
  5
DF0
  8
DIM
  6
CONTINUOUS
 10
748.6207938489265
 20
258.52593982525559
 30
0.0
 11
748.6207938489265
 21
234.5259398252557
 31
0.0
  0
TEXT
  5
DF1
  8
DIM
  6
CONTINUOUS
 10
725.29936527749794
 20
245.0259398252557
 30
0.0
 40
3.0
  1
37.5
  7
ROMANSS
 72
     1
 11
729.8707938489265
 21
246.5259398252557
 31
0.0
 73
     2
  0
SOLID
  5
DF2
  8
DIM
  6
CONTINUOUS
 10
745.62079384892638
 20
244.02593982525559
 30
0.0
 11
745.62079384892638
 21
243.0259398252557
 31
0.0
 12
748.6207938489265
 22
243.52593982525559
 32
0.0
 13
748.6207938489265
 23
243.52593982525559
 33
0.0
  0
SOLID
  5
DF3
  8
DIM
  6
CONTINUOUS
 10
714.1207938489265
 20
244.02593982525559
 30
0.0
 11
714.1207938489265
 21
243.0259398252557
 31
0.0
 12
711.1207938489265
 22
243.52593982525559
 32
0.0
 13
711.1207938489265
 23
243.52593982525559
 33
0.0
  0
LINE
  5
DF4
  8
DIM
  6
CONTINUOUS
 10
714.1207938489265
 20
243.52593982525559
 30
0.0
 11
745.62079384892638
 21
243.52593982525559
 31
0.0
  0
LINE
  5
DF5
  8
DIM
  6
CONTINUOUS
 10
711.1207938489265
 20
247.5259398252557
 30
0.0
 11
711.1207938489265
 21
242.5259398252557
 31
0.0
  0
TEXT
  5
DF6
  8
DIM
  6
CONTINUOUS
 10
692.79936527749794
 20
245.0259398252557
 30
0.0
 40
3.0
  1
27.5
  7
ROMANSS
 72
     1
 11
697.3707938489265
 21
246.5259398252557
 31
0.0
 73
     2
  0
SOLID
  5
DF7
  8
DIM
  6
CONTINUOUS
 10
708.12079384892638
 20
244.02593982525559
 30
0.0
 11
708.12079384892638
 21
243.0259398252557
 31
0.0
 12
711.1207938489265
 22
243.52593982525559
 32
0.0
 13
711.1207938489265
 23
243.52593982525559
 33
0.0
  0
SOLID
  5
DF8
  8
DIM
  6
CONTINUOUS
 10
686.6207938489265
 20
244.02593982525559
 30
0.0
 11
686.6207938489265
 21
243.0259398252557
 31
0.0
 12
683.62079384892638
 22
243.52593982525559
 32
0.0
 13
683.62079384892638
 23
243.52593982525559
 33
0.0
  0
LINE
  5
DF9
  8
DIM
  6
CONTINUOUS
 10
686.6207938489265
 20
243.52593982525559
 30
0.0
 11
708.12079384892638
 21
243.52593982525559
 31
0.0
  0
LINE
  5
DFA
  8
DIM
  6
CONTINUOUS
 10
711.1207938489265
 20
247.5259398252557
 30
0.0
 11
711.1207938489265
 21
242.5259398252557
 31
0.0
  0
LINE
  5
DFB
  8
DIM
  6
CONTINUOUS
 10
683.62079384892638
 20
263.0259398252557
 30
0.0
 11
683.62079384892638
 21
242.5259398252557
 31
0.0
  0
LINE
  5
DFC
  8
CENTER
  6
CENTER
 10
741.1207938489265
 20
315.47849402710222
 30
0.0
 11
741.1207938489265
 21
327.4784940271021
 31
0.0
  0
LINE
  5
DFD
  8
CENTER
  6
CENTER
 10
681.1207938489265
 20
315.47849402710222
 30
0.0
 11
681.1207938489265
 21
327.4784940271021
 31
0.0
  0
LINE
  5
DFE
  8
CENTER
  6
CENTER
 10
741.1207938489265
 20
268.57338562340919
 30
0.0
 11
741.1207938489265
 21
256.57338562340931
 31
0.0
  0
LINE
  5
DFF
  8
CENTER
  6
CENTER
 10
681.1207938489265
 20
268.57338562340919
 30
0.0
 11
681.1207938489265
 21
256.57338562340931
 31
0.0
  0
LINE
  5
E00
  8
0
  6
CONTINUOUS
 10
747.12079384892638
 20
252.5259398252557
 30
0.0
 11
746.12079384892638
 21
251.5259398252557
 31
0.0
  0
LINE
  5
E01
  8
0
 10
747.12079384892638
 20
259.5259398252557
 30
0.0
 11
747.12079384892638
 21
252.5259398252557
 31
0.0
  0
LINE
  5
E02
  8
0
  6
CONTINUOUS
 10
675.12079384892638
 20
252.5259398252557
 30
0.0
 11
676.12079384892638
 21
251.5259398252557
 31
0.0
  0
LINE
  5
E03
  8
0
 10
675.12079384892638
 20
259.5259398252557
 30
0.0
 11
675.12079384892638
 21
252.5259398252557
 31
0.0
  0
LINE
  5
E04
  8
0
  6
CONTINUOUS
 10
676.12079384892638
 20
251.5259398252557
 30
0.0
 11
746.12079384892638
 21
251.5259398252557
 31
0.0
  0
LINE
  5
E05
  8
0
  6
CONTINUOUS
 10
675.12079384892638
 20
252.5259398252557
 30
0.0
 11
747.12079384892638
 21
252.5259398252557
 31
0.0
  0
LINE
  5
E06
  8
0
 10
675.12079384892638
 20
324.5259398252557
 30
0.0
 11
675.12079384892638
 21
331.5259398252557
 31
0.0
  0
LINE
  5
E07
  8
0
 10
747.12079384892638
 20
324.5259398252557
 30
0.0
 11
747.12079384892638
 21
331.5259398252557
 31
0.0
  0
LINE
  5
E08
  8
0
  6
CONTINUOUS
 10
747.12079384892638
 20
331.5259398252557
 30
0.0
 11
746.12079384892638
 21
332.5259398252557
 31
0.0
  0
LINE
  5
E09
  8
0
  6
CONTINUOUS
 10
675.12079384892638
 20
331.5259398252557
 30
0.0
 11
676.12079384892638
 21
332.5259398252557
 31
0.0
  0
LINE
  5
E0A
  8
0
  6
CONTINUOUS
 10
675.12079384892638
 20
331.5259398252557
 30
0.0
 11
747.12079384892638
 21
331.5259398252557
 31
0.0
  0
LINE
  5
E0B
  8
0
  6
CONTINUOUS
 10
676.12079384892638
 20
332.5259398252557
 30
0.0
 11
746.12079384892638
 21
332.5259398252557
 31
0.0
  0
LINE
  5
E0C
  8
0
 10
748.6207938489265
 20
324.52593982525559
 30
0.0
 11
748.6207938489265
 21
259.5259398252557
 31
0.0
  0
ARC
  5
E0D
  8
0
 10
698.12492632798285
 20
279.64312768975918
 30
0.0
 40
0.5
 50
224.99999999999079
 51
304.1930771251279
  0
POLYLINE
  5
E0E
  8
0
 66
     1
 10
0.0
 20
0.0
 30
0.0
 70
     1
  0
VERTEX
  5
1492
  8
0
 10
699.6207938489265
 20
274.75799063282471
 30
0.0
  0
VERTEX
  5
1493
  8
0
 10
699.6207938489265
 20
271.29388901768692
 30
0.0
  0
VERTEX
  5
1494
  8
0
 10
702.6207938489265
 20
269.56183821011803
 30
0.0
  0
VERTEX
  5
1495
  8
0
 10
705.6207938489265
 20
271.29388901768692
 30
0.0
  0
VERTEX
  5
1496
  8
0
 10
705.6207938489265
 20
274.75799063282471
 30
0.0
  0
VERTEX
  5
1497
  8
0
 10
702.6207938489265
 20
276.4900414403935
 30
0.0
  0
SEQEND
  5
1498
  8
0
  0
CIRCLE
  5
E16
  8
0
 10
702.6207938489265
 20
273.0259398252557
 30
0.0
 40
5.0
  0
CIRCLE
  5
E17
  8
0
 10
702.6207938489265
 20
273.0259398252557
 30
0.0
 40
5.5
  0
CIRCLE
  5
E18
  8
0
 10
702.6207938489265
 20
311.0259398252557
 30
0.0
 40
5.0
  0
CIRCLE
  5
E19
  8
0
 10
702.6207938489265
 20
311.0259398252557
 30
0.0
 40
5.5
  0
POLYLINE
  5
E1A
  8
0
 66
     1
 10
0.0
 20
0.0
 30
0.0
 70
     1
  0
VERTEX
  5
1499
  8
0
 10
699.6207938489265
 20
312.75799063282471
 30
0.0
  0
VERTEX
  5
149A
  8
0
 10
699.6207938489265
 20
309.29388901768692
 30
0.0
  0
VERTEX
  5
149B
  8
0
 10
702.6207938489265
 20
307.56183821011803
 30
0.0
  0
VERTEX
  5
149C
  8
0
 10
705.6207938489265
 20
309.29388901768692
 30
0.0
  0
VERTEX
  5
149D
  8
0
 10
705.6207938489265
 20
312.75799063282471
 30
0.0
  0
VERTEX
  5
149E
  8
0
 10
702.6207938489265
 20
314.4900414403935
 30
0.0
  0
SEQEND
  5
149F
  8
0
  0
ARC
  5
E22
  8
0
 10
692.62079384892638
 20
314.5259398252557
 30
0.0
 40
1.0
 50
90.0
 51
180.0
  0
ARC
  5
E23
  8
0
 10
694.87482715651106
 20
314.5259398252557
 30
0.0
 40
1.0
 50
335.6842608288103
 51
90.0
  0
ARC
  5
E24
  8
0
 10
696.00360598442296
 20
306.53007230431211
 30
0.0
 40
0.5
 50
314.99999999999068
 51
34.193077125151397
  0
LINE
  5
E25
  8
0
 10
695.95209187814498
 20
305.77145141684741
 30
0.0
 11
696.35715937501641
 21
306.17651891371878
 31
0.0
  0
ARC
  5
E26
  8
0
 10
692.62079384892638
 20
308.75914035593712
 30
0.0
 40
1.0
 50
180.0
 51
241.72628636862439
  0
ARC
  5
E27
  8
0
 10
695.59853848755188
 20
306.1250048074408
 30
0.0
 40
0.5
 50
229.65070900488701
 51
314.99999999999068
  0
LINE
  5
E28
  8
0
 10
691.62079384892638
 20
314.5259398252557
 30
0.0
 11
691.62079384892638
 21
308.75914035593712
 31
0.0
  0
ARC
  5
E29
  8
0
 10
702.6207938489265
 20
311.0259398252557
 30
0.0
 40
7.5
 50
155.6842608288261
 51
214.1930771251393
  0
ARC
  5
E2A
  8
0
 10
685.6207938489265
 20
314.5259398252557
 30
0.0
 40
1.0
 50
90.0
 51
180.0
  0
ARC
  5
E2B
  8
0
 10
681.6207938489265
 20
314.5259398252557
 30
0.0
 40
1.0
 50
0.0
 51
90.0
  0
ARC
  5
E2C
  8
0
 10
685.6207938489265
 20
310.92038345294679
 30
0.0
 40
1.0
 50
180.0
 51
263.95767158094242
  0
ARC
  5
E2D
  8
0
 10
681.6207938489265
 20
310.92038345294679
 30
0.0
 40
1.0
 50
276.04232841905753
 51
0.0
  0
LINE
  5
E2E
  8
0
 10
684.62079384892638
 20
314.5259398252557
 30
0.0
 11
684.62079384892638
 21
310.92038345294679
 31
0.0
  0
LINE
  5
E2F
  8
0
 10
682.6207938489265
 20
314.5259398252557
 30
0.0
 11
682.6207938489265
 21
310.92038345294679
 31
0.0
  0
ARC
  5
E30
  8
0
 10
683.62079384892638
 20
292.0259398252557
 30
0.0
 40
17.999999999999972
 50
49.650709004879928
 51
83.957671580946055
  0
LINE
  5
E31
  8
0
 10
685.6207938489265
 20
315.5259398252557
 30
0.0
 11
694.87482715651106
 21
315.5259398252557
 31
0.0
  0
LINE
  5
E32
  8
CENTER
  6
CENTER
 10
696.12079384892638
 20
311.0259398252557
 30
0.0
 11
709.12079384892638
 21
311.0259398252557
 31
0.0
  0
ARC
  5
E33
  8
0
 10
706.1207938489265
 20
301.0259398252557
 30
0.0
 40
1.0
 50
270.0
 51
0.0
  0
ARC
  5
E34
  8
0
 10
706.1207938489265
 20
303.2799731328405
 30
0.0
 40
1.0
 50
0.0
 51
114.3157391711956
  0
LINE
  5
E35
  8
0
 10
706.1207938489265
 20
293.0259398252557
 30
0.0
 11
702.51523747661747
 21
293.0259398252557
 31
0.0
  0
LINE
  5
E36
  8
0
 10
706.1207938489265
 20
291.0259398252557
 30
0.0
 11
702.51523747661747
 21
291.0259398252557
 31
0.0
  0
ARC
  5
E37
  8
0
 10
706.1207938489265
 20
294.0259398252557
 30
0.0
 40
1.0
 50
270.0
 51
0.0
  0
ARC
  5
E38
  8
0
 10
706.1207938489265
 20
290.0259398252557
 30
0.0
 40
1.0
 50
0.0
 51
90.0
  0
LINE
  5
E39
  8
0
 10
707.1207938489265
 20
294.0259398252557
 30
0.0
 11
707.1207938489265
 21
303.2799731328405
 31
0.0
  0
ARC
  5
E3A
  8
0
 10
706.1207938489265
 20
283.0259398252557
 30
0.0
 40
1.0
 50
0.0
 51
90.0
  0
ARC
  5
E3B
  8
0
 10
706.1207938489265
 20
280.77190651767091
 30
0.0
 40
1.0
 50
245.6842608288043
 51
0.0
  0
LINE
  5
E3C
  8
0
 10
707.1207938489265
 20
290.0259398252557
 30
0.0
 11
707.1207938489265
 21
280.77190651767091
 31
0.0
  0
ARC
  5
E3D
  8
0
 10
698.12492632798285
 20
304.4087519607524
 30
0.0
 40
0.5
 50
55.806922874872079
 51
135.00000000000921
  0
ARC
  5
E3E
  8
0
 10
697.71985883111142
 20
304.00368446388109
 30
0.0
 40
0.5
 50
135.00000000000921
 51
220.34929099511791
  0
ARC
  5
E3F
  8
0
 10
700.35399437960791
 20
301.0259398252557
 30
0.0
 40
1.0
 50
208.2737136313682
 51
270.0
  0
LINE
  5
E40
  8
0
 10
697.36630544051798
 20
304.35723785447431
 30
0.0
 11
697.77137293738951
 21
304.76230535134562
 31
0.0
  0
ARC
  5
E41
  8
0
 10
700.35399437960791
 20
283.0259398252557
 30
0.0
 40
1.0
 50
90.0
 51
151.72628636863169
  0
ARC
  5
E42
  8
0
 10
696.00360598442296
 20
277.52180734619941
 30
0.0
 40
0.5
 50
325.80692287484851
 51
45.000000000009209
  0
LINE
  5
E43
  8
0
 10
695.95209187814498
 20
278.28042823366388
 30
0.0
 11
696.35715937501641
 21
277.87536073679257
 31
0.0
  0
LINE
  5
E44
  8
0
 10
697.36630544051798
 20
279.6946417960371
 30
0.0
 11
697.77137293738951
 21
279.28957429916579
 31
0.0
  0
ARC
  5
E45
  8
0
 10
698.12492632798285
 20
279.64312768975901
 30
0.0
 40
0.5
 50
224.99999999999079
 51
304.1930771251279
  0
ARC
  5
E46
  8
0
 10
697.71985883111142
 20
280.04819518663038
 30
0.0
 40
0.5
 50
139.65070900488209
 51
224.99999999999079
  0
ARC
  5
E47
  8
0
 10
692.62079384892638
 20
275.29273929457429
 30
0.0
 40
1.0
 50
118.2737136313755
 51
180.0
  0
ARC
  5
E48
  8
0
 10
695.59853848755188
 20
277.92687484307072
 30
0.0
 40
0.5
 50
45.000000000009209
 51
130.34929099511291
  0
ARC
  5
E49
  8
0
 10
685.6207938489265
 20
273.13149619756462
 30
0.0
 40
1.0
 50
96.042328419057512
 51
180.0
  0
ARC
  5
E4A
  8
0
 10
681.6207938489265
 20
273.13149619756462
 30
0.0
 40
1.0
 50
0.0
 51
83.957671580942474
  0
ARC
  5
E4B
  8
0
 10
683.62079384892638
 20
292.0259398252557
 30
0.0
 40
17.999999999999972
 50
276.04232841905389
 51
310.34929099511999
  0
ARC
  5
E4C
  8
0
 10
683.62079384892638
 20
292.0259398252557
 30
0.0
 40
17.999999999999972
 50
319.65070900488001
 51
353.957671580946
  0
LINE
  5
E4D
  8
0
 10
706.1207938489265
 20
284.0259398252557
 30
0.0
 11
700.35399437960791
 21
284.0259398252557
 31
0.0
  0
LINE
  5
E4E
  8
CENTER
  6
CENTER
 10
696.12079384892638
 20
273.0259398252557
 30
0.0
 11
709.12079384892638
 21
273.0259398252557
 31
0.0
  0
ARC
  5
E4F
  8
0
 10
702.6207938489265
 20
273.0259398252557
 30
0.0
 40
7.5
 50
65.684260828827945
 51
124.1930771251406
  0
ARC
  5
E50
  8
0
 10
702.51523747661747
 20
294.0259398252557
 30
0.0
 40
1.0
 50
186.04232841905389
 51
270.0
  0
ARC
  5
E51
  8
0
 10
683.62079384892638
 20
292.0259398252557
 30
0.0
 40
17.999999999999972
 50
6.0423284190541056
 51
40.349290995120072
  0
ARC
  5
E52
  8
0
 10
702.51523747661747
 20
290.0259398252557
 30
0.0
 40
1.0
 50
90.0
 51
173.957671580946
  0
LINE
  5
E53
  8
0
 10
706.1207938489265
 20
300.0259398252557
 30
0.0
 11
700.35399437960791
 21
300.0259398252557
 31
0.0
  0
ARC
  5
E54
  8
0
 10
702.6207938489265
 20
311.0259398252557
 30
0.0
 40
7.5
 50
235.80692287485931
 51
294.31573917117379
  0
LINE
  5
E55
  8
CENTER
  6
CENTER
 10
702.6207938489265
 20
317.5259398252557
 30
0.0
 11
702.6207938489265
 21
304.5259398252557
 31
0.0
  0
ARC
  5
E56
  8
0
 10
674.6207938489265
 20
314.5259398252557
 30
0.0
 40
1.0
 50
0.0
 51
90.0
  0
ARC
  5
E57
  8
0
 10
672.36676054134159
 20
314.5259398252557
 30
0.0
 40
1.0
 50
90.0
 51
204.31573917118391
  0
ARC
  5
E58
  8
0
 10
674.6207938489265
 20
308.75914035593712
 30
0.0
 40
1.0
 50
298.27371363136092
 51
0.0
  0
ARC
  5
E59
  8
0
 10
671.64304921030111
 20
306.1250048074408
 30
0.0
 40
0.5
 50
224.99999999999079
 51
310.34929099511288
  0
LINE
  5
E5A
  8
0
 10
671.28949581970767
 20
305.77145141684741
 30
0.0
 11
670.88442832283658
 21
306.17651891371878
 31
0.0
  0
ARC
  5
E5B
  8
0
 10
671.23798171342969
 20
306.53007230431211
 30
0.0
 40
0.5
 50
145.8069228748613
 51
224.99999999999079
  0
LINE
  5
E5C
  8
0
 10
675.62079384892638
 20
314.5259398252557
 30
0.0
 11
675.62079384892638
 21
308.75914035593712
 31
0.0
  0
ARC
  5
E5D
  8
0
 10
664.6207938489265
 20
311.0259398252557
 30
0.0
 40
7.5
 50
325.80692287485988
 51
24.315739171172272
  0
ARC
  5
E5E
  8
0
 10
669.1166613698698
 20
304.40875196075228
 30
0.0
 40
0.5
 50
45.000000000004597
 51
124.1930771251568
  0
ARC
  5
E5F
  8
0
 10
669.52172886674134
 20
304.00368446388097
 30
0.0
 40
0.5
 50
319.6507090048687
 51
44.999999999990777
  0
LINE
  5
E60
  8
0
 10
669.87528225733467
 20
304.35723785447419
 30
0.0
 11
669.47021476046325
 21
304.76230535134562
 31
0.0
  0
ARC
  5
E61
  8
0
 10
664.72635022123541
 20
294.02593982525559
 30
0.0
 40
1.0
 50
270.0
 51
353.957671580946
  0
ARC
  5
E62
  8
0
 10
664.72635022123541
 20
290.0259398252557
 30
0.0
 40
1.0
 50
6.042328419053943
 51
90.0
  0
ARC
  5
E63
  8
0
 10
683.62079384892638
 20
292.0259398252557
 30
0.0
 40
17.999999999999972
 50
139.6507090048799
 51
173.957671580946
  0
ARC
  5
E64
  8
0
 10
674.6207938489265
 20
275.29273929457429
 30
0.0
 40
1.0
 50
0.0
 51
61.726286368639009
  0
ARC
  5
E65
  8
0
 10
671.64304921030111
 20
277.92687484307072
 30
0.0
 40
0.5
 50
49.650709004887069
 51
135.00000000000921
  0
LINE
  5
E66
  8
0
 10
671.28949581970767
 20
278.28042823366388
 30
0.0
 11
670.88442832283658
 21
277.87536073679257
 31
0.0
  0
LINE
  5
E67
  8
0
 10
669.87528225733467
 20
279.6946417960371
 30
0.0
 11
669.47021476046325
 21
279.28957429916568
 31
0.0
  0
ARC
  5
E68
  8
0
 10
669.52172886674134
 20
280.04819518663038
 30
0.0
 40
0.5
 50
315.00000000000921
 51
40.349290995131291
  0
ARC
  5
E69
  8
0
 10
669.1166613698698
 20
279.64312768975901
 30
0.0
 40
0.5
 50
235.8069228748432
 51
314.9999999999954
  0
ARC
  5
E6A
  8
0
 10
671.23798171342969
 20
277.52180734619941
 30
0.0
 40
0.5
 50
135.00000000000921
 51
214.1930771251387
  0
ARC
  5
E6B
  8
0
 10
665.58984564158777
 20
286.03553860795228
 30
0.0
 40
1.0
 50
18.377976039593509
 51
90.0
  0
ARC
  5
E6C
  8
0
 10
683.62079384892638
 20
292.0259398252557
 30
0.0
 40
17.999999999999972
 50
186.04232841905409
 51
220.34929099511999
  0
LINE
  5
E6D
  8
CENTER
  6
CENTER
 10
664.6207938489265
 20
317.5259398252557
 30
0.0
 11
664.6207938489265
 21
304.5259398252557
 31
0.0
  0
ARC
  5
E6E
  8
0
 10
683.62079384892638
 20
292.0259398252557
 30
0.0
 40
17.999999999999972
 50
96.042328419053931
 51
130.3492909951199
  0
LINE
  5
E6F
  8
0
 10
681.6207938489265
 20
315.5259398252557
 30
0.0
 11
672.36676054134159
 21
315.5259398252557
 31
0.0
  0
ARC
  5
E70
  8
0
 10
683.62079384892638
 20
292.0259398252557
 30
0.0
 40
17.999999999999972
 50
229.65070900488001
 51
263.957671580946
  0
CIRCLE
  5
E71
  8
0
 10
683.62079384892638
 20
292.0259398252557
 30
0.0
 40
17.499999999999972
  0
ARC
  5
E72
  8
0
 10
692.62079384892638
 20
269.5259398252557
 30
0.0
 40
1.0
 50
180.0
 51
270.0
  0
ARC
  5
E73
  8
0
 10
694.87482715651106
 20
269.5259398252557
 30
0.0
 40
1.0
 50
270.0
 51
24.315739171186699
  0
ARC
  5
E74
  8
0
 10
685.6207938489265
 20
269.5259398252557
 30
0.0
 40
1.0
 50
180.0
 51
270.0
  0
ARC
  5
E75
  8
0
 10
681.6207938489265
 20
269.5259398252557
 30
0.0
 40
1.0
 50
270.0
 51
0.0
  0
LINE
  5
E76
  8
0
 10
685.6207938489265
 20
268.5259398252557
 30
0.0
 11
694.87482715651106
 21
268.5259398252557
 31
0.0
  0
ARC
  5
E77
  8
0
 10
674.6207938489265
 20
269.5259398252557
 30
0.0
 40
1.0
 50
270.0
 51
0.0
  0
ARC
  5
E78
  8
0
 10
672.36676054134159
 20
269.5259398252557
 30
0.0
 40
1.0
 50
155.68426082881601
 51
270.0
  0
LINE
  5
E79
  8
0
 10
681.6207938489265
 20
268.5259398252557
 30
0.0
 11
672.36676054134159
 21
268.5259398252557
 31
0.0
  0
ARC
  5
E7A
  8
0
 10
664.6207938489265
 20
273.0259398252557
 30
0.0
 40
7.5
 50
335.68426082882962
 51
34.19307712514005
  0
LINE
  5
E7B
  8
0
 10
675.62079384892638
 20
269.5259398252557
 30
0.0
 11
675.62079384892638
 21
275.29273929457429
 31
0.0
  0
LINE
  5
E7C
  8
CENTER
  6
CENTER
 10
664.6207938489265
 20
279.5259398252557
 30
0.0
 11
664.6207938489265
 21
266.5259398252557
 31
0.0
  0
LINE
  5
E7D
  8
CENTER
  6
CENTER
 10
683.62079384892638
 20
320.0259398252557
 30
0.0
 11
683.62079384892638
 21
264.0259398252557
 31
0.0
  0
ARC
  5
E7E
  8
0
 10
702.6207938489265
 20
273.0259398252557
 30
0.0
 40
7.5
 50
145.80692287486059
 51
204.3157391711718
  0
LINE
  5
E7F
  8
0
 10
691.62079384892638
 20
269.5259398252557
 30
0.0
 11
691.62079384892638
 21
275.29273929457429
 31
0.0
  0
LINE
  5
E80
  8
0
 10
682.6207938489265
 20
269.5259398252557
 30
0.0
 11
682.6207938489265
 21
273.13149619756462
 31
0.0
  0
LINE
  5
E81
  8
0
 10
684.62079384892638
 20
269.5259398252557
 30
0.0
 11
684.62079384892638
 21
273.13149619756462
 31
0.0
  0
LINE
  5
E82
  8
CENTER
  6
CENTER
 10
702.6207938489265
 20
279.5259398252557
 30
0.0
 11
702.6207938489265
 21
266.5259398252557
 31
0.0
  0
LINE
  5
E83
  8
DIM
  6
CONTINUOUS
 10
473.26071555780862
 20
474.0468298204878
 30
0.0
 11
526.29164899517468
 21
474.04682982048791
 31
0.0
  0
LINE
  5
E84
  8
DIM
  6
CONTINUOUS
 10
473.26071555780862
 20
414.0468298204878
 30
0.0
 11
526.29164899517468
 21
414.0468298204878
 31
0.0
  0
LINE
  5
E85
  8
0
 10
473.76071555780862
 20
392.34682982048793
 30
0.0
 11
569.26071555780868
 21
392.34682982048793
 31
0.0
  0
LINE
  5
E86
  8
0
 10
473.76071555780862
 20
404.74460551783602
 30
0.0
 11
569.26071555780868
 21
404.74460551783602
 31
0.0
  0
LINE
  5
E87
  8
0
 10
473.76071555780862
 20
440.7468298204879
 30
0.0
 11
569.26071555780868
 21
440.7468298204879
 31
0.0
  0
LINE
  5
E88
  8
0
 10
473.76071555780862
 20
428.34905412313969
 30
0.0
 11
569.26071555780868
 21
428.34905412313969
 31
0.0
  0
CIRCLE
  5
E89
  8
0
  6
CONTINUOUS
 10
436.26071555780862
 20
444.0468298204878
 30
0.0
 40
35.0
  0
POLYLINE
  5
E8A
  8
0
  6
CONTINUOUS
 66
     1
 10
0.0
 20
0.0
 30
0.0
  0
VERTEX
  5
14A0
  8
0
  6
CONTINUOUS
 10
454.76071555780862
 20
383.5468298204878
 30
0.0
 42
0.0851703918331037
  0
VERTEX
  5
14A1
  8
0
  6
CONTINUOUS
 10
458.76071555780862
 20
384.2348298204879
 30
0.0
 42
0.3457679526359281
  0
VERTEX
  5
14A2
  8
0
  6
CONTINUOUS
 10
461.6607155578082
 20
383.89325014381302
 30
0.0
  0
SEQEND
  5
14A3
  8
0
  6
CONTINUOUS
  0
LINE
  5
E8F
  8
0
  6
CONTINUOUS
 10
458.76071555780862
 20
381.74682982048859
 30
0.0
 11
457.5607155578079
 21
380.5468298204878
 31
0.0
  0
LINE
  5
E90
  8
0
  6
CONTINUOUS
 10
450.76071555780862
 20
381.74682982048859
 30
0.0
 11
458.76071555780862
 21
381.74682982048859
 31
0.0
  0
LINE
  5
E91
  8
0
  6
CONTINUOUS
 10
448.46071555780929
 20
383.5468298204878
 30
0.0
 11
461.0607155578079
 21
383.5468298204878
 31
0.0
  0
POLYLINE
  5
E92
  8
0
  6
CONTINUOUS
 66
     1
 10
0.0
 20
0.0
 30
0.0
  0
VERTEX
  5
14A4
  8
0
  6
CONTINUOUS
 10
454.76071555780862
 20
388.5468298204878
 30
0.0
 42
-0.0851703918331037
  0
VERTEX
  5
14A5
  8
0
  6
CONTINUOUS
 10
458.76071555780862
 20
387.8588298204877
 30
0.0
 42
-0.3457679526359281
  0
VERTEX
  5
14A6
  8
0
  6
CONTINUOUS
 10
461.6607155578082
 20
388.20040949716258
 30
0.0
  0
SEQEND
  5
14A7
  8
0
  6
CONTINUOUS
  0
LINE
  5
E97
  8
CENTER
  6
CENTER
 10
453.19592296722641
 20
427.11162241107002
 30
0.0
 11
461.75191501958358
 21
418.55563035871268
 31
0.0
  0
CIRCLE
  5
E98
  8
0
  6
CONTINUOUS
 10
457.47391899340499
 20
422.83362638489132
 30
0.0
 40
2.0499999999999989
  0
ARC
  5
E99
  8
0
  6
CONTINUOUS
 62
     2
 10
457.47391899340488
 20
422.83362638489132
 30
0.0
 40
2.5
 50
204.98154856581149
 51
158.9636414602291
  0
CIRCLE
  5
E9A
  8
CENTER
  6
CENTER
 10
436.26071555780862
 20
444.0468298204878
 30
0.0
 40
30.0
  0
LINE
  5
E9B
  8
DIM
  6
CONTINUOUS
 10
409.26071555780862
 20
489.54682982048769
 30
0.0
 11
463.26071555780862
 21
489.54682982048769
 31
0.0
  0
LINE
  5
E9C
  8
0
 10
398.76071555780862
 20
388.5468298204878
 30
0.0
 11
473.76071555780862
 21
388.5468298204878
 31
0.0
  0
LINE
  5
E9D
  8
0
 10
398.76071555780862
 20
481.54682982048769
 30
0.0
 11
473.76071555780862
 21
481.54682982048769
 31
0.0
  0
LINE
  5
E9E
  8
CENTER
  6
CENTER
 10
398.76071555780862
 20
444.0468298204878
 30
0.0
 11
473.76071555780862
 21
444.0468298204878
 31
0.0
  0
CIRCLE
  5
E9F
  8
0
  6
CONTINUOUS
 10
436.26071555780862
 20
444.0468298204878
 30
0.0
 40
36.0
  0
LINE
  5
EA0
  8
0
  6
CONTINUOUS
 62
     2
 10
457.96071555780929
 20
383.5468298204878
 30
0.0
 11
457.96071555780929
 21
380.9468298204892
 31
0.0
  0
LINE
  5
EA1
  8
0
  6
CONTINUOUS
 10
447.26071555780862
 20
384.2396704671383
 30
0.0
 11
448.46071555780929
 21
383.5468298204878
 31
0.0
  0
POLYLINE
  5
EA2
  8
0
  6
CONTINUOUS
 66
     1
 10
0.0
 20
0.0
 30
0.0
  0
VERTEX
  5
14A8
  8
0
  6
CONTINUOUS
 10
454.76071555780862
 20
383.5468298204878
 30
0.0
 42
-0.0851703918331037
  0
VERTEX
  5
14A9
  8
0
  6
CONTINUOUS
 10
450.76071555780862
 20
384.2348298204879
 30
0.0
 42
-0.3457679526359281
  0
VERTEX
  5
14AA
  8
0
  6
CONTINUOUS
 10
447.86071555780899
 20
383.89325014381302
 30
0.0
  0
SEQEND
  5
14AB
  8
0
  6
CONTINUOUS
  0
LINE
  5
EA7
  8
CENTER
  6
CENTER
 10
454.76071555780862
 20
404.80328215343582
 30
0.0
 11
454.76071555780862
 21
377.5468298204878
 31
0.0
  0
LINE
  5
EA8
  8
0
  6
CONTINUOUS
 10
450.76071555780862
 20
381.74682982048859
 30
0.0
 11
451.96071555780929
 21
380.5468298204878
 31
0.0
  0
LINE
  5
EA9
  8
0
  6
CONTINUOUS
 10
451.96071555780929
 20
380.5468298204878
 30
0.0
 11
457.56071555780778
 21
380.5468298204878
 31
0.0
  0
LINE
  5
EAA
  8
0
  6
CONTINUOUS
 10
450.76071555780862
 20
383.5468298204878
 30
0.0
 11
450.76071555780862
 21
381.74682982048859
 31
0.0
  0
LINE
  5
EAB
  8
0
  6
CONTINUOUS
 62
     2
 10
451.5607155578079
 20
383.5468298204878
 30
0.0
 11
451.5607155578079
 21
380.9468298204892
 31
0.0
  0
LINE
  5
EAC
  8
0
  6
CONTINUOUS
 10
447.26071555780868
 20
387.85398917383742
 30
0.0
 11
448.46071555780929
 21
388.5468298204878
 31
0.0
  0
POLYLINE
  5
EAD
  8
0
  6
CONTINUOUS
 66
     1
 10
0.0
 20
0.0
 30
0.0
  0
VERTEX
  5
14AC
  8
0
  6
CONTINUOUS
 10
454.76071555780862
 20
388.5468298204878
 30
0.0
 42
0.0851703918331037
  0
VERTEX
  5
14AD
  8
0
  6
CONTINUOUS
 10
450.76071555780862
 20
387.8588298204877
 30
0.0
 42
0.3457679526359281
  0
VERTEX
  5
14AE
  8
0
  6
CONTINUOUS
 10
447.86071555780899
 20
388.20040949716258
 30
0.0
  0
SEQEND
  5
14AF
  8
0
  6
CONTINUOUS
  0
LINE
  5
EB2
  8
0
  6
CONTINUOUS
 10
450.76071555780862
 20
387.85882982048781
 30
0.0
 11
450.76071555780862
 21
384.2348298204879
 31
0.0
  0
LINE
  5
EB3
  8
0
  6
CONTINUOUS
 10
447.26071555780862
 20
387.85398917383742
 30
0.0
 11
447.26071555780862
 21
384.2396704671383
 31
0.0
  0
LINE
  5
EB4
  8
0
  6
CONTINUOUS
 10
410.26071555780851
 20
387.85398917383742
 30
0.0
 11
411.46071555780918
 21
388.5468298204878
 31
0.0
  0
LINE
  5
EB5
  8
0
  6
CONTINUOUS
 10
425.26071555780851
 20
387.85398917383742
 30
0.0
 11
424.06071555780778
 21
388.5468298204878
 31
0.0
  0
POLYLINE
  5
EB6
  8
0
  6
CONTINUOUS
 66
     1
 10
0.0
 20
0.0
 30
0.0
  0
VERTEX
  5
14B0
  8
0
  6
CONTINUOUS
 10
417.76071555780851
 20
388.5468298204878
 30
0.0
 42
-0.0851703918331037
  0
VERTEX
  5
14B1
  8
0
  6
CONTINUOUS
 10
421.76071555780851
 20
387.8588298204877
 30
0.0
 42
-0.3457679526359281
  0
VERTEX
  5
14B2
  8
0
  6
CONTINUOUS
 10
424.66071555780809
 20
388.20040949716258
 30
0.0
  0
SEQEND
  5
14B3
  8
0
  6
CONTINUOUS
  0
POLYLINE
  5
EBB
  8
0
  6
CONTINUOUS
 66
     1
 10
0.0
 20
0.0
 30
0.0
  0
VERTEX
  5
14B4
  8
0
  6
CONTINUOUS
 10
417.76071555780851
 20
388.5468298204878
 30
0.0
 42
0.0851703918331037
  0
VERTEX
  5
14B5
  8
0
  6
CONTINUOUS
 10
413.76071555780851
 20
387.8588298204877
 30
0.0
 42
0.3457679526359281
  0
VERTEX
  5
14B6
  8
0
  6
CONTINUOUS
 10
410.86071555780887
 20
388.20040949716258
 30
0.0
  0
SEQEND
  5
14B7
  8
0
  6
CONTINUOUS
  0
LINE
  5
EC0
  8
0
  6
CONTINUOUS
 10
413.76071555780862
 20
381.74682982048859
 30
0.0
 11
414.96071555780941
 21
380.5468298204878
 31
0.0
  0
LINE
  5
EC1
  8
0
  6
CONTINUOUS
 10
413.76071555780851
 20
383.5468298204878
 30
0.0
 11
413.76071555780862
 21
381.74682982048859
 31
0.0
  0
LINE
  5
EC2
  8
0
  6
CONTINUOUS
 10
420.56071555780778
 20
380.5468298204878
 30
0.0
 11
414.96071555780941
 21
380.5468298204878
 31
0.0
  0
LINE
  5
EC3
  8
0
  6
CONTINUOUS
 10
421.76071555780862
 20
381.74682982048859
 30
0.0
 11
420.56071555780778
 21
380.5468298204878
 31
0.0
  0
LINE
  5
EC4
  8
0
  6
CONTINUOUS
 10
421.76071555780862
 20
383.5468298204878
 30
0.0
 11
421.76071555780862
 21
381.74682982048859
 31
0.0
  0
LINE
  5
EC5
  8
0
  6
CONTINUOUS
 10
424.0607155578079
 20
383.5468298204878
 30
0.0
 11
411.46071555780918
 21
383.5468298204878
 31
0.0
  0
LINE
  5
EC6
  8
0
  6
CONTINUOUS
 10
425.26071555780862
 20
384.2396704671383
 30
0.0
 11
424.0607155578079
 21
383.5468298204878
 31
0.0
  0
LINE
  5
EC7
  8
0
  6
CONTINUOUS
 10
425.26071555780862
 20
387.85398917383742
 30
0.0
 11
425.26071555780862
 21
384.2396704671383
 31
0.0
  0
LINE
  5
EC8
  8
0
  6
CONTINUOUS
 10
410.26071555780862
 20
384.2396704671383
 30
0.0
 11
411.46071555780929
 21
383.5468298204878
 31
0.0
  0
LINE
  5
EC9
  8
0
  6
CONTINUOUS
 10
410.26071555780862
 20
387.85398917383742
 30
0.0
 11
410.26071555780862
 21
384.2396704671383
 31
0.0
  0
LINE
  5
ECA
  8
0
  6
CONTINUOUS
 62
     2
 10
414.5607155578079
 20
383.5468298204878
 30
0.0
 11
414.5607155578079
 21
380.9468298204892
 31
0.0
  0
POLYLINE
  5
ECB
  8
0
  6
CONTINUOUS
 66
     1
 10
0.0
 20
0.0
 30
0.0
  0
VERTEX
  5
14B8
  8
0
  6
CONTINUOUS
 10
417.76071555780862
 20
383.5468298204878
 30
0.0
 42
-0.0851703918331037
  0
VERTEX
  5
14B9
  8
0
  6
CONTINUOUS
 10
413.76071555780862
 20
384.2348298204879
 30
0.0
 42
-0.3457679526359281
  0
VERTEX
  5
14BA
  8
0
  6
CONTINUOUS
 10
410.86071555780899
 20
383.89325014381302
 30
0.0
  0
SEQEND
  5
14BB
  8
0
  6
CONTINUOUS
  0
LINE
  5
ED0
  8
0
  6
CONTINUOUS
 10
413.76071555780862
 20
387.8588298204877
 30
0.0
 11
413.76071555780862
 21
384.2348298204879
 31
0.0
  0
LINE
  5
ED1
  8
0
  6
CONTINUOUS
 62
     2
 10
420.96071555780929
 20
383.5468298204878
 30
0.0
 11
420.96071555780929
 21
380.9468298204892
 31
0.0
  0
LINE
  5
ED2
  8
0
  6
CONTINUOUS
 10
421.76071555780862
 20
381.74682982048859
 30
0.0
 11
413.76071555780862
 21
381.74682982048859
 31
0.0
  0
POLYLINE
  5
ED3
  8
0
  6
CONTINUOUS
 66
     1
 10
0.0
 20
0.0
 30
0.0
  0
VERTEX
  5
14BC
  8
0
  6
CONTINUOUS
 10
417.76071555780862
 20
383.5468298204878
 30
0.0
 42
0.0851703918331037
  0
VERTEX
  5
14BD
  8
0
  6
CONTINUOUS
 10
421.76071555780862
 20
384.2348298204879
 30
0.0
 42
0.3457679526359281
  0
VERTEX
  5
14BE
  8
0
  6
CONTINUOUS
 10
424.6607155578082
 20
383.89325014381302
 30
0.0
  0
SEQEND
  5
14BF
  8
0
  6
CONTINUOUS
  0
LINE
  5
ED8
  8
0
  6
CONTINUOUS
 10
421.76071555780862
 20
387.85882982048781
 30
0.0
 11
421.76071555780862
 21
384.2348298204879
 31
0.0
  0
CIRCLE
  5
ED9
  8
0
  6
CONTINUOUS
 10
415.0475121222122
 20
465.26003325608423
 30
0.0
 40
2.0499999999999989
  0
ARC
  5
EDA
  8
0
  6
CONTINUOUS
 62
     2
 10
415.04751212221203
 20
465.26003325608411
 30
0.0
 40
2.5
 50
204.98154856581149
 51
158.9636414602291
  0
LINE
  5
EDB
  8
CENTER
  6
CENTER
 10
410.80487143509282
 20
469.50267394320349
 30
0.0
 11
419.64370619992468
 21
460.66383917837169
 31
0.0
  0
LINE
  5
EDC
  8
CENTER
  6
CENTER
 10
417.76071555780862
 20
404.80328215343582
 30
0.0
 11
417.76071555780862
 21
377.5468298204878
 31
0.0
  0
TEXT
  5
EDD
  8
DIM
  6
CONTINUOUS
 10
433.07961859302827
 20
425.41032660468869
 30
0.0
 40
3.0
  1
16.5
  7
ROMANSS
 72
     1
 11
437.36533287874261
 21
426.91032660468869
 31
0.0
 73
     2
  0
SOLID
  5
EDE
  8
DIM
  6
CONTINUOUS
 10
432.26071555780862
 20
424.41032660468869
 30
0.0
 11
432.26071555780862
 21
423.41032660468869
 31
0.0
 12
429.26071555780862
 22
423.91032660468869
 32
0.0
 13
429.26071555780862
 23
423.91032660468869
 33
0.0
  0
SOLID
  5
EDF
  8
DIM
  6
CONTINUOUS
 10
442.76071555780862
 20
424.41032660468869
 30
0.0
 11
442.76071555780862
 21
423.41032660468869
 31
0.0
 12
445.76071555780862
 22
423.91032660468869
 32
0.0
 13
445.76071555780862
 23
423.91032660468869
 33
0.0
  0
LINE
  5
EE0
  8
DIM
  6
CONTINUOUS
 10
442.76071555780862
 20
423.91032660468869
 30
0.0
 11
430.76071555780862
 21
423.91032660468869
 31
0.0
  0
CIRCLE
  5
EE1
  8
0
  6
CONTINUOUS
 10
436.26071555780862
 20
444.0468298204878
 30
0.0
 40
12.49999999999997
  0
TEXT
  5
EE2
  8
DIM
  6
CONTINUOUS
 10
427.7189397232292
 20
369.51267177493452
 30
0.0
 40
3.0
  1
180%%p5%%d
  7
ROMANSS
 72
     1
 11
435.2903682946577
 21
371.01267177493452
 31
0.0
 73
     2
  0
SOLID
  5
EE3
  8
DIM
  6
CONTINUOUS
 10
511.65517100220211
 20
441.0594516939932
 30
0.0
 11
512.6548930490261
 21
441.03587566603858
 31
0.0
 12
512.22576010947819
 22
444.0468298204878
 32
0.0
 13
512.22576010947819
 23
444.0468298204878
 33
0.0
  0
LINE
  5
EE4
  8
DIM
  6
CONTINUOUS
 10
397.76071555780862
 20
444.0468298204878
 30
0.0
 11
359.1542064786521
 21
444.0468298204878
 31
0.0
  0
TEXT
  5
EE5
  8
DIM
  6
CONTINUOUS
 10
433.83214412923718
 20
491.0468298204878
 30
0.0
 40
3.0
  1
60
  7
ROMANSS
 72
     1
 11
436.26071555780862
 21
492.5468298204878
 31
0.0
 73
     2
  0
SOLID
  5
EE6
  8
DIM
  6
CONTINUOUS
 10
409.26071555780862
 20
490.04682982048769
 30
0.0
 11
409.26071555780862
 21
489.04682982048769
 31
0.0
 12
406.26071555780862
 22
489.54682982048769
 32
0.0
 13
406.26071555780862
 23
489.54682982048769
 33
0.0
  0
LINE
  5
EE7
  8
DIM
  6
CONTINUOUS
 10
406.26071555780862
 20
481.04682982048769
 30
0.0
 11
406.26071555780862
 21
490.5468298204878
 31
0.0
  0
LINE
  5
EE8
  8
CENTER
  6
CENTER
 10
406.26071555780862
 20
420.0468298204878
 30
0.0
 11
406.26071555780862
 21
408.0468298204878
 31
0.0
  0
CIRCLE
  5
EE9
  8
0
  6
CONTINUOUS
 10
406.26071555780862
 20
414.0468298204878
 30
0.0
 40
2.5
  0
ARC
  5
EEA
  8
0
  6
CONTINUOUS
 62
     2
 10
406.26071555780862
 20
414.0468298204878
 30
0.0
 40
3.0
 50
72.528507680586145
 51
21.640324594293851
  0
CIRCLE
  5
EEB
  8
0
  6
CONTINUOUS
 10
406.26071555780862
 20
474.0468298204878
 30
0.0
 40
2.5
  0
ARC
  5
EEC
  8
0
  6
CONTINUOUS
 62
     2
 10
406.26071555780862
 20
474.0468298204878
 30
0.0
 40
3.0
 50
72.528507680586145
 51
21.640324594293851
  0
LINE
  5
EED
  8
CENTER
  6
CENTER
 10
406.26071555780862
 20
480.0468298204878
 30
0.0
 11
406.26071555780862
 21
468.0468298204878
 31
0.0
  0
LINE
  5
EEE
  8
CENTER
  6
CENTER
 10
400.26071555780862
 20
414.04682982048791
 30
0.0
 11
412.26071555780851
 21
414.0468298204878
 31
0.0
  0
LINE
  5
EEF
  8
CENTER
  6
CENTER
 10
400.26071555780862
 20
474.0468298204878
 30
0.0
 11
412.26071555780851
 21
474.0468298204878
 31
0.0
  0
LINE
  5
EF0
  8
0
 10
398.76071555780862
 20
481.54682982048769
 30
0.0
 11
398.76071555780862
 21
388.5468298204878
 31
0.0
  0
LINE
  5
EF1
  8
CENTER
  6
CENTER
 10
436.26071555780862
 20
484.5468298204878
 30
0.0
 11
436.26071555780862
 21
429.50431728187601
 31
0.0
  0
SOLID
  5
EF2
  8
DIM
  6
CONTINUOUS
 10
360.86626011341491
 20
441.0594516939932
 30
0.0
 11
359.86653806659092
 21
441.03587566603858
 31
0.0
 12
360.29567100613889
 22
444.0468298204878
 32
0.0
 13
360.29567100613889
 23
444.0468298204878
 33
0.0
  0
LINE
  5
EF3
  8
DIM
  6
CONTINUOUS
 10
474.76071555780862
 20
444.0468298204878
 30
0.0
 11
513.48099225614305
 21
444.0468298204878
 31
0.0
  0
LINE
  5
EF4
  8
0
  6
CONTINUOUS
 10
462.26071555780862
 20
384.2396704671383
 30
0.0
 11
461.0607155578079
 21
383.5468298204878
 31
0.0
  0
LINE
  5
EF5
  8
0
  6
CONTINUOUS
 10
458.76071555780862
 20
383.5468298204878
 30
0.0
 11
458.76071555780862
 21
381.74682982048859
 31
0.0
  0
LINE
  5
EF6
  8
0
  6
CONTINUOUS
 10
462.26071555780862
 20
387.85398917383742
 30
0.0
 11
461.0607155578079
 21
388.5468298204878
 31
0.0
  0
LINE
  5
EF7
  8
0
  6
CONTINUOUS
 10
462.26071555780862
 20
387.85398917383742
 30
0.0
 11
462.26071555780862
 21
384.2396704671383
 31
0.0
  0
LINE
  5
EF8
  8
0
  6
CONTINUOUS
 10
458.76071555780862
 20
387.8588298204877
 30
0.0
 11
458.76071555780862
 21
384.2348298204879
 31
0.0
  0
TEXT
  5
EF9
  8
DIM
  6
CONTINUOUS
 10
444.79521943627611
 20
461.36862147784967
 30
0.0
 40
3.0
  1
%%c14H7
  7
ROMANSS
 11
444.79521943627611
 21
462.86862147784967
 31
0.0
 73
     2
  0
LINE
  5
EFA
  8
DIM
  6
CONTINUOUS
 10
443.38226443202387
 20
459.86862147784967
 30
0.0
 11
458.92021943627611
 21
459.86862147784967
 31
0.0
  0
TEXT
  5
EFB
  8
DIM
  6
CONTINUOUS
 10
483.45650119307879
 20
496.5598637925404
 30
0.0
 40
3.0
  1
2x4-M6x15L
  7
ROMANSS
 11
483.45650119307879
 21
498.0598637925404
 31
0.0
 73
     2
  0
LINE
  5
EFC
  8
DIM
  6
CONTINUOUS
 10
483.33194819235518
 20
495.0598637925404
 30
0.0
 11
508.08150119307879
 21
495.0598637925404
 31
0.0
  0
LINE
  5
EFD
  8
DIM
  6
CONTINUOUS
 10
469.9672029671126
 20
478.76343125214089
 30
0.0
 11
483.33194819235518
 21
495.0598637925404
 31
0.0
  0
SOLID
  5
EFE
  8
DIM
  6
CONTINUOUS
 10
470.35381742967161
 20
478.44636776111702
 30
0.0
 11
469.5805885045537
 21
479.08049474316499
 31
0.0
 12
468.06482202096919
 22
476.44374447678729
 32
0.0
 13
468.06482202096919
 23
476.44374447678729
 33
0.0
  0
SOLID
  5
EFF
  8
DIM
  6
CONTINUOUS
 10
463.26071555780862
 20
490.04682982048769
 30
0.0
 11
463.26071555780862
 21
489.04682982048769
 31
0.0
 12
466.26071555780851
 22
489.54682982048769
 32
0.0
 13
466.26071555780851
 23
489.54682982048769
 33
0.0
  0
LINE
  5
F00
  8
DIM
  6
CONTINUOUS
 10
466.26071555780851
 20
481.04682982048769
 30
0.0
 11
466.26071555780851
 21
490.5468298204878
 31
0.0
  0
LINE
  5
F01
  8
CENTER
  6
CENTER
 10
460.26071555780862
 20
474.0468298204878
 30
0.0
 11
472.26071555780862
 21
474.0468298204878
 31
0.0
  0
LINE
  5
F02
  8
CENTER
  6
CENTER
 10
460.26071555780862
 20
414.0468298204878
 30
0.0
 11
472.26071555780862
 21
414.0468298204878
 31
0.0
  0
LINE
  5
F03
  8
CENTER
  6
CENTER
 10
466.26071555780851
 20
420.0468298204878
 30
0.0
 11
466.26071555780851
 21
408.0468298204878
 31
0.0
  0
CIRCLE
  5
F04
  8
0
  6
CONTINUOUS
 10
466.26071555780851
 20
474.0468298204878
 30
0.0
 40
2.5
  0
ARC
  5
F05
  8
0
  6
CONTINUOUS
 62
     2
 10
466.26071555780851
 20
474.0468298204878
 30
0.0
 40
3.0
 50
162.5285076805861
 51
111.6403245942938
  0
CIRCLE
  5
F06
  8
0
  6
CONTINUOUS
 10
466.26071555780851
 20
414.0468298204878
 30
0.0
 40
2.5
  0
ARC
  5
F07
  8
0
  6
CONTINUOUS
 62
     2
 10
466.26071555780851
 20
414.0468298204878
 30
0.0
 40
3.0
 50
72.528507680586145
 51
21.640324594293851
  0
LINE
  5
F08
  8
CENTER
  6
CENTER
 10
466.26071555780851
 20
480.0468298204878
 30
0.0
 11
466.26071555780851
 21
468.0468298204878
 31
0.0
  0
LINE
  5
F09
  8
0
 10
473.76071555780862
 20
481.54682982048769
 30
0.0
 11
473.76071555780862
 21
388.5468298204878
 31
0.0
  0
TEXT
  5
F0A
  8
DIM
  6
CONTINUOUS
 10
621.89232633651352
 20
340.40196995392222
 30
0.0
 40
3.0
  1
2x4-M6x15L
  7
ROMANSS
 72
     2
 11
649.32089776508496
 21
341.90196995392222
 31
0.0
 73
     2
  0
LINE
  5
F0B
  8
DIM
  6
CONTINUOUS
 10
650.08120420804653
 20
338.90196995392222
 30
0.0
 11
624.69589776508485
 21
338.90196995392222
 31
0.0
  0
TEXT
  5
F0C
  8
DIM
  6
CONTINUOUS
 10
523.60592586968016
 20
443.7888247987878
 30
0.0
 40
3.0
  1
60
 50
90.0
  7
ROMANSS
 72
     1
 11
522.10592586968016
 21
446.2173962273593
 31
0.0
 73
     2
  0
SOLID
  5
F0D
  8
DIM
  6
CONTINUOUS
 10
524.60592586968016
 20
471.04682982048791
 30
0.0
 11
525.60592586968028
 21
471.04682982048791
 31
0.0
 12
525.10592586968028
 22
474.0468298204878
 32
0.0
 13
525.10592586968028
 23
474.0468298204878
 33
0.0
  0
SOLID
  5
F0E
  8
DIM
  6
CONTINUOUS
 10
524.60592586968016
 20
417.04682982048791
 30
0.0
 11
525.60592586968028
 21
417.04682982048791
 31
0.0
 12
525.10592586968028
 22
414.0468298204878
 32
0.0
 13
525.10592586968028
 23
414.0468298204878
 33
0.0
  0
LINE
  5
F0F
  8
DIM
  6
CONTINUOUS
 10
525.10592586968028
 20
417.04682982048791
 30
0.0
 11
525.10592586968028
 21
471.04682982048791
 31
0.0
  0
LINE
  5
F10
  8
CENTER
  6
CENTER
 10
575.76071555780857
 20
385.50402041826243
 30
0.0
 11
575.76071555780857
 21
403.89206276049362
 31
0.0
  0
LINE
  5
F11
  8
HIDDEN
  6
HIDDEN
 10
593.26071555780868
 20
432.5468298204878
 30
0.0
 11
593.26071555780868
 21
438.5468298204878
 31
0.0
  0
LINE
  5
F12
  8
HIDDEN
  6
HIDDEN
 10
581.26071555780868
 20
437.94682982048778
 30
0.0
 11
579.87507491175347
 21
435.5468298204878
 31
0.0
  0
LINE
  5
F13
  8
HIDDEN
  6
HIDDEN
 10
581.26071555780868
 20
433.14682982048782
 30
0.0
 11
581.26071555780868
 21
437.94682982048778
 31
0.0
  0
LINE
  5
F14
  8
HIDDEN
  6
HIDDEN
 10
581.26071555780868
 20
433.14682982048782
 30
0.0
 11
579.87507491175347
 21
435.5468298204878
 31
0.0
  0
LINE
  5
F15
  8
HIDDEN
  6
HIDDEN
 10
584.26071555780857
 20
432.5468298204878
 30
0.0
 11
584.26071555780857
 21
438.5468298204878
 31
0.0
  0
LINE
  5
F16
  8
HIDDEN
  6
HIDDEN
 10
593.26071555780868
 20
433.14682982048782
 30
0.0
 11
581.26071555780868
 21
433.14682982048782
 31
0.0
  0
LINE
  5
F17
  8
HIDDEN
  6
HIDDEN
 10
593.26071555780868
 20
437.94682982048778
 30
0.0
 11
581.26071555780868
 21
437.94682982048778
 31
0.0
  0
LINE
  5
F18
  8
HIDDEN
  6
HIDDEN
 10
599.26071555780857
 20
432.5468298204878
 30
0.0
 11
584.26071555780857
 21
432.5468298204878
 31
0.0
  0
LINE
  5
F19
  8
HIDDEN
  6
HIDDEN
 10
599.26071555780857
 20
438.5468298204878
 30
0.0
 11
584.26071555780857
 21
438.5468298204878
 31
0.0
  0
LINE
  5
F1A
  8
HIDDEN
  6
HIDDEN
 10
593.26071555780868
 20
394.5468298204878
 30
0.0
 11
593.26071555780868
 21
400.54682982048791
 31
0.0
  0
LINE
  5
F1B
  8
HIDDEN
  6
HIDDEN
 10
584.26071555780857
 20
394.5468298204878
 30
0.0
 11
584.26071555780857
 21
400.54682982048791
 31
0.0
  0
LINE
  5
F1C
  8
HIDDEN
  6
HIDDEN
 10
581.26071555780868
 20
399.94682982048778
 30
0.0
 11
579.87507491175347
 21
397.5468298204878
 31
0.0
  0
LINE
  5
F1D
  8
HIDDEN
  6
HIDDEN
 10
581.26071555780868
 20
395.14682982048771
 30
0.0
 11
579.87507491175347
 21
397.5468298204878
 31
0.0
  0
LINE
  5
F1E
  8
HIDDEN
  6
HIDDEN
 10
581.26071555780868
 20
395.14682982048771
 30
0.0
 11
581.26071555780868
 21
399.94682982048778
 31
0.0
  0
LINE
  5
F1F
  8
HIDDEN
  6
HIDDEN
 10
593.26071555780868
 20
399.94682982048778
 30
0.0
 11
581.26071555780868
 21
399.94682982048778
 31
0.0
  0
LINE
  5
F20
  8
HIDDEN
  6
HIDDEN
 10
593.26071555780868
 20
395.14682982048771
 30
0.0
 11
581.26071555780868
 21
395.14682982048771
 31
0.0
  0
LINE
  5
F21
  8
HIDDEN
  6
HIDDEN
 10
599.26071555780857
 20
400.54682982048791
 30
0.0
 11
584.26071555780857
 21
400.54682982048791
 31
0.0
  0
LINE
  5
F22
  8
HIDDEN
  6
HIDDEN
 10
599.26071555780857
 20
394.5468298204878
 30
0.0
 11
584.26071555780857
 21
394.5468298204878
 31
0.0
  0
LINE
  5
F23
  8
0
 10
599.26071555780857
 20
434.04682982048791
 30
0.0
 11
602.26071555780868
 21
434.04682982048791
 31
0.0
  0
ARC
  5
F24
  8
0
 10
602.26071555780868
 20
433.0468298204878
 30
0.0
 40
1.0
 50
0.0
 51
90.0
  0
LINE
  5
F25
  8
CENTER
  6
CENTER
 10
584.26071555780857
 20
385.9449581921379
 30
0.0
 11
584.26071555780857
 21
403.9174983478286
 31
0.0
  0
LINE
  5
F26
  8
0
 10
569.26071555780868
 20
443.0468298204878
 30
0.0
 11
599.26071555780857
 21
442.5468298204878
 31
0.0
  0
LINE
  5
F27
  8
CENTER
  6
CENTER
 10
602.34826566586003
 20
435.5468298204878
 30
0.0
 11
568.26071555780868
 21
435.5468298204878
 31
0.0
  0
LINE
  5
F28
  8
0
 10
599.26071555780857
 20
399.0468298204878
 30
0.0
 11
602.26071555780868
 21
399.0468298204878
 31
0.0
  0
ARC
  5
F29
  8
0
 10
602.26071555780868
 20
400.0468298204878
 30
0.0
 40
1.0
 50
270.0
 51
0.0
  0
LINE
  5
F2A
  8
0
 10
569.26071555780868
 20
390.0468298204878
 30
0.0
 11
599.26071555780857
 21
390.5468298204878
 31
0.0
  0
LINE
  5
F2B
  8
CENTER
  6
CENTER
 10
601.68384569611703
 20
397.5468298204878
 30
0.0
 11
568.26071555780868
 21
397.5468298204878
 31
0.0
  0
LINE
  5
F2C
  8
0
 10
603.26071555780857
 20
433.0468298204878
 30
0.0
 11
603.26071555780857
 21
400.0468298204878
 31
0.0
  0
LINE
  5
F2D
  8
0
 10
599.26071555780857
 20
442.5468298204878
 30
0.0
 11
599.26071555780857
 21
390.5468298204878
 31
0.0
  0
LINE
  5
F2E
  8
0
 10
569.26071555780868
 20
443.0468298204878
 30
0.0
 11
569.26071555780868
 21
390.0468298204878
 31
0.0
  0
TEXT
  5
F2F
  8
DIM
  6
CONTINUOUS
 10
755.12079384892638
 20
338.55615230059351
 30
0.0
 40
3.0
  1
8
 50
90.0
  7
ROMANSS
 72
     1
 11
753.6207938489265
 21
339.55615230059351
 31
0.0
 73
     2
  0
CIRCLE
  5
F30
  8
0
  6
CONTINUOUS
 10
169.90063726669069
 20
311.0259398252557
 30
0.0
 40
2.5
  0
ARC
  5
F31
  8
0
  6
CONTINUOUS
 62
     2
 10
169.90063726669069
 20
311.0259398252557
 30
0.0
 40
3.0000000000000031
 50
165.00000000000551
 51
104.9999999999944
  0
CIRCLE
  5
F32
  8
0
  6
CONTINUOUS
 10
207.90063726669081
 20
311.0259398252557
 30
0.0
 40
2.5
  0
ARC
  5
F33
  8
0
  6
CONTINUOUS
 62
     2
 10
207.90063726669081
 20
311.0259398252557
 30
0.0
 40
3.0000000000000031
 50
165.00000000000551
 51
104.9999999999944
  0
CIRCLE
  5
F34
  8
0
  6
CONTINUOUS
 10
169.90063726669069
 20
273.0259398252557
 30
0.0
 40
2.5
  0
ARC
  5
F35
  8
0
  6
CONTINUOUS
 62
     2
 10
169.90063726669069
 20
273.0259398252557
 30
0.0
 40
3.0000000000000031
 50
165.00000000000551
 51
104.9999999999944
  0
CIRCLE
  5
F36
  8
0
  6
CONTINUOUS
 10
207.90063726669081
 20
273.0259398252557
 30
0.0
 40
2.5
  0
ARC
  5
F37
  8
0
  6
CONTINUOUS
 62
     2
 10
207.90063726669081
 20
273.0259398252557
 30
0.0
 40
3.0000000000000031
 50
165.00000000000551
 51
104.9999999999944
  0
CIRCLE
  5
F38
  8
0
  6
CONTINUOUS
 10
664.6207938489265
 20
311.0259398252557
 30
0.0
 40
2.5
  0
ARC
  5
F39
  8
0
  6
CONTINUOUS
 62
     2
 10
664.6207938489265
 20
311.0259398252557
 30
0.0
 40
3.0000000000000031
 50
75.000000000005556
 51
14.999999999994451
  0
CIRCLE
  5
F3A
  8
0
  6
CONTINUOUS
 10
702.6207938489265
 20
311.0259398252557
 30
0.0
 40
2.5
  0
ARC
  5
F3B
  8
0
  6
CONTINUOUS
 62
     2
 10
702.6207938489265
 20
311.0259398252557
 30
0.0
 40
3.0000000000000031
 50
75.000000000005556
 51
14.999999999994451
  0
CIRCLE
  5
F3C
  8
0
  6
CONTINUOUS
 10
702.6207938489265
 20
273.0259398252557
 30
0.0
 40
2.5
  0
ARC
  5
F3D
  8
0
  6
CONTINUOUS
 62
     2
 10
702.6207938489265
 20
273.0259398252557
 30
0.0
 40
3.0000000000000031
 50
75.000000000005556
 51
14.999999999994451
  0
CIRCLE
  5
F3E
  8
0
  6
CONTINUOUS
 10
664.6207938489265
 20
273.0259398252557
 30
0.0
 40
2.5
  0
ARC
  5
F3F
  8
0
  6
CONTINUOUS
 62
     2
 10
664.6207938489265
 20
273.0259398252557
 30
0.0
 40
3.0000000000000031
 50
75.000000000005556
 51
14.999999999994451
  0
LINE
  5
F40
  8
CENTER
  6
CENTER
 10
296.76071555780851
 20
385.50402041826243
 30
0.0
 11
296.76071555780851
 21
403.89206276049362
 31
0.0
  0
LINE
  5
F41
  8
HIDDEN
  6
HIDDEN
 10
279.26071555780851
 20
432.5468298204878
 30
0.0
 11
279.26071555780851
 21
438.5468298204878
 31
0.0
  0
LINE
  5
F42
  8
HIDDEN
  6
HIDDEN
 10
291.26071555780851
 20
437.94682982048778
 30
0.0
 11
292.64635620386372
 21
435.5468298204878
 31
0.0
  0
LINE
  5
F43
  8
HIDDEN
  6
HIDDEN
 10
291.26071555780851
 20
433.14682982048782
 30
0.0
 11
291.26071555780851
 21
437.94682982048778
 31
0.0
  0
LINE
  5
F44
  8
HIDDEN
  6
HIDDEN
 10
291.26071555780851
 20
433.14682982048782
 30
0.0
 11
292.64635620386372
 21
435.5468298204878
 31
0.0
  0
LINE
  5
F45
  8
HIDDEN
  6
HIDDEN
 10
288.26071555780851
 20
432.5468298204878
 30
0.0
 11
288.26071555780851
 21
438.5468298204878
 31
0.0
  0
LINE
  5
F46
  8
HIDDEN
  6
HIDDEN
 10
279.26071555780851
 20
433.14682982048782
 30
0.0
 11
291.26071555780851
 21
433.14682982048782
 31
0.0
  0
LINE
  5
F47
  8
HIDDEN
  6
HIDDEN
 10
279.26071555780851
 20
437.94682982048778
 30
0.0
 11
291.26071555780851
 21
437.94682982048778
 31
0.0
  0
LINE
  5
F48
  8
HIDDEN
  6
HIDDEN
 10
273.26071555780851
 20
432.5468298204878
 30
0.0
 11
288.26071555780851
 21
432.5468298204878
 31
0.0
  0
LINE
  5
F49
  8
HIDDEN
  6
HIDDEN
 10
273.26071555780851
 20
438.5468298204878
 30
0.0
 11
288.26071555780851
 21
438.5468298204878
 31
0.0
  0
LINE
  5
F4A
  8
HIDDEN
  6
HIDDEN
 10
279.26071555780851
 20
394.5468298204878
 30
0.0
 11
279.26071555780851
 21
400.54682982048791
 31
0.0
  0
LINE
  5
F4B
  8
HIDDEN
  6
HIDDEN
 10
288.26071555780851
 20
394.5468298204878
 30
0.0
 11
288.26071555780851
 21
400.54682982048791
 31
0.0
  0
LINE
  5
F4C
  8
HIDDEN
  6
HIDDEN
 10
291.26071555780851
 20
399.94682982048778
 30
0.0
 11
292.64635620386372
 21
397.5468298204878
 31
0.0
  0
LINE
  5
F4D
  8
HIDDEN
  6
HIDDEN
 10
291.26071555780851
 20
395.14682982048771
 30
0.0
 11
292.64635620386372
 21
397.5468298204878
 31
0.0
  0
LINE
  5
F4E
  8
HIDDEN
  6
HIDDEN
 10
291.26071555780851
 20
395.14682982048771
 30
0.0
 11
291.26071555780851
 21
399.94682982048778
 31
0.0
  0
LINE
  5
F4F
  8
HIDDEN
  6
HIDDEN
 10
279.26071555780851
 20
399.94682982048778
 30
0.0
 11
291.26071555780851
 21
399.94682982048778
 31
0.0
  0
LINE
  5
F50
  8
HIDDEN
  6
HIDDEN
 10
279.26071555780851
 20
395.14682982048771
 30
0.0
 11
291.26071555780851
 21
395.14682982048771
 31
0.0
  0
LINE
  5
F51
  8
HIDDEN
  6
HIDDEN
 10
273.26071555780851
 20
400.54682982048791
 30
0.0
 11
288.26071555780851
 21
400.54682982048791
 31
0.0
  0
LINE
  5
F52
  8
HIDDEN
  6
HIDDEN
 10
273.26071555780851
 20
394.5468298204878
 30
0.0
 11
288.26071555780851
 21
394.5468298204878
 31
0.0
  0
LINE
  5
F53
  8
CENTER
  6
CENTER
 10
288.26071555780851
 20
385.9449581921379
 30
0.0
 11
288.26071555780851
 21
403.9174983478286
 31
0.0
  0
LINE
  5
F54
  8
CENTER
  6
CENTER
 10
270.17316544975722
 20
435.5468298204878
 30
0.0
 11
304.26071555780851
 21
435.5468298204878
 31
0.0
  0
LINE
  5
F55
  8
CENTER
  6
CENTER
 10
270.83758541950021
 20
397.5468298204878
 30
0.0
 11
304.26071555780851
 21
397.5468298204878
 31
0.0
  0
LINE
  5
F56
  8
0
 10
599.26071555780857
 20
190.6460982339463
 30
0.0
 11
602.26071555780868
 21
190.6460982339463
 31
0.0
  0
LINE
  5
F57
  8
HIDDEN
  6
HIDDEN
 10
279.26071555780851
 20
308.0259398252557
 30
0.0
 11
279.26071555780851
 21
314.0259398252557
 31
0.0
  0
LINE
  5
F58
  8
HIDDEN
  6
HIDDEN
 10
291.26071555780851
 20
313.42593982525568
 30
0.0
 11
292.64635620386372
 21
311.0259398252557
 31
0.0
  0
LINE
  5
F59
  8
HIDDEN
  6
HIDDEN
 10
291.26071555780851
 20
308.62593982525578
 30
0.0
 11
291.26071555780851
 21
313.42593982525568
 31
0.0
  0
LINE
  5
F5A
  8
HIDDEN
  6
HIDDEN
 10
291.26071555780851
 20
308.62593982525578
 30
0.0
 11
292.64635620386372
 21
311.0259398252557
 31
0.0
  0
LINE
  5
F5B
  8
HIDDEN
  6
HIDDEN
 10
288.26071555780851
 20
308.0259398252557
 30
0.0
 11
288.26071555780851
 21
314.0259398252557
 31
0.0
  0
LINE
  5
F5C
  8
HIDDEN
  6
HIDDEN
 10
279.26071555780851
 20
308.62593982525578
 30
0.0
 11
291.26071555780851
 21
308.62593982525578
 31
0.0
  0
LINE
  5
F5D
  8
HIDDEN
  6
HIDDEN
 10
279.26071555780851
 20
313.42593982525568
 30
0.0
 11
291.26071555780851
 21
313.42593982525568
 31
0.0
  0
LINE
  5
F5E
  8
HIDDEN
  6
HIDDEN
 10
273.26071555780851
 20
308.0259398252557
 30
0.0
 11
288.26071555780851
 21
308.0259398252557
 31
0.0
  0
LINE
  5
F5F
  8
HIDDEN
  6
HIDDEN
 10
273.26071555780851
 20
314.0259398252557
 30
0.0
 11
288.26071555780851
 21
314.0259398252557
 31
0.0
  0
LINE
  5
F60
  8
HIDDEN
  6
HIDDEN
 10
279.26071555780851
 20
270.0259398252557
 30
0.0
 11
279.26071555780851
 21
276.0259398252557
 31
0.0
  0
LINE
  5
F61
  8
HIDDEN
  6
HIDDEN
 10
288.26071555780851
 20
270.0259398252557
 30
0.0
 11
288.26071555780851
 21
276.0259398252557
 31
0.0
  0
LINE
  5
F62
  8
HIDDEN
  6
HIDDEN
 10
291.26071555780851
 20
275.42593982525568
 30
0.0
 11
292.64635620386372
 21
273.0259398252557
 31
0.0
  0
LINE
  5
F63
  8
HIDDEN
  6
HIDDEN
 10
291.26071555780851
 20
270.62593982525561
 30
0.0
 11
292.64635620386372
 21
273.0259398252557
 31
0.0
  0
LINE
  5
F64
  8
HIDDEN
  6
HIDDEN
 10
291.26071555780851
 20
270.62593982525561
 30
0.0
 11
291.26071555780851
 21
275.42593982525568
 31
0.0
  0
LINE
  5
F65
  8
HIDDEN
  6
HIDDEN
 10
279.26071555780851
 20
275.42593982525568
 30
0.0
 11
291.26071555780851
 21
275.42593982525568
 31
0.0
  0
LINE
  5
F66
  8
HIDDEN
  6
HIDDEN
 10
279.26071555780851
 20
270.62593982525561
 30
0.0
 11
291.26071555780851
 21
270.62593982525561
 31
0.0
  0
LINE
  5
F67
  8
HIDDEN
  6
HIDDEN
 10
273.26071555780851
 20
276.0259398252557
 30
0.0
 11
288.26071555780851
 21
276.0259398252557
 31
0.0
  0
LINE
  5
F68
  8
HIDDEN
  6
HIDDEN
 10
273.26071555780851
 20
270.0259398252557
 30
0.0
 11
288.26071555780851
 21
270.0259398252557
 31
0.0
  0
LINE
  5
F69
  8
CENTER
  6
CENTER
 10
270.17316544975711
 20
311.0259398252557
 30
0.0
 11
304.26071555780851
 21
311.0259398252557
 31
0.0
  0
LINE
  5
F6A
  8
CENTER
  6
CENTER
 10
270.8375854195001
 20
273.0259398252557
 30
0.0
 11
304.26071555780851
 21
273.0259398252557
 31
0.0
  0
LINE
  5
F6B
  8
HIDDEN
  6
HIDDEN
 10
279.26071555780851
 20
189.1460982339463
 30
0.0
 11
279.26071555780851
 21
195.1460982339463
 31
0.0
  0
LINE
  5
F6C
  8
HIDDEN
  6
HIDDEN
 10
291.26071555780851
 20
194.54609823394631
 30
0.0
 11
292.64635620386372
 21
192.1460982339463
 31
0.0
  0
LINE
  5
F6D
  8
HIDDEN
  6
HIDDEN
 10
291.26071555780851
 20
189.7460982339463
 30
0.0
 11
291.26071555780851
 21
194.54609823394631
 31
0.0
  0
LINE
  5
F6E
  8
HIDDEN
  6
HIDDEN
 10
291.26071555780851
 20
189.7460982339463
 30
0.0
 11
292.64635620386372
 21
192.1460982339463
 31
0.0
  0
LINE
  5
F6F
  8
HIDDEN
  6
HIDDEN
 10
288.26071555780851
 20
189.1460982339463
 30
0.0
 11
288.26071555780851
 21
195.1460982339463
 31
0.0
  0
LINE
  5
F70
  8
HIDDEN
  6
HIDDEN
 10
279.26071555780851
 20
189.7460982339463
 30
0.0
 11
291.26071555780851
 21
189.7460982339463
 31
0.0
  0
LINE
  5
F71
  8
HIDDEN
  6
HIDDEN
 10
279.26071555780851
 20
194.54609823394631
 30
0.0
 11
291.26071555780851
 21
194.54609823394631
 31
0.0
  0
LINE
  5
F72
  8
HIDDEN
  6
HIDDEN
 10
273.26071555780851
 20
189.1460982339463
 30
0.0
 11
288.26071555780851
 21
189.1460982339463
 31
0.0
  0
LINE
  5
F73
  8
HIDDEN
  6
HIDDEN
 10
273.26071555780851
 20
195.1460982339463
 30
0.0
 11
288.26071555780851
 21
195.1460982339463
 31
0.0
  0
LINE
  5
F74
  8
HIDDEN
  6
HIDDEN
 10
279.26071555780851
 20
151.1460982339463
 30
0.0
 11
279.26071555780851
 21
157.1460982339463
 31
0.0
  0
LINE
  5
F75
  8
HIDDEN
  6
HIDDEN
 10
288.26071555780851
 20
151.1460982339463
 30
0.0
 11
288.26071555780851
 21
157.1460982339463
 31
0.0
  0
LINE
  5
F76
  8
HIDDEN
  6
HIDDEN
 10
291.26071555780851
 20
156.54609823394631
 30
0.0
 11
292.64635620386372
 21
154.1460982339463
 31
0.0
  0
LINE
  5
F77
  8
HIDDEN
  6
HIDDEN
 10
291.26071555780851
 20
151.74609823394621
 30
0.0
 11
292.64635620386372
 21
154.1460982339463
 31
0.0
  0
LINE
  5
F78
  8
HIDDEN
  6
HIDDEN
 10
291.26071555780851
 20
151.74609823394621
 30
0.0
 11
291.26071555780851
 21
156.54609823394631
 31
0.0
  0
LINE
  5
F79
  8
HIDDEN
  6
HIDDEN
 10
279.26071555780851
 20
156.54609823394631
 30
0.0
 11
291.26071555780851
 21
156.54609823394631
 31
0.0
  0
LINE
  5
F7A
  8
HIDDEN
  6
HIDDEN
 10
279.26071555780851
 20
151.74609823394621
 30
0.0
 11
291.26071555780851
 21
151.74609823394621
 31
0.0
  0
LINE
  5
F7B
  8
HIDDEN
  6
HIDDEN
 10
273.26071555780851
 20
157.1460982339463
 30
0.0
 11
288.26071555780851
 21
157.1460982339463
 31
0.0
  0
LINE
  5
F7C
  8
HIDDEN
  6
HIDDEN
 10
273.26071555780851
 20
151.1460982339463
 30
0.0
 11
288.26071555780851
 21
151.1460982339463
 31
0.0
  0
LINE
  5
F7D
  8
CENTER
  6
CENTER
 10
270.17316544975722
 20
192.1460982339463
 30
0.0
 11
304.26071555780851
 21
192.1460982339463
 31
0.0
  0
LINE
  5
F7E
  8
CENTER
  6
CENTER
 10
270.83758541950021
 20
154.1460982339463
 30
0.0
 11
304.26071555780851
 21
154.1460982339463
 31
0.0
  0
LINE
  5
F7F
  8
CENTER
  6
CENTER
 10
296.76071555780851
 20
204.18890763617179
 30
0.0
 11
296.76071555780851
 21
185.80086529394049
 31
0.0
  0
LINE
  5
F80
  8
CENTER
  6
CENTER
 10
288.26071555780851
 20
203.74796986229629
 30
0.0
 11
288.26071555780851
 21
185.77542970660551
 31
0.0
  0
LINE
  5
F81
  8
HIDDEN
  6
HIDDEN
 10
593.26071555780868
 20
308.0259398252557
 30
0.0
 11
593.26071555780868
 21
314.0259398252557
 31
0.0
  0
LINE
  5
F82
  8
HIDDEN
  6
HIDDEN
 10
581.26071555780868
 20
313.42593982525568
 30
0.0
 11
579.87507491175347
 21
311.0259398252557
 31
0.0
  0
LINE
  5
F83
  8
HIDDEN
  6
HIDDEN
 10
581.26071555780868
 20
308.62593982525578
 30
0.0
 11
581.26071555780868
 21
313.42593982525568
 31
0.0
  0
LINE
  5
F84
  8
HIDDEN
  6
HIDDEN
 10
581.26071555780868
 20
308.62593982525578
 30
0.0
 11
579.87507491175347
 21
311.0259398252557
 31
0.0
  0
LINE
  5
F85
  8
HIDDEN
  6
HIDDEN
 10
584.26071555780857
 20
308.0259398252557
 30
0.0
 11
584.26071555780857
 21
314.0259398252557
 31
0.0
  0
LINE
  5
F86
  8
HIDDEN
  6
HIDDEN
 10
593.26071555780868
 20
308.62593982525578
 30
0.0
 11
581.26071555780868
 21
308.62593982525578
 31
0.0
  0
LINE
  5
F87
  8
HIDDEN
  6
HIDDEN
 10
593.26071555780868
 20
313.42593982525568
 30
0.0
 11
581.26071555780868
 21
313.42593982525568
 31
0.0
  0
LINE
  5
F88
  8
HIDDEN
  6
HIDDEN
 10
599.26071555780857
 20
308.0259398252557
 30
0.0
 11
584.26071555780857
 21
308.0259398252557
 31
0.0
  0
LINE
  5
F89
  8
HIDDEN
  6
HIDDEN
 10
599.26071555780857
 20
314.0259398252557
 30
0.0
 11
584.26071555780857
 21
314.0259398252557
 31
0.0
  0
LINE
  5
F8A
  8
HIDDEN
  6
HIDDEN
 10
593.26071555780868
 20
270.0259398252557
 30
0.0
 11
593.26071555780868
 21
276.0259398252557
 31
0.0
  0
LINE
  5
F8B
  8
HIDDEN
  6
HIDDEN
 10
584.26071555780857
 20
270.0259398252557
 30
0.0
 11
584.26071555780857
 21
276.0259398252557
 31
0.0
  0
LINE
  5
F8C
  8
HIDDEN
  6
HIDDEN
 10
581.26071555780868
 20
275.42593982525568
 30
0.0
 11
579.87507491175347
 21
273.0259398252557
 31
0.0
  0
LINE
  5
F8D
  8
HIDDEN
  6
HIDDEN
 10
581.26071555780868
 20
270.62593982525561
 30
0.0
 11
579.87507491175347
 21
273.0259398252557
 31
0.0
  0
LINE
  5
F8E
  8
HIDDEN
  6
HIDDEN
 10
581.26071555780868
 20
270.62593982525561
 30
0.0
 11
581.26071555780868
 21
275.42593982525568
 31
0.0
  0
LINE
  5
F8F
  8
HIDDEN
  6
HIDDEN
 10
593.26071555780868
 20
275.42593982525568
 30
0.0
 11
581.26071555780868
 21
275.42593982525568
 31
0.0
  0
LINE
  5
F90
  8
HIDDEN
  6
HIDDEN
 10
593.26071555780868
 20
270.62593982525561
 30
0.0
 11
581.26071555780868
 21
270.62593982525561
 31
0.0
  0
LINE
  5
F91
  8
HIDDEN
  6
HIDDEN
 10
599.26071555780857
 20
276.0259398252557
 30
0.0
 11
584.26071555780857
 21
276.0259398252557
 31
0.0
  0
LINE
  5
F92
  8
HIDDEN
  6
HIDDEN
 10
599.26071555780857
 20
270.0259398252557
 30
0.0
 11
584.26071555780857
 21
270.0259398252557
 31
0.0
  0
LINE
  5
F93
  8
CENTER
  6
CENTER
 10
602.34826566586003
 20
311.0259398252557
 30
0.0
 11
568.26071555780868
 21
311.0259398252557
 31
0.0
  0
LINE
  5
F94
  8
CENTER
  6
CENTER
 10
601.68384569611703
 20
273.0259398252557
 30
0.0
 11
568.26071555780868
 21
273.0259398252557
 31
0.0
  0
LINE
  5
F95
  8
HIDDEN
  6
HIDDEN
 10
593.26071555780868
 20
189.1460982339463
 30
0.0
 11
593.26071555780868
 21
195.1460982339463
 31
0.0
  0
LINE
  5
F96
  8
HIDDEN
  6
HIDDEN
 10
581.26071555780868
 20
194.54609823394631
 30
0.0
 11
579.87507491175347
 21
192.1460982339463
 31
0.0
  0
LINE
  5
F97
  8
HIDDEN
  6
HIDDEN
 10
581.26071555780868
 20
189.7460982339463
 30
0.0
 11
581.26071555780868
 21
194.54609823394631
 31
0.0
  0
LINE
  5
F98
  8
HIDDEN
  6
HIDDEN
 10
581.26071555780868
 20
189.7460982339463
 30
0.0
 11
579.87507491175347
 21
192.1460982339463
 31
0.0
  0
LINE
  5
F99
  8
HIDDEN
  6
HIDDEN
 10
584.26071555780857
 20
189.1460982339463
 30
0.0
 11
584.26071555780857
 21
195.1460982339463
 31
0.0
  0
LINE
  5
F9A
  8
HIDDEN
  6
HIDDEN
 10
593.26071555780868
 20
189.7460982339463
 30
0.0
 11
581.26071555780868
 21
189.7460982339463
 31
0.0
  0
LINE
  5
F9B
  8
HIDDEN
  6
HIDDEN
 10
593.26071555780868
 20
194.54609823394631
 30
0.0
 11
581.26071555780868
 21
194.54609823394631
 31
0.0
  0
LINE
  5
F9C
  8
HIDDEN
  6
HIDDEN
 10
599.26071555780857
 20
189.1460982339463
 30
0.0
 11
584.26071555780857
 21
189.1460982339463
 31
0.0
  0
LINE
  5
F9D
  8
HIDDEN
  6
HIDDEN
 10
599.26071555780857
 20
195.1460982339463
 30
0.0
 11
584.26071555780857
 21
195.1460982339463
 31
0.0
  0
LINE
  5
F9E
  8
HIDDEN
  6
HIDDEN
 10
593.26071555780868
 20
151.1460982339463
 30
0.0
 11
593.26071555780868
 21
157.1460982339463
 31
0.0
  0
LINE
  5
F9F
  8
HIDDEN
  6
HIDDEN
 10
584.26071555780857
 20
151.1460982339463
 30
0.0
 11
584.26071555780857
 21
157.1460982339463
 31
0.0
  0
LINE
  5
FA0
  8
HIDDEN
  6
HIDDEN
 10
581.26071555780868
 20
156.54609823394631
 30
0.0
 11
579.87507491175347
 21
154.1460982339463
 31
0.0
  0
LINE
  5
FA1
  8
HIDDEN
  6
HIDDEN
 10
581.26071555780868
 20
151.74609823394621
 30
0.0
 11
579.87507491175347
 21
154.1460982339463
 31
0.0
  0
LINE
  5
FA2
  8
HIDDEN
  6
HIDDEN
 10
581.26071555780868
 20
151.74609823394621
 30
0.0
 11
581.26071555780868
 21
156.54609823394631
 31
0.0
  0
LINE
  5
FA3
  8
HIDDEN
  6
HIDDEN
 10
593.26071555780868
 20
156.54609823394631
 30
0.0
 11
581.26071555780868
 21
156.54609823394631
 31
0.0
  0
LINE
  5
FA4
  8
HIDDEN
  6
HIDDEN
 10
593.26071555780868
 20
151.74609823394621
 30
0.0
 11
581.26071555780868
 21
151.74609823394621
 31
0.0
  0
LINE
  5
FA5
  8
HIDDEN
  6
HIDDEN
 10
599.26071555780857
 20
157.1460982339463
 30
0.0
 11
584.26071555780857
 21
157.1460982339463
 31
0.0
  0
LINE
  5
FA6
  8
HIDDEN
  6
HIDDEN
 10
599.26071555780857
 20
151.1460982339463
 30
0.0
 11
584.26071555780857
 21
151.1460982339463
 31
0.0
  0
LINE
  5
FA7
  8
CENTER
  6
CENTER
 10
602.34826566586003
 20
192.1460982339463
 30
0.0
 11
568.26071555780868
 21
192.1460982339463
 31
0.0
  0
LINE
  5
FA8
  8
CENTER
  6
CENTER
 10
601.68384569611703
 20
154.1460982339463
 30
0.0
 11
568.26071555780868
 21
154.1460982339463
 31
0.0
  0
LINE
  5
FA9
  8
CENTER
  6
CENTER
 10
575.76071555780857
 20
204.18890763617179
 30
0.0
 11
575.76071555780857
 21
185.80086529394049
 31
0.0
  0
LINE
  5
FAA
  8
CENTER
  6
CENTER
 10
584.26071555780857
 20
203.74796986229629
 30
0.0
 11
584.26071555780857
 21
185.77542970660551
 31
0.0
  0
CIRCLE
  5
FAB
  8
0
  6
CONTINUOUS
 10
436.26071555780862
 20
474.0468298204878
 30
0.0
 40
4.25
  0
CIRCLE
  5
FAC
  8
0
  6
CONTINUOUS
 10
436.26071555780862
 20
474.0468298204878
 30
0.0
 40
3.9035796766743651
  0
POLYLINE
  5
FAD
  8
0
  6
CONTINUOUS
 66
     1
 10
0.0
 20
0.0
 30
0.0
 70
     1
  0
VERTEX
  5
14C0
  8
0
  6
CONTINUOUS
 10
435.10601501942858
 20
476.0468298204878
 30
0.0
  0
VERTEX
  5
14C1
  8
0
  6
CONTINUOUS
 10
433.95131448105047
 20
474.0468298204878
 30
0.0
  0
VERTEX
  5
14C2
  8
0
  6
CONTINUOUS
 10
435.10601501942858
 20
472.0468298204878
 30
0.0
  0
VERTEX
  5
14C3
  8
0
  6
CONTINUOUS
 10
437.41541609618861
 20
472.0468298204878
 30
0.0
  0
VERTEX
  5
14C4
  8
0
  6
CONTINUOUS
 10
438.57011663456672
 20
474.0468298204878
 30
0.0
  0
VERTEX
  5
14C5
  8
0
  6
CONTINUOUS
 10
437.41541609618861
 20
476.0468298204878
 30
0.0
  0
SEQEND
  5
14C6
  8
0
  6
CONTINUOUS
  0
CIRCLE
  5
FB5
  8
0
  6
CONTINUOUS
 10
436.26071555780862
 20
414.0468298204878
 30
0.0
 40
4.25
  0
CIRCLE
  5
FB6
  8
0
  6
CONTINUOUS
 10
436.26071555780862
 20
414.0468298204878
 30
0.0
 40
3.9035796766743651
  0
POLYLINE
  5
FB7
  8
0
  6
CONTINUOUS
 66
     1
 10
0.0
 20
0.0
 30
0.0
 70
     1
  0
VERTEX
  5
14C7
  8
0
  6
CONTINUOUS
 10
435.10601501942858
 20
416.0468298204878
 30
0.0
  0
VERTEX
  5
14C8
  8
0
  6
CONTINUOUS
 10
433.95131448105047
 20
414.0468298204878
 30
0.0
  0
VERTEX
  5
14C9
  8
0
  6
CONTINUOUS
 10
435.10601501942858
 20
412.0468298204878
 30
0.0
  0
VERTEX
  5
14CA
  8
0
  6
CONTINUOUS
 10
437.41541609618861
 20
412.0468298204878
 30
0.0
  0
VERTEX
  5
14CB
  8
0
  6
CONTINUOUS
 10
438.57011663456672
 20
414.0468298204878
 30
0.0
  0
VERTEX
  5
14CC
  8
0
  6
CONTINUOUS
 10
437.41541609618861
 20
416.0468298204878
 30
0.0
  0
SEQEND
  5
14CD
  8
0
  6
CONTINUOUS
  0
CIRCLE
  5
FBF
  8
0
  6
CONTINUOUS
 10
406.26071555780862
 20
444.0468298204878
 30
0.0
 40
4.25
  0
CIRCLE
  5
FC0
  8
0
  6
CONTINUOUS
 10
406.26071555780862
 20
444.0468298204878
 30
0.0
 40
3.9035796766743651
  0
POLYLINE
  5
FC1
  8
0
  6
CONTINUOUS
 66
     1
 10
0.0
 20
0.0
 30
0.0
 70
     1
  0
VERTEX
  5
14CE
  8
0
  6
CONTINUOUS
 10
405.10601501942858
 20
446.04682982048791
 30
0.0
  0
VERTEX
  5
14CF
  8
0
  6
CONTINUOUS
 10
403.95131448105042
 20
444.0468298204878
 30
0.0
  0
VERTEX
  5
14D0
  8
0
  6
CONTINUOUS
 10
405.10601501942858
 20
442.04682982048791
 30
0.0
  0
VERTEX
  5
14D1
  8
0
  6
CONTINUOUS
 10
407.41541609618861
 20
442.04682982048791
 30
0.0
  0
VERTEX
  5
14D2
  8
0
  6
CONTINUOUS
 10
408.57011663456677
 20
444.0468298204878
 30
0.0
  0
VERTEX
  5
14D3
  8
0
  6
CONTINUOUS
 10
407.41541609618861
 20
446.04682982048791
 30
0.0
  0
SEQEND
  5
14D4
  8
0
  6
CONTINUOUS
  0
CIRCLE
  5
FC9
  8
0
  6
CONTINUOUS
 10
466.26071555780851
 20
444.0468298204878
 30
0.0
 40
4.25
  0
CIRCLE
  5
FCA
  8
0
  6
CONTINUOUS
 10
466.26071555780851
 20
444.0468298204878
 30
0.0
 40
3.9035796766743651
  0
POLYLINE
  5
FCB
  8
0
  6
CONTINUOUS
 66
     1
 10
0.0
 20
0.0
 30
0.0
 70
     1
  0
VERTEX
  5
14D5
  8
0
  6
CONTINUOUS
 10
465.10601501942858
 20
446.04682982048791
 30
0.0
  0
VERTEX
  5
14D6
  8
0
  6
CONTINUOUS
 10
463.95131448105042
 20
444.0468298204878
 30
0.0
  0
VERTEX
  5
14D7
  8
0
  6
CONTINUOUS
 10
465.10601501942858
 20
442.04682982048791
 30
0.0
  0
VERTEX
  5
14D8
  8
0
  6
CONTINUOUS
 10
467.41541609618861
 20
442.04682982048791
 30
0.0
  0
VERTEX
  5
14D9
  8
0
  6
CONTINUOUS
 10
468.57011663456672
 20
444.0468298204878
 30
0.0
  0
VERTEX
  5
14DA
  8
0
  6
CONTINUOUS
 10
467.41541609618861
 20
446.04682982048791
 30
0.0
  0
SEQEND
  5
14DB
  8
0
  6
CONTINUOUS
  0
CIRCLE
  5
FD3
  8
0
  6
CONTINUOUS
 10
436.26071555780862
 20
115.6460982339463
 30
0.0
 40
4.25
  0
CIRCLE
  5
FD4
  8
0
  6
CONTINUOUS
 10
436.26071555780862
 20
115.6460982339463
 30
0.0
 40
3.9035796766743651
  0
POLYLINE
  5
FD5
  8
0
  6
CONTINUOUS
 66
     1
 10
0.0
 20
0.0
 30
0.0
 70
     1
  0
VERTEX
  5
14DC
  8
0
  6
CONTINUOUS
 10
435.10601501942858
 20
113.6460982339463
 30
0.0
  0
VERTEX
  5
14DD
  8
0
  6
CONTINUOUS
 10
433.95131448105047
 20
115.6460982339463
 30
0.0
  0
VERTEX
  5
14DE
  8
0
  6
CONTINUOUS
 10
435.10601501942858
 20
117.6460982339463
 30
0.0
  0
VERTEX
  5
14DF
  8
0
  6
CONTINUOUS
 10
437.41541609618861
 20
117.6460982339463
 30
0.0
  0
VERTEX
  5
14E0
  8
0
  6
CONTINUOUS
 10
438.57011663456672
 20
115.6460982339463
 30
0.0
  0
VERTEX
  5
14E1
  8
0
  6
CONTINUOUS
 10
437.41541609618861
 20
113.6460982339463
 30
0.0
  0
SEQEND
  5
14E2
  8
0
  6
CONTINUOUS
  0
CIRCLE
  5
FDD
  8
0
  6
CONTINUOUS
 10
406.26071555780862
 20
145.6460982339463
 30
0.0
 40
4.25
  0
CIRCLE
  5
FDE
  8
0
  6
CONTINUOUS
 10
406.26071555780862
 20
145.6460982339463
 30
0.0
 40
3.9035796766743651
  0
POLYLINE
  5
FDF
  8
0
  6
CONTINUOUS
 66
     1
 10
0.0
 20
0.0
 30
0.0
 70
     1
  0
VERTEX
  5
14E3
  8
0
  6
CONTINUOUS
 10
405.10601501942858
 20
143.6460982339463
 30
0.0
  0
VERTEX
  5
14E4
  8
0
  6
CONTINUOUS
 10
403.95131448105042
 20
145.6460982339463
 30
0.0
  0
VERTEX
  5
14E5
  8
0
  6
CONTINUOUS
 10
405.10601501942858
 20
147.6460982339463
 30
0.0
  0
VERTEX
  5
14E6
  8
0
  6
CONTINUOUS
 10
407.41541609618861
 20
147.6460982339463
 30
0.0
  0
VERTEX
  5
14E7
  8
0
  6
CONTINUOUS
 10
408.57011663456677
 20
145.6460982339463
 30
0.0
  0
VERTEX
  5
14E8
  8
0
  6
CONTINUOUS
 10
407.41541609618861
 20
143.6460982339463
 30
0.0
  0
SEQEND
  5
14E9
  8
0
  6
CONTINUOUS
  0
CIRCLE
  5
FE7
  8
0
  6
CONTINUOUS
 10
436.26071555780862
 20
175.6460982339463
 30
0.0
 40
4.25
  0
CIRCLE
  5
FE8
  8
0
  6
CONTINUOUS
 10
436.26071555780862
 20
175.6460982339463
 30
0.0
 40
3.9035796766743651
  0
POLYLINE
  5
FE9
  8
0
  6
CONTINUOUS
 66
     1
 10
0.0
 20
0.0
 30
0.0
 70
     1
  0
VERTEX
  5
14EA
  8
0
  6
CONTINUOUS
 10
435.10601501942858
 20
173.6460982339463
 30
0.0
  0
VERTEX
  5
14EB
  8
0
  6
CONTINUOUS
 10
433.95131448105047
 20
175.6460982339463
 30
0.0
  0
VERTEX
  5
14EC
  8
0
  6
CONTINUOUS
 10
435.10601501942858
 20
177.6460982339463
 30
0.0
  0
VERTEX
  5
14ED
  8
0
  6
CONTINUOUS
 10
437.41541609618861
 20
177.6460982339463
 30
0.0
  0
VERTEX
  5
14EE
  8
0
  6
CONTINUOUS
 10
438.57011663456672
 20
175.6460982339463
 30
0.0
  0
VERTEX
  5
14EF
  8
0
  6
CONTINUOUS
 10
437.41541609618861
 20
173.6460982339463
 30
0.0
  0
SEQEND
  5
14F0
  8
0
  6
CONTINUOUS
  0
CIRCLE
  5
FF1
  8
0
  6
CONTINUOUS
 10
466.26071555780851
 20
145.6460982339463
 30
0.0
 40
4.25
  0
CIRCLE
  5
FF2
  8
0
  6
CONTINUOUS
 10
466.26071555780851
 20
145.6460982339463
 30
0.0
 40
3.9035796766743651
  0
POLYLINE
  5
FF3
  8
0
  6
CONTINUOUS
 66
     1
 10
0.0
 20
0.0
 30
0.0
 70
     1
  0
VERTEX
  5
14F1
  8
0
  6
CONTINUOUS
 10
465.10601501942858
 20
143.6460982339463
 30
0.0
  0
VERTEX
  5
14F2
  8
0
  6
CONTINUOUS
 10
463.95131448105042
 20
145.6460982339463
 30
0.0
  0
VERTEX
  5
14F3
  8
0
  6
CONTINUOUS
 10
465.10601501942858
 20
147.6460982339463
 30
0.0
  0
VERTEX
  5
14F4
  8
0
  6
CONTINUOUS
 10
467.41541609618861
 20
147.6460982339463
 30
0.0
  0
VERTEX
  5
14F5
  8
0
  6
CONTINUOUS
 10
468.57011663456672
 20
145.6460982339463
 30
0.0
  0
VERTEX
  5
14F6
  8
0
  6
CONTINUOUS
 10
467.41541609618861
 20
143.6460982339463
 30
0.0
  0
SEQEND
  5
14F7
  8
0
  6
CONTINUOUS
  0
SOLID
  5
FFB
  8
DIM
  6
CONTINUOUS
 10
764.12079384892616
 20
329.52593982525582
 30
0.0
 11
765.12079384892616
 21
329.52593982525582
 31
0.0
 12
764.62079384892616
 22
332.52593982525582
 32
0.0
 13
764.62079384892616
 23
332.52593982525582
 33
0.0
  0
LINE
  5
FFC
  8
DIM
  6
CONTINUOUS
 10
747.12079384892638
 20
332.52593982525582
 30
0.0
 11
765.62079384892616
 21
332.52593982525582
 31
0.0
  0
LINE
  5
FFD
  8
DIM
  6
CONTINUOUS
 10
764.62079384892616
 20
251.5259398252557
 30
0.0
 11
764.62079384892616
 21
332.5259398252557
 31
0.0
  0
ARC
  5
FFE
  8
DIM
  6
CONTINUOUS
 10
436.26071555780862
 20
444.0468298204878
 30
0.0
 40
75.965044551669564
 50
180.0
 51
0.0
  0
LINE
  5
FFF
  8
DIM
  6
CONTINUOUS
 10
454.26071555780862
 20
441.54682982048803
 30
0.0
 11
454.26071555780862
 21
446.54682982048791
 31
0.0
  0
SOLID
  5
1000
  8
DIM
  6
CONTINUOUS
 10
454.76071555780862
 20
449.5468298204878
 30
0.0
 11
453.76071555780851
 21
449.5468298204878
 31
0.0
 12
454.26071555780862
 22
446.54682982048791
 32
0.0
 13
454.26071555780862
 23
446.54682982048791
 33
0.0
  0
SOLID
  5
1001
  8
DIM
  6
CONTINUOUS
 10
454.76071555780862
 20
438.54682982048791
 30
0.0
 11
453.76071555780851
 21
438.54682982048791
 31
0.0
 12
454.26071555780862
 22
441.54682982048803
 32
0.0
 13
454.26071555780862
 23
441.54682982048803
 33
0.0
  0
LINE
  5
1002
  8
DIM
  6
CONTINUOUS
 10
454.26071555780862
 20
452.5468298204878
 30
0.0
 11
454.26071555780862
 21
455.2968298204878
 31
0.0
  0
LINE
  5
1003
  8
DIM
  6
CONTINUOUS
 10
454.26071555780862
 20
449.5468298204878
 30
0.0
 11
454.26071555780862
 21
452.5468298204878
 31
0.0
  0
LINE
  5
1004
  8
DIM
  6
CONTINUOUS
 10
454.26071555780862
 20
438.54682982048791
 30
0.0
 11
454.26071555780862
 21
435.54682982048791
 31
0.0
  0
LINE
  5
1005
  8
DIM
  6
CONTINUOUS
 10
446.76071555780862
 20
446.54682982048791
 30
0.0
 11
455.26071555780862
 21
446.54682982048791
 31
0.0
  0
LINE
  5
1006
  8
DIM
  6
CONTINUOUS
 10
446.76071555780862
 20
441.54682982048803
 30
0.0
 11
455.26071555780862
 21
441.54682982048803
 31
0.0
  0
LINE
  5
1007
  8
0
 10
445.76071555780851
 20
441.54682982048803
 30
0.0
 11
442.79906397311959
 21
441.54682982048803
 31
0.0
  0
LINE
  5
1008
  8
0
 10
445.76071555780862
 20
446.54682982048791
 30
0.0
 11
442.79906397311959
 21
446.54682982048791
 31
0.0
  0
LINE
  5
1009
  8
0
 10
445.76071555780862
 20
446.54682982048791
 30
0.0
 11
445.76071555780862
 21
441.5468298204878
 31
0.0
  0
TEXT
  5
100A
  8
DIM
  6
CONTINUOUS
 10
452.76071555780862
 20
453.4218298204878
 30
0.0
 40
3.0
  1
5
 50
90.0
  7
ROMANSS
 72
     1
 11
451.26071555780862
 21
454.4218298204878
 31
0.0
 73
     2
  0
ARC
  5
100B
  8
0
  6
CONTINUOUS
 10
436.26071555780862
 20
444.0468298204878
 30
0.0
 40
6.9999999999999707
 50
20.924832427638449
 51
339.07516757236249
  0
LINE
  5
100C
  8
DIM
  6
CONTINUOUS
 10
433.38757817090431
 20
437.66364240697942
 30
0.0
 11
443.38226443202387
 21
459.86862147784967
 31
0.0
  0
SOLID
  5
100D
  8
DIM
  6
CONTINUOUS
 10
435.0748647233994
 20
440.19407005656092
 30
0.0
 11
434.16298080718383
 21
440.60451825469028
 31
0.0
 12
433.38757817090402
 22
437.66364240697919
 32
0.0
 13
433.38757817090402
 23
437.66364240697919
 33
0.0
  0
SOLID
  5
100E
  8
DIM
  6
CONTINUOUS
 10
437.44656639221762
 20
447.8995895844148
 30
0.0
 11
438.35845030843319
 21
447.4891413862855
 31
0.0
 12
439.133852944713
 22
450.43001723399658
 32
0.0
 13
439.133852944713
 23
450.43001723399658
 33
0.0
  0
LINE
  5
100F
  8
DIM
  6
CONTINUOUS
 10
445.03384358195331
 20
435.14277317916049
 30
0.0
 11
420.05826724732202
 21
460.4910806153818
 31
0.0
  0
SOLID
  5
1010
  8
DIM
  6
CONTINUOUS
 10
442.57213059050571
 20
436.9288216521129
 30
0.0
 11
443.28445512181179
 21
437.63067189404472
 31
0.0
 12
445.03384358195348
 22
435.1427731791602
 32
0.0
 13
445.03384358195348
 23
435.1427731791602
 33
0.0
  0
SOLID
  5
1011
  8
DIM
  6
CONTINUOUS
 10
429.94930052511143
 20
451.16483798886247
 30
0.0
 11
429.23697599380517
 21
450.46298774693088
 31
0.0
 12
427.48758753366349
 22
452.95088646181517
 32
0.0
 13
427.48758753366349
 23
452.95088646181517
 33
0.0
  0
TEXT
  5
1012
  8
DIM
  6
CONTINUOUS
 10
420.00615703295369
 20
461.98649575387537
 30
0.0
 40
3.0
  1
%%c25x1dp
  7
ROMANSS
 11
420.00615703295369
 21
463.48649575387549
 31
0.0
 73
     2
  0
LINE
  5
1013
  8
DIM
  6
CONTINUOUS
 10
420.05826724732202
 20
460.4910806153818
 30
0.0
 11
436.08423467685179
 21
460.49108061538169
 31
0.0
  0
LINE
  5
1014
  8
DIM
  6
CONTINUOUS
 10
429.26071555780868
 20
442.52430374811593
 30
0.0
 11
429.26071555780862
 21
422.91032660468881
 31
0.0
  0
LINE
  5
1015
  8
DIM
  6
CONTINUOUS
 10
445.76071555780868
 20
440.51294970322999
 30
0.0
 11
445.76071555780862
 21
422.91032660468881
 31
0.0
  0
LINE
  5
1016
  8
CENTER
  6
CENTER
 10
436.26071555780862
 20
423.00468108183583
 30
0.0
 11
436.26071555780862
 21
385.5468298204878
 31
0.0
  0
CIRCLE
  5
1017
  8
0
  6
CONTINUOUS
 10
436.26071555780868
 20
145.64609823394639
 30
0.0
 40
12.49999999999997
  0
LINE
  5
1018
  8
0
 10
445.76071555780868
 20
143.1460982339465
 30
0.0
 11
442.79906397311981
 21
143.1460982339465
 31
0.0
  0
LINE
  5
1019
  8
0
 10
445.76071555780868
 20
148.14609823394639
 30
0.0
 11
442.79906397311981
 21
148.14609823394639
 31
0.0
  0
LINE
  5
101A
  8
0
 10
445.76071555780868
 20
148.14609823394639
 30
0.0
 11
445.76071555780868
 21
143.14609823394639
 31
0.0
  0
ARC
  5
101B
  8
0
  6
CONTINUOUS
 10
436.26071555780868
 20
145.64609823394639
 30
0.0
 40
6.9999999999999707
 50
20.924832427638449
 51
339.07516757236249
  0
LINE
  5
101C
  8
HIDDEN
  6
HIDDEN
 10
423.76071555780862
 20
332.5259398252557
 30
0.0
 11
423.76071555780862
 21
251.5259398252557
 31
0.0
  0
LINE
  5
101D
  8
HIDDEN
  6
HIDDEN
 10
429.26071555780862
 20
331.5259398252557
 30
0.0
 11
429.26071555780862
 21
252.5259398252559
 31
0.0
  0
LINE
  5
101E
  8
HIDDEN
  6
HIDDEN
 10
442.79906397311959
 20
331.5259398252557
 30
0.0
 11
442.79906397311959
 21
252.52593982525579
 31
0.0
  0
LINE
  5
101F
  8
HIDDEN
  6
HIDDEN
 10
445.76071555780862
 20
331.5259398252557
 30
0.0
 11
445.76071555780862
 21
252.5259398252559
 31
0.0
  0
LINE
  5
1020
  8
HIDDEN
  6
HIDDEN
 10
448.76071555780862
 20
332.52593982525582
 30
0.0
 11
448.76071555780851
 21
251.5259398252557
 31
0.0
  0
LINE
  5
1021
  8
HIDDEN
  6
HIDDEN
 10
423.76071555780862
 20
331.5259398252557
 30
0.0
 11
448.76071555780862
 21
331.5259398252557
 31
0.0
  0
SOLID
  5
1022
  8
DIM
  6
CONTINUOUS
 10
383.76071555780862
 20
248.52593982525579
 30
0.0
 11
384.76071555780862
 21
248.52593982525579
 31
0.0
 12
384.26071555780862
 22
251.52593982525579
 32
0.0
 13
384.26071555780862
 23
251.52593982525579
 33
0.0
  0
LINE
  5
1023
  8
DIM
  6
CONTINUOUS
 10
384.26071555780851
 20
245.40292365026181
 30
0.0
 11
384.26071555780862
 21
259.50978251274353
 31
0.0
  0
LINE
  5
1024
  8
DIM
  6
CONTINUOUS
 10
422.78555939747059
 20
252.5259398252557
 30
0.0
 11
383.26071555780862
 21
252.52593982525579
 31
0.0
  0
SOLID
  5
1025
  8
DIM
  6
CONTINUOUS
 10
383.76071555780862
 20
255.52593982525579
 30
0.0
 11
384.76071555780862
 21
255.52593982525579
 31
0.0
 12
384.26071555780862
 22
252.52593982525579
 32
0.0
 13
384.26071555780862
 23
252.52593982525579
 33
0.0
  0
LINE
  5
1026
  8
DIM
  6
CONTINUOUS
 10
400.15423483930471
 20
251.52593982525579
 30
0.0
 11
383.26071555780862
 21
251.52593982525579
 31
0.0
  0
LINE
  5
1027
  8
HIDDEN
  6
HIDDEN
 10
423.76071555780862
 20
252.52593982525579
 30
0.0
 11
448.76071555780862
 21
252.5259398252559
 31
0.0
  0
TEXT
  5
1028
  8
DIM
  6
CONTINUOUS
 10
382.76071555780862
 20
257.72088500536978
 30
0.0
 40
3.0
  1
1
 50
90.0
  7
ROMANSS
 72
     1
 11
381.26071555780862
 21
258.07802786251261
 31
0.0
 73
     2
  0
TEXT
  5
102D
  8
LOGO
 62
     6
 10
720.45898603168109
 20
0.914479437235478
 30
0.0
 40
15.74123428697532
  1
作動角度
 41
0.9
  7
CHINESET
 72
     4
 11
748.79320774823668
 21
8.2938285651232349
 31
0.0
  0
LINE
  5
102E
  8
LOGO
 62
     6
 10
789.44183277952288
 20
-21.220985722955369
 30
0.0
 11
708.14458271695071
 21
-21.220985722955501
 31
0.0
  0
LINE
  5
102F
  8
LOGO
 62
     6
 10
789.44183277952288
 20
22.067408566226771
 30
0.0
 11
708.14458271695071
 21
22.067408566226771
 31
0.0
  0
TEXT
  5
1030
  8
LOGO
  6
CONTINUOUS
 62
     6
 10
711.68886978608055
 20
-14.66213810338245
 30
0.0
 40
9.8382714293595814
  1
Rotary angle
 41
0.8
  7
CHINESET
 72
     4
 11
748.79320774823668
 21
-11.382714293595919
 31
0.0
  0
TEXT
  5
1031
  8
LOGO
  6
CONTINUOUS
 62
     7
 10
727.20522980435896
 20
47.42378104667015
 30
0.0
 40
19.676542858719159
  1
180
  7
CHINESET
 72
     1
 11
750.62968558854845
 21
57.26205247602973
 31
0.0
 73
     2
  0
LINE
  5
1032
  8
LOGO
 62
     6
 10
781.57121563603505
 20
75.194074284768504
 30
0.0
 11
716.01519986043843
 21
75.194074284768504
 31
0.0
  0
LINE
  5
1033
  8
LOGO
 62
     6
 10
781.57121563603505
 20
39.776297139073982
 30
0.0
 11
716.01519986043843
 21
39.776297139074011
 31
0.0
  0
LINE
  5
1034
  8
LOGO
 62
     1
 10
810.00000000000034
 20
87.0
 30
0.0
 11
80.0
 21
87.0
 31
0.0
  0
LINE
  5
1035
  8
LOGO
 62
     1
 10
810.00000000000034
 20
-31.059257152314949
 30
0.0
 11
80.0
 21
-31.059257152314949
 31
0.0
  0
LINE
  5
1036
  8
LOGO
  6
CONTINUOUS
 62
     6
 10
304.47129131068363
 20
55.623780828191258
 30
0.0
 11
325.96069065508277
 21
58.462274166234273
 31
0.0
  0
LINE
  5
1037
  8
LOGO
  6
CONTINUOUS
 62
     6
 10
304.47129131068363
 20
47.591170803416659
 30
0.0
 11
325.96069065508277
 21
44.752677465373651
 31
0.0
  0
LINE
  5
1038
  8
LOGO
 62
     1
 10
339.73036573509268
 20
63.388148569537023
 30
0.0
 11
166.5767885783643
 21
63.388148569537023
 31
0.0
  0
LINE
  5
1039
  8
LOGO
 62
     1
 10
339.73036573509268
 20
39.776297139074011
 30
0.0
 11
166.5767885783643
 21
39.776297139074011
 31
0.0
  0
TEXT
  5
103A
  8
LOGO
 62
     6
 10
278.7350295136107
 20
69.291111427152757
 30
0.0
 40
11.80592571523149
  1
1 : 1
  7
CHINESET
 72
     1
 11
299.53594624997089
 21
75.194074284768504
 31
0.0
 73
     2
  0
TEXT
  5
103B
  8
LOGO
 62
     6
 10
278.7350295136107
 20
22.067408566226781
 30
0.0
 40
11.80592571523149
  1
m/m
  7
CHINESET
 72
     1
 11
299.53594624997089
 21
27.970371423842529
 31
0.0
 73
     2
  0
LINE
  5
103C
  8
LOGO
 62
     1
 10
339.73036573509268
 20
16.164445708611151
 30
0.0
 11
79.999999999999901
 21
16.164445708611151
 31
0.0
  0
TEXT
  5
103D
  8
LOGO
  6
CONTINUOUS
 62
     5
 10
83.864278819098629
 20
-7.8666942516964431
 30
0.0
 40
17.70888857284724
  1
金器工業股份有限公司
 41
0.8
  7
LOGO
  0
TEXT
  5
103E
  8
LOGO
  6
CONTINUOUS
 62
     5
 10
88.935036408043487
 20
-25.57905237827347
 30
0.0
 40
11.80592571523149
  1
MINDMAN INDUSTRIAL CO.,LTD
 41
0.85
  7
CHINESET
  0
SOLID
  5
103F
  8
LOGO
 62
     5
 10
92.248837400250153
 20
35.7901167689852
 30
0.0
 11
97.353409892025255
 21
35.790116768983509
 31
0.0
 12
118.65179856460659
 22
84.195545570303977
 32
0.0
 13
123.7563710563813
 23
84.195545570300624
 33
0.0
  0
SOLID
  5
1040
  8
LOGO
 62
     5
 10
99.465646785176773
 20
35.7901167689852
 30
0.0
 11
104.57021927695141
 21
35.7901167689852
 31
0.0
 12
123.7563710563813
 22
80.323111266196719
 32
0.0
 13
118.65179856460659
 23
61.606345463019522
 33
0.0
  0
SOLID
  5
1041
  8
LOGO
 62
     2
 10
97.353409892025255
 20
35.790116768983509
 30
0.0
 11
99.465646785176773
 21
35.7901167689852
 31
0.0
 12
123.7563710563813
 22
84.195545570300624
 32
0.0
 13
125.8686079495312
 23
84.195545570300624
 33
0.0
  0
SOLID
  5
1042
  8
LOGO
 62
     5
 10
97.499056547486276
 20
26.989129714199819
 30
0.0
 11
99.259253958441576
 21
26.989129714199819
 31
0.0
 12
97.499056547486276
 22
18.188142659416108
 32
0.0
 13
99.259253958441576
 23
18.188142659416108
 33
0.0
  0
SOLID
  5
1043
  8
LOGO
 62
     5
 10
84.064955901423673
 20
18.188142659416108
 30
0.0
 11
85.825153312382511
 21
18.188142659416108
 31
0.0
 12
90.782006224453838
 22
26.989129714199819
 32
0.0
 13
92.542203635409592
 23
26.989129714199819
 33
0.0
  0
SOLID
  5
1044
  8
LOGO
 62
     5
 10
90.782006224453838
 20
26.989129714199819
 30
0.0
 11
92.542203635409592
 21
26.989129714199819
 31
0.0
 12
90.782006224453838
 22
18.188142659416108
 32
0.0
 13
92.542203635409592
 23
18.188142659416108
 33
0.0
  0
SOLID
  5
1045
  8
LOGO
 62
     5
 10
90.782006224453838
 20
18.188142659416108
 30
0.0
 11
92.542203635409592
 21
18.188142659416108
 31
0.0
 12
97.499056547486276
 22
26.989129714199819
 32
0.0
 13
99.259253958441576
 23
26.989129714199819
 33
0.0
  0
LINE
  5
1046
  8
LOGO
 62
     1
 10
80.0
 20
-31.059257152314949
 30
0.0
 11
80.0
 21
87.0
 31
0.0
  0
TEXT
  5
1047
  8
LOGO
 62
     6
 10
176.31140679087881
 20
69.296921429965366
 30
0.0
 40
11.80592571523149
  1
比例 Scale:
 41
0.9
  7
CHINESET
 72
     4
 11
213.8004914392902
 21
75.194074284768504
 31
0.0
  0
TEXT
  5
1048
  8
LOGO
 62
     6
 10
180.43821028865841
 20
45.845329243750307
 30
0.0
 40
11.80592571523149
  1
投影 View:
 41
0.9
  7
CHINESET
 72
     4
 11
213.8004914392902
 21
51.582222854305499
 31
0.0
  0
TEXT
  5
1049
  8
LOGO
 62
     6
 10
181.59245034742429
 20
22.067408566226781
 30
0.0
 40
11.80592571523149
  1
單位 Unit:
 41
0.9
  7
CHINESET
 72
     4
 11
213.8004914392902
 21
27.970371423842529
 31
0.0
  0
POLYLINE
  5
104A
  8
LOGO
 62
     5
 66
     1
 10
0.0
 20
0.0
 30
0.0
 70
     1
 40
1.763018240141236
 41
1.763018240141236
  0
VERTEX
  5
14F8
  8
LOGO
 62
     5
 10
140.35537565453441
 20
22.588636186807069
 30
0.0
 42
1.0
  0
VERTEX
  5
14F9
  8
LOGO
 62
     5
 10
147.4074486150991
 20
22.588636186807069
 30
0.0
 42
1.0
  0
SEQEND
  5
14FA
  8
LOGO
 62
     5
  0
LINE
  5
104B
  8
LOGO
 62
     5
 10
157.37614160566039
 20
18.188142659416108
 30
0.0
 11
157.37614160566039
 21
23.468734892285621
 31
0.0
  0
SOLID
  5
104C
  8
LOGO
 62
     5
 10
146.52153223151521
 20
26.989129714199819
 30
0.0
 11
148.28172964247059
 21
26.989129714199819
 31
0.0
 12
146.52153223151521
 22
18.188142659416108
 32
0.0
 13
148.28172964247059
 23
18.188142659416108
 33
0.0
  0
SOLID
  5
104D
  8
LOGO
 62
     5
 10
150.33535196183209
 20
18.188142659416108
 30
0.0
 11
152.09554937279071
 21
18.188142659416108
 31
0.0
 12
150.33535196183209
 22
26.989129714199819
 32
0.0
 13
152.09554937279071
 23
26.989129714199819
 33
0.0
  0
SOLID
  5
104E
  8
LOGO
 62
     5
 10
155.61594419470509
 20
23.468734892285621
 30
0.0
 11
157.37614160566039
 21
23.46873489228539
 31
0.0
 12
155.61594419470509
 22
18.188142659416108
 32
0.0
 13
157.37614160566039
 23
18.188142659416108
 33
0.0
  0
SOLID
  5
104F
  8
LOGO
 62
     5
 10
121.2919186613022
 20
29.629425830636251
 30
0.0
 11
123.0521160722575
 21
29.629425830636251
 31
0.0
 12
121.2919186613022
 22
18.188142659416108
 32
0.0
 13
123.0521160722575
 23
18.188142659416108
 33
0.0
  0
SOLID
  5
1050
  8
LOGO
 62
     5
 10
125.1057383916241
 20
26.989129714199819
 30
0.0
 11
126.8659358025796
 21
26.989129714199819
 31
0.0
 12
125.1057383916241
 22
18.188142659416108
 32
0.0
 13
126.8659358025796
 23
18.188142659416108
 33
0.0
  0
SOLID
  5
1051
  8
LOGO
 62
     5
 10
130.38633062449381
 20
23.468734892285621
 30
0.0
 11
132.14652803544931
 21
23.468734892285621
 31
0.0
 12
130.38633062449381
 22
18.188142659416108
 32
0.0
 13
132.14652803544931
 23
18.188142659416108
 33
0.0
  0
SOLID
  5
1052
  8
LOGO
 62
     5
 10
135.6669228573636
 20
23.468734892285621
 30
0.0
 11
137.4271202683189
 21
23.468734892285621
 31
0.0
 12
135.6669228573636
 22
18.18814265941274
 32
0.0
 13
137.4271202683189
 23
18.18814265941274
 33
0.0
  0
LINE
  5
1053
  8
LOGO
 62
     1
 10
166.5767885783643
 20
16.164445708611019
 30
0.0
 11
166.5767885783643
 21
87.0
 31
0.0
  0
SOLID
  5
1054
  8
LOGO
 62
     5
 10
105.15671705428259
 20
26.989129714199819
 30
0.0
 11
106.91691446523789
 21
26.989129714199819
 31
0.0
 12
105.15671705428259
 22
18.188142659416108
 32
0.0
 13
106.91691446523789
 23
18.188142659416108
 33
0.0
  0
SOLID
  5
1055
  8
LOGO
 62
     5
 10
110.43730928715181
 20
23.468734892285621
 30
0.0
 11
112.1975066981105
 21
23.468734892285621
 31
0.0
 12
110.43730928715181
 22
18.188142659416108
 32
0.0
 13
112.1975066981105
 23
18.188142659416108
 33
0.0
  0
SOLID
  5
1056
  8
LOGO
 62
     5
 10
101.3428973239603
 20
26.989129714199819
 30
0.0
 11
103.1030947349207
 21
26.989129714199819
 31
0.0
 12
101.3428973239603
 22
18.18814265941274
 32
0.0
 13
103.1030947349207
 23
18.188142659416108
 33
0.0
  0
POLYLINE
  5
1057
  8
LOGO
 62
     5
 66
     1
 10
0.0
 20
0.0
 30
0.0
 70
     1
 40
1.763018240141236
 41
1.763018240141236
  0
VERTEX
  5
14FB
  8
LOGO
 62
     5
 10
115.125762084323
 20
22.588636186807069
 30
0.0
 42
1.0
  0
VERTEX
  5
14FC
  8
LOGO
 62
     5
 10
122.177835044888
 20
22.588636186807069
 30
0.0
 42
1.0
  0
SEQEND
  5
14FD
  8
LOGO
 62
     5
  0
POLYLINE
  5
1058
  8
LOGO
 62
     5
 66
     1
 10
0.0
 20
0.0
 30
0.0
 40
1.763018240141236
 41
1.763018240141236
  0
VERTEX
  5
14FE
  8
LOGO
 62
     5
 10
156.50027414396001
 20
23.468734892285632
 30
0.0
 42
1.0
  0
VERTEX
  5
14FF
  8
LOGO
 62
     5
 10
151.21121942353611
 20
23.468734892285632
 30
0.0
 42
1.0
  0
SEQEND
  5
1500
  8
LOGO
 62
     5
  0
SOLID
  5
1059
  8
LOGO
 62
     5
 10
152.2715691138857
 20
35.790116768983509
 30
0.0
 11
157.37614160566039
 21
35.790116768983509
 31
0.0
 12
152.2715691138857
 22
84.195545570300624
 32
0.0
 13
157.37614160566039
 23
84.195545570303977
 33
0.0
  0
SOLID
  5
105A
  8
LOGO
 62
     5
 10
125.8686079495312
 20
84.195545570300624
 30
0.0
 11
130.97318044130569
 21
84.195545570303977
 31
0.0
 12
125.8686079495312
 22
39.662551073089112
 32
0.0
 13
130.97318044130569
 23
58.379316876266302
 33
0.0
  0
SOLID
  5
105B
  8
LOGO
 62
     5
 10
125.8686079495312
 20
39.662551073089112
 30
0.0
 11
130.97318044130569
 21
58.379316876266302
 31
0.0
 12
150.15933222073571
 22
84.195545570303977
 32
0.0
 13
145.0547597289607
 23
84.195545570303977
 33
0.0
  0
SOLID
  5
105C
  8
LOGO
 62
     5
 10
150.15933222073571
 20
80.323111266196719
 30
0.0
 11
145.0547597289607
 21
61.606345463019522
 31
0.0
 12
150.15933222073571
 22
35.790116768983509
 32
0.0
 13
145.0547597289607
 23
35.790116768983509
 33
0.0
  0
SOLID
  5
105D
  8
LOGO
 62
     2
 10
150.15933222073571
 20
84.195545570303977
 30
0.0
 11
152.2715691138857
 21
84.195545570300624
 31
0.0
 12
150.15933222073571
 22
35.790116768983509
 32
0.0
 13
152.2715691138857
 23
35.790116768983509
 33
0.0
  0
SOLID
  5
105E
  8
LOGO
 62
     5
 10
118.65179856460659
 20
35.7901167689852
 30
0.0
 11
123.7563710563813
 21
35.7901167689852
 31
0.0
 12
118.65179856460659
 22
61.606345463019522
 32
0.0
 13
123.7563710563813
 23
80.323111266196719
 33
0.0
  0
SOLID
  5
105F
  8
LOGO
 62
     2
 10
123.7563710563813
 20
84.195545570300624
 30
0.0
 11
125.8686079495312
 21
84.195545570300624
 31
0.0
 12
123.7563710563813
 22
35.7901167689852
 32
0.0
 13
125.8686079495312
 23
35.7901167689852
 33
0.0
  0
SOLID
  5
1060
  8
LOGO
 62
     5
 10
125.8686079495312
 20
35.7901167689852
 30
0.0
 11
130.97318044130569
 21
35.7901167689852
 31
0.0
 12
150.15933222073571
 22
80.323111266196719
 32
0.0
 13
145.0547597289607
 23
61.606345463019522
 33
0.0
  0
SOLID
  5
1061
  8
LOGO
 62
     2
 10
123.7563710563813
 20
35.7901167689852
 30
0.0
 11
125.8686079495312
 21
35.7901167689852
 31
0.0
 12
150.15933222073571
 22
84.195545570303977
 32
0.0
 13
152.2715691138857
 23
84.195545570300624
 33
0.0
  0
POLYLINE
  5
1062
  8
LOGO
 62
     5
 66
     1
 10
0.0
 20
0.0
 30
0.0
 40
1.763018240141236
 41
1.763018240141236
  0
VERTEX
  5
1501
  8
LOGO
 62
     5
 10
131.27066057374859
 20
23.468734892285632
 30
0.0
 42
1.0
  0
VERTEX
  5
1502
  8
LOGO
 62
     5
 10
125.98160585332469
 20
23.468734892285632
 30
0.0
 42
1.0
  0
SEQEND
  5
1503
  8
LOGO
 62
     5
  0
POLYLINE
  5
1063
  8
LOGO
 62
     5
 66
     1
 10
0.0
 20
0.0
 30
0.0
 40
1.763018240141236
 41
1.763018240141236
  0
VERTEX
  5
1504
  8
LOGO
 62
     5
 10
111.32163923640719
 20
23.468734892285632
 30
0.0
 42
1.0
  0
VERTEX
  5
1505
  8
LOGO
 62
     5
 10
106.0325845159832
 20
23.468734892285632
 30
0.0
 42
1.0
  0
SEQEND
  5
1506
  8
LOGO
 62
     5
  0
SOLID
  5
1064
  8
LOGO
 62
     5
 10
101.3428973239603
 20
28.221267901868941
 30
0.0
 11
103.1030947349207
 21
28.221267901868941
 31
0.0
 12
101.3428973239603
 22
29.629425830636251
 32
0.0
 13
103.1030947349207
 23
29.629425830636251
 33
0.0
  0
POLYLINE
  5
1065
  8
LOGO
 62
     5
 66
     1
 10
0.0
 20
0.0
 30
0.0
 70
     1
  0
VERTEX
  5
1507
  8
LOGO
 62
     5
 10
141.24111601838189
 20
22.588636186807928
 30
0.0
 42
1.0000000573306349
  0
VERTEX
  5
1508
  8
LOGO
 62
     5
 10
146.52170825125381
 20
22.588636186807928
 30
0.0
 42
1.0000000573306349
  0
SEQEND
  5
1509
  8
LOGO
 62
     5
  0
CIRCLE
  5
1066
  8
LOGO
 62
     5
 10
143.88141213481771
 20
22.588636186807939
 30
0.0
 40
2.6402961164355161
  0
POLYLINE
  5
1067
  8
LOGO
 62
     5
 66
     1
 10
0.0
 20
0.0
 30
0.0
 40
1.763018240141236
 41
1.763018240141236
  0
VERTEX
  5
150A
  8
LOGO
 62
     5
 10
136.55125280661829
 20
23.468734892285632
 30
0.0
 42
1.0
  0
VERTEX
  5
150B
  8
LOGO
 62
     5
 10
131.26219808619439
 20
23.468734892285632
 30
0.0
 42
1.0
  0
SEQEND
  5
150C
  8
LOGO
 62
     5
  0
LINE
  5
1068
  8
LOGO
 62
     1
 10
261.0241943002161
 20
16.164445708611019
 30
0.0
 11
261.0241943002161
 21
87.0
 31
0.0
  0
CIRCLE
  5
1069
  8
LOGO
  6
CONTINUOUS
 62
     6
 10
282.88434242381328
 20
51.607475815803959
 30
0.0
 40
6.8547983504303041
  0
CIRCLE
  5
106A
  8
LOGO
  6
CONTINUOUS
 62
     6
 10
282.88434242381328
 20
51.607475815803959
 30
0.0
 40
4.0163050123873054
  0
LINE
  5
106B
  8
LOGO
 62
     6
 10
304.47129131068391
 20
47.591170803416659
 30
0.0
 11
304.47129131068363
 21
55.6237808281913
 31
0.0
  0
TEXT
  5
106C
  8
LOGO
  6
CONTINUOUS
 62
     6
 10
530.59977244584911
 20
-16.301850008275579
 30
0.0
 40
9.8382714293595814
  1
Model
  7
CHINESET
 72
     4
 11
549.33933707320068
 21
-11.382714293595789
 31
0.0
  0
TEXT
  5
106D
  8
LOGO
  6
CONTINUOUS
 62
     7
 10
513.73416428123267
 20
47.64691428256166
 30
0.0
 40
19.676542858719159
  1
MRTF
  7
CHINESET
 72
     1
 11
549.33933707320068
 21
57.485185711921247
 31
0.0
 73
     2
  0
LINE
  5
106E
  8
LOGO
 62
     6
 10
596.56303993412666
 20
75.194074284768504
 30
0.0
 11
502.11563421227493
 21
75.194074284768504
 31
0.0
  0
LINE
  5
106F
  8
LOGO
 62
     6
 10
596.56303993412666
 20
39.776297139074011
 30
0.0
 11
502.11563421227493
 21
39.776297139074011
 31
0.0
  0
LINE
  5
1070
  8
LOGO
 62
     6
 10
588.69242279063894
 20
22.067408566226771
 30
0.0
 11
509.98625135576248
 21
22.067408566226771
 31
0.0
  0
LINE
  5
1071
  8
LOGO
 62
     6
 10
588.69242279063894
 20
-21.220985722955412
 30
0.0
 11
509.98625135576248
 21
-21.220985722955501
 31
0.0
  0
TEXT
  5
1072
  8
LOGO
 62
     7
 10
349.39409302977589
 20
57.440647003410199
 30
0.0
 40
23.611851430462991
  1
訂購代號:
  7
CHINESET
  0
TEXT
  5
1073
  8
LOGO
 62
     7
 10
346.56998542398139
 20
35.280248391496109
 30
0.0
 40
15.74123428697532
  1
Order example:
 41
0.8
  7
CHINESET
  0
LINE
  5
1074
  8
LOGO
 62
     1
 10
339.73036573509268
 20
-31.059257152314949
 30
0.0
 11
339.73036573509268
 21
87.0
 31
0.0
  0
LINE
  5
1075
  8
LOGO
 62
     6
 10
325.96069065508277
 20
44.752677465373651
 30
0.0
 11
325.96069065508277
 21
58.462274166234273
 31
0.0
  0
LINE
  5
1076
  8
LOGO
 62
     6
 10
509.98625135576248
 20
22.067408566226771
 30
0.0
 11
509.98625135576248
 21
-21.220985722955501
 31
0.0
  0
LINE
  5
1077
  8
LOGO
 62
     6
 10
502.11563421227493
 20
75.194074284768504
 30
0.0
 11
502.11563421227493
 21
39.776297139074011
 31
0.0
  0
TEXT
  5
1078
  8
LOGO
  6
CONTINUOUS
 62
     7
 10
642.46545691726521
 20
47.423781046670392
 30
0.0
 40
19.676542858719159
  1
40
  7
CHINESET
 72
     1
 11
658.39408685051399
 21
57.262052476029957
 31
0.0
 73
     2
  0
LINE
  5
1079
  8
LOGO
 62
     6
 10
688.14909353591372
 20
-21.22098572295516
 30
0.0
 11
624.96612448449093
 21
-21.220985722955259
 31
0.0
  0
LINE
  5
107A
  8
LOGO
 62
     6
 10
688.14909353591372
 20
39.776297139074238
 30
0.0
 11
624.96612448449093
 21
39.776297139074238
 31
0.0
  0
LINE
  5
107B
  8
LOGO
 62
     6
 10
688.14909353591372
 20
22.06740856622698
 30
0.0
 11
624.96612448449093
 21
22.06740856622698
 31
0.0
  0
LINE
  5
107C
  8
LOGO
 62
     6
 10
688.14909353591372
 20
75.194074284768945
 30
0.0
 11
624.96612448449093
 21
75.194074284768703
 31
0.0
  0
LINE
  5
107D
  8
LOGO
 62
     6
 10
624.96612448449093
 20
22.06740856622698
 30
0.0
 11
624.96612448449093
 21
-21.22098572295516
 31
0.0
  0
LINE
  5
107E
  8
LOGO
 62
     6
 10
588.69242279063917
 20
22.067408566226771
 30
0.0
 11
588.69242279063917
 21
-21.220985722955369
 31
0.0
  0
TEXT
  5
107F
  8
LOGO
 62
     6
 10
533.59810278622547
 20
0.8260382833102486
 30
0.0
 40
15.74123428697532
  1
型式
  7
CHINESET
 72
     4
 11
549.33933707320068
 21
8.2938285651233485
 31
0.0
  0
LINE
  5
1080
  8
LOGO
 62
     6
 10
549.33933707320068
 20
39.776297139074011
 30
0.0
 11
549.33933707320068
 21
22.067408566226771
 31
0.0
  0
LINE
  5
1081
  8
LOGO
 62
     6
 10
624.96612448449093
 20
75.194074284768703
 30
0.0
 11
624.96612448449093
 21
39.776297139074238
 31
0.0
  0
LINE
  5
1082
  8
LOGO
 62
     6
 10
596.56303993412689
 20
75.194074284768504
 30
0.0
 11
596.56303993412689
 21
39.776297139074011
 31
0.0
  0
LINE
  5
1083
  8
LOGO
  6
CONTINUOUS
 62
     7
 10
603.20196888630562
 20
57.359730347939589
 30
0.0
 11
618.8411669365812
 21
57.359730347939589
 31
0.0
  0
LINE
  5
1084
  8
LOGO
 62
     6
 10
708.14458271695071
 20
22.067408566226771
 30
0.0
 11
708.14458271695071
 21
-21.220985722955501
 31
0.0
  0
LINE
  5
1085
  8
LOGO
 62
     6
 10
688.14909353591372
 20
22.06740856622698
 30
0.0
 11
688.14909353591372
 21
-21.220985722955049
 31
0.0
  0
TEXT
  5
1086
  8
LOGO
  6
CONTINUOUS
 62
     6
 10
644.37689200242392
 20
-16.301850008275469
 30
0.0
 40
9.8382714293595814
  1
Bore
 41
0.8
  7
CHINESET
 72
     4
 11
656.55760901020244
 21
-11.382714293595679
 31
0.0
  0
TEXT
  5
1087
  8
LOGO
 62
     6
 10
641.50505372328223
 20
0.4232114216358119
 30
0.0
 40
15.74123428697532
  1
內徑
 41
0.9
  7
CHINESET
 72
     4
 11
656.55760901020244
 21
8.2938285651234764
 31
0.0
  0
LINE
  5
1088
  8
LOGO
  6
CONTINUOUS
 62
     7
 10
694.25104426225323
 20
57.359730347939781
 30
0.0
 11
709.89024231252904
 21
57.359730347939781
 31
0.0
  0
LINE
  5
1089
  8
LOGO
 62
     6
 10
688.14909353591372
 20
75.194074284768945
 30
0.0
 11
688.14909353591372
 21
39.776297139074238
 31
0.0
  0
LINE
  5
108A
  8
LOGO
 62
     6
 10
656.55760810278116
 20
39.776297139074238
 30
0.0
 11
656.55760810278116
 21
22.06740856622698
 31
0.0
  0
LINE
  5
108B
  8
LOGO
 62
     6
 10
716.01519986043854
 20
75.194074284768504
 30
0.0
 11
716.01519986043843
 21
39.776297139074011
 31
0.0
  0
LINE
  5
108C
  8
LOGO
 62
     6
 10
749.6266703717024
 20
39.776297139074011
 30
0.0
 11
749.6266703717024
 21
22.067408566226771
 31
0.0
  0
LINE
  5
1092
  8
LOGO
 62
     6
 10
789.44183277952288
 20
22.067408566226771
 30
0.0
 11
789.44183277952288
 21
-21.384211673008998
 31
0.0
  0
LINE
  5
1093
  8
LOGO
 62
     6
 10
781.57121563603505
 20
75.194074284768504
 30
0.0
 11
781.57121563603505
 21
39.776297139073982
 31
0.0
  0
LINE
  5
109C
  8
LOGO
 62
     1
 10
810.00000000000034
 20
-31.059257152314949
 30
0.0
 11
810.00000000000034
 21
87.0
 31
0.0
  0
ENDSEC
  0
EOF
