  0
SECTION
  2
HEADER
  9
$ACADVER
  1
AC1009
  9
$INSBASE
 10
0.0
 20
0.0
 30
0.0
  9
$EXTMIN
 10
1191.306712127898
 20
956.82197641299081
 30
-0.006396219438443
  9
$EXTMAX
 10
1660.5525359850999
 20
1249.0926552707581
 30
209.61370727883229
  9
$LIMMIN
 10
0.0
 20
0.0
  9
$LIMMAX
 10
420.0
 20
297.0
  9
$ORTHOMODE
 70
     0
  9
$REGENMODE
 70
     1
  9
$FILLMODE
 70
     1
  9
$QTEXTMODE
 70
     0
  9
$MIRRTEXT
 70
     1
  9
$DRAGMODE
 70
     2
  9
$LTSCALE
 40
1.0
  9
$OSMODE
 70
    37
  9
$ATTMODE
 70
     1
  9
$TEXTSIZE
 40
1.0
  9
$TRACEWID
 40
1.0
  9
$TEXTSTYLE
  7
STANDARD
  9
$CLAYER
  8
0
  9
$CELTYPE
  6
BYLAYER
  9
$CECOLOR
 62
   256
  9
$DIMSCALE
 40
1.0
  9
$DIMASZ
 40
2.5
  9
$DIMEXO
 40
1.0
  9
$DIMDLI
 40
10.0
  9
$DIMRND
 40
0.0
  9
$DIMDLE
 40
0.0
  9
$DIMEXE
 40
1.0
  9
$DIMTP
 40
0.1
  9
$DIMTM
 40
0.1
  9
$DIMTXT
 40
3.5
  9
$DIMCEN
 40
0.0
  9
$DIMTSZ
 40
0.0
  9
$DIMTOL
 70
     0
  9
$DIMLIM
 70
     0
  9
$DIMTIH
 70
     0
  9
$DIMTOH
 70
     0
  9
$DIMSE1
 70
     0
  9
$DIMSE2
 70
     0
  9
$DIMTAD
 70
     1
  9
$DIMZIN
 70
     8
  9
$DIMBLK
  1

  9
$DIMASO
 70
     1
  9
$DIMSHO
 70
     1
  9
$DIMPOST
  1

  9
$DIMAPOST
  1
"
  9
$DIMALT
 70
     0
  9
$DIMALTD
 70
     2
  9
$DIMALTF
 40
0.0393701
  9
$DIMLFAC
 40
1.0
  9
$DIMTOFL
 70
     1
  9
$DIMTVP
 40
0.0
  9
$DIMTIX
 70
     0
  9
$DIMSOXD
 70
     0
  9
$DIMSAH
 70
     0
  9
$DIMBLK1
  1

  9
$DIMBLK2
  1

  9
$DIMSTYLE
  2
AM_ISO
  9
$DIMCLRD
 70
   256
  9
$DIMCLRE
 70
   256
  9
$DIMCLRT
 70
     2
  9
$DIMTFAC
 40
0.71
  9
$DIMGAP
 40
1.5
  9
$LUNITS
 70
     2
  9
$LUPREC
 70
     2
  9
$SKETCHINC
 40
1.0
  9
$FILLETRAD
 40
2.5
  9
$AUNITS
 70
     0
  9
$AUPREC
 70
     0
  9
$MENU
  1
.
  9
$ELEVATION
 40
0.0
  9
$PELEVATION
 40
0.0
  9
$THICKNESS
 40
0.0
  9
$LIMCHECK
 70
     0
  9
$BLIPMODE
 70
     0
  9
$CHAMFERA
 40
2.5
  9
$CHAMFERB
 40
2.5
  9
$SKPOLY
 70
     0
  9
$TDCREATE
 40
2454929.4405136001
  9
$TDUPDATE
 40
2454937.476203565
  9
$TDINDWG
 40
0.0104426736
  9
$TDUSRTIMER
 40
0.0100618056
  9
$USRTIMER
 70
     1
  9
$ANGBASE
 50
0.0
  9
$ANGDIR
 70
     0
  9
$PDMODE
 70
     0
  9
$PDSIZE
 40
0.0
  9
$PLINEWID
 40
0.0
  9
$COORDS
 70
     1
  9
$SPLFRAME
 70
     0
  9
$SPLINETYPE
 70
     6
  9
$SPLINESEGS
 70
     8
  9
$ATTDIA
 70
     1
  9
$ATTREQ
 70
     1
  9
$HANDLING
 70
     1
  9
$HANDSEED
  5
B00
  9
$SURFTAB1
 70
     6
  9
$SURFTAB2
 70
     6
  9
$SURFTYPE
 70
     6
  9
$SURFU
 70
     6
  9
$SURFV
 70
     6
  9
$UCSNAME
  2

  9
$UCSORG
 10
0.0
 20
0.0
 30
0.0
  9
$UCSXDIR
 10
1.0
 20
0.0
 30
0.0
  9
$UCSYDIR
 10
0.0
 20
1.0
 30
0.0
  9
$PUCSNAME
  2

  9
$PUCSORG
 10
0.0
 20
0.0
 30
0.0
  9
$PUCSXDIR
 10
1.0
 20
0.0
 30
0.0
  9
$PUCSYDIR
 10
0.0
 20
1.0
 30
0.0
  9
$USERI1
 70
     0
  9
$USERI2
 70
     0
  9
$USERI3
 70
     0
  9
$USERI4
 70
     0
  9
$USERI5
 70
     0
  9
$USERR1
 40
0.0
  9
$USERR2
 40
0.0
  9
$USERR3
 40
0.0
  9
$USERR4
 40
0.0
  9
$USERR5
 40
0.0
  9
$WORLDVIEW
 70
     1
  9
$SHADEDGE
 70
     3
  9
$SHADEDIF
 70
    70
  9
$TILEMODE
 70
     1
  9
$MAXACTVP
 70
    64
  9
$PLIMCHECK
 70
     0
  9
$PEXTMIN
 10
1.0000000000000000E+020
 20
1.0000000000000000E+020
 30
1.0000000000000000E+020
  9
$PEXTMAX
 10
-1.0000000000000000E+020
 20
-1.0000000000000000E+020
 30
-1.0000000000000000E+020
  9
$PLIMMIN
 10
0.0
 20
0.0
  9
$PLIMMAX
 10
420.0
 20
297.0
  9
$UNITMODE
 70
     0
  9
$VISRETAIN
 70
     1
  9
$PLINEGEN
 70
     0
  9
$PSLTSCALE
 70
     1
  0
ENDSEC
  0
SECTION
  2
TABLES
  0
TABLE
  2
VPORT
 70
     4
  0
VPORT
  2
*ACTIVE
 70
     0
 10
0.0
 20
0.0
 11
1.0
 21
1.0
 12
1425.9296240564991
 22
1102.957315841875
 13
0.0
 23
0.0
 14
2.5
 24
2.5
 15
10.0
 25
10.0
 16
0.0
 26
0.0
 36
1.0
 17
0.0
 27
0.0
 37
0.0
 40
518.99035493326448
 41
0.911957950065703
 42
50.0
 43
0.0
 44
0.0
 50
0.0
 51
0.0
 71
     0
 72
   100
 73
     1
 74
     3
 75
     0
 76
     0
 77
     0
 78
     0
  0
ENDTAB
  0
TABLE
  2
LTYPE
 70
    20
  0
LTYPE
  2
CONTINUOUS
 70
     0
  3
Solid line
 72
    65
 73
     0
 40
0.0
  0
LTYPE
  2
AM_ISO02W050
 70
     0
  3
__ __ __ __ __ __ __ __ __ __ __ __ __ __ __
 72
    65
 73
     2
 40
7.5
 49
6.0
 49
-1.5
  0
LTYPE
  2
AM_ISO08W050
 70
     0
  3
____ . ____ . ____ . ____ . ____ . ____ . ____
 72
    65
 73
     4
 40
18.0
 49
12.0
 49
-1.5
 49
3.0
 49
-1.5
  0
LTYPE
  2
AM_ISO09W050
 70
     0
  3
_____ . . _____ . . _____ . . ____ .. ____
 72
    65
 73
     6
 40
22.5
 49
12.0
 49
-1.5
 49
3.0
 49
-1.5
 49
3.0
 49
-1.5
  0
LTYPE
  2
AMCONSTR
 70
     0
  3
_______________________
 72
    65
 73
     2
 40
9999.0
 49
9999.0
 49
0.0
  0
LTYPE
  2
AM_ISO08W050X2
 70
     0
  3
__ . __ . __ . __ . __ . __
 72
    65
 73
     4
 40
9.0
 49
6.0
 49
-0.75
 49
1.5
 49
-0.75
  0
LTYPE
  2
AM_ISO02W050X2
 70
     0
  3
 _ _ _ _ _ _ _ _ _ _ _ _
 72
    65
 73
     2
 40
3.75
 49
3.0
 49
-0.75
  0
LTYPE
  2
AMZIGZAG
 70
     0
  3
/\/-/\/-/\/-/\/-/\/-/\/
 72
    65
 73
     2
 40
11.0001
 49
0.0001
 49
-11.0
  0
LTYPE
  2
ACISOWELD
 70
     0
  3
_ _ _ _ _
 72
    65
 73
     2
 40
2.0
 49
2.0
 49
-1.0
  0
LTYPE
  2
ACISOTGB
 70
     0
  3
__ . . __ . .
 72
    65
 73
     6
 40
9.0
 49
4.0
 49
-1.0
 49
1.0
 49
-1.0
 49
1.0
 49
-1.0
  0
LTYPE
  2
ACISOTGL
 70
     0
  3
_ _ _ _ _
 72
    65
 73
     2
 40
3.0
 49
2.0
 49
-1.0
  0
LTYPE
  2
CENTER
 70
     0
  3
__ . __
 72
    65
 73
     4
 40
7.0
 49
4.0
 49
-1.0
 49
1.0
 49
-1.0
  0
LTYPE
  2
HIDDEN
 70
     0
  3
Hidden __ __ __ __ __ __ __ __ __ __ __ __ __ _
 72
    65
 73
     2
 40
9.5249999999999986
 49
6.3499999999999988
 49
-3.1749999999999989
  0
LTYPE
  2
PHANTOM2
 70
     0
  3
Phantom (.5x) ___ _ _ ___ _ _ ___ _ _ ___ _ _
 72
    65
 73
     6
 40
31.75
 49
15.875
 49
-3.1749999999999989
 49
3.1749999999999989
 49
-3.1749999999999989
 49
3.1749999999999989
 49
-3.1749999999999989
  0
LTYPE
  2
CENTER1
 70
     0
  3
_______ _ _______ _ _______ _ _______ _ 
 72
    65
 73
     4
 40
10.0
 49
7.0
 49
-1.0
 49
1.0
 49
-1.0
  0
ENDTAB
  0
TABLE
  2
LAYER
 70
     5
  0
LAYER
  2
0
 70
     0
 62
     7
  6
CONTINUOUS
  0
LAYER
  2
UMCL1
 70
     0
 62
     7
  6
CONTINUOUS
  0
LAYER
  2
UMCL2
 70
     0
 62
     5
  6
CONTINUOUS
  0
LAYER
  2
LOGO
 70
     0
 62
     7
  6
CONTINUOUS
  0
ENDTAB
  0
TABLE
  2
STYLE
 70
    12
  0
STYLE
  2
STANDARD
 70
     0
 40
0.0
 41
1.0
 50
0.0
 71
     0
 42
1.0
  3
ISOCP.SHX
  4
CHINESET.SHX
  0
STYLE
  2

 70
     1
 40
0.0
 41
1.0
 50
0.0
 71
     0
 42
2.5
  3
ltypeshp.shx
  4

  0
STYLE
  2
ACISOTS
 70
     0
 40
1.0
 41
1.0
 50
0.0
 71
     0
 42
1.0
  3
isocp.shx
  4
chineset.shx
  0
STYLE
  2
ACISOGDT
 70
     0
 40
0.0
 41
1.0
 50
0.0
 71
     0
 42
2.5
  3
amgdt.shx
  4
chineset.shx
  0
STYLE
  2
ROMANS
 70
     0
 40
0.0
 41
1.0
 50
0.0
 71
     0
 42
3.0
  3
ROMANS.SHX
  4
LMP
  0
STYLE
  2
ROMANSS
 70
     0
 40
0.0
 41
1.0
 50
0.0
 71
     0
 42
3.0
  3
ROMANSS.SHX
  4
LMP
  0
STYLE
  2
CHINESET
 70
     0
 40
0.0
 41
1.0
 50
0.0
 71
     0
 42
5.0
  3
simplex.shx
  4
chineset.shx
  0
ENDTAB
  0
TABLE
  2
VIEW
 70
     0
  0
ENDTAB
  0
TABLE
  2
UCS
 70
     0
  0
ENDTAB
  0
TABLE
  2
APPID
 70
    15
  0
APPID
  2
ACAD
 70
     0
  0
APPID
  2
MCAD_NO_VIS
 70
     0
  0
APPID
  2
ACAD_TEMP_GRAPHIC
 70
     0
  0
APPID
  2
ACATTRIBSERVICES
 70
     0
  0
APPID
  2
AD_DRAW
 70
     0
  0
APPID
  2
DESIGNERASSEMBLIES
 70
     0
  0
APPID
  2
ACADM_DIM_EDIT
 70
     0
  0
APPID
  2
AMDT_DM_ADJ
 70
     0
  0
APPID
  2
GENIUS_GENODEF_13
 70
     0
  0
APPID
  2
GENIUS_GENREC_14
 70
     0
  0
APPID
  2
GENIUS_GENOBJ-N-REC_13
 70
     0
  0
APPID
  2
GENIUS_GENOLIS_13
 70
     0
  0
APPID
  2
GENIUS_GENOENT_13
 70
     0
  0
APPID
  2
GENIUS_GENOBJ-N-CRS_13
 70
     0
  0
APPID
  2
GENIUS_GENOREF_13
 70
     0
  0
ENDTAB
  0
TABLE
  2
DIMSTYLE
 70
    15
  0
DIMSTYLE
  2
AM_ISO
 70
     0
  3

  4
"
  5

  6

  7

 40
1.0
 41
2.5
 42
1.0
 43
10.0
 44
1.0
 45
0.0
 46
0.0
 47
0.1
 48
0.1
140
3.5
141
0.0
142
0.0
143
0.0393701
144
1.0
145
0.0
146
0.71
147
1.5
 71
     0
 72
     0
 73
     0
 74
     0
 75
     0
 76
     0
 77
     1
 78
     8
170
     0
171
     2
172
     1
173
     0
174
     0
175
     0
176
   256
177
   256
178
     2
  0
DIMSTYLE
  2
AM_ISO$3
 70
     0
  3

  4
"
  5

  6

  7

 40
1.0
 41
2.5
 42
1.0
 43
10.0
 44
1.0
 45
0.0
 46
0.0
 47
0.1
 48
0.1
140
3.5
141
0.0
142
0.0
143
0.0393701
144
1.0
145
0.0
146
0.71
147
1.5
 71
     0
 72
     0
 73
     0
 74
     1
 75
     0
 76
     0
 77
     1
 78
     8
170
     0
171
     2
172
     0
173
     0
174
     0
175
     0
176
   256
177
   256
178
     2
  0
DIMSTYLE
  2
AM_ISO$4
 70
     0
  3

  4
"
  5

  6

  7

 40
1.0
 41
2.5
 42
1.0
 43
10.0
 44
1.0
 45
0.0
 46
0.0
 47
0.1
 48
0.1
140
3.5
141
0.0
142
0.0
143
0.0393701
144
1.0
145
0.0
146
0.71
147
1.5
 71
     0
 72
     0
 73
     0
 74
     1
 75
     0
 76
     0
 77
     1
 78
     8
170
     0
171
     2
172
     0
173
     0
174
     0
175
     0
176
   256
177
   256
178
     2
  0
DIMSTYLE
  2
AM_ISO$6
 70
     0
  3

  4
"
  5

  6

  7

 40
1.0
 41
2.5
 42
1.0
 43
10.0
 44
1.0
 45
0.0
 46
0.0
 47
0.1
 48
0.1
140
3.5
141
0.0
142
0.0
143
0.0393701
144
1.0
145
0.0
146
0.71
147
1.5
 71
     0
 72
     0
 73
     0
 74
     0
 75
     0
 76
     0
 77
     0
 78
     8
170
     0
171
     2
172
     1
173
     0
174
     0
175
     0
176
   256
177
   256
178
     2
  0
DIMSTYLE
  2
AM_ISO$7
 70
     0
  3

  4
"
  5

  6

  7

 40
1.0
 41
2.5
 42
1.0
 43
10.0
 44
1.0
 45
0.0
 46
0.0
 47
0.1
 48
0.1
140
5.0
141
0.0
142
0.0
143
0.0393701
144
1.0
145
0.0
146
0.71
147
1.5
 71
     0
 72
     0
 73
     0
 74
     0
 75
     0
 76
     0
 77
     1
 78
     8
170
     0
171
     2
172
     1
173
     0
174
     0
175
     0
176
   256
177
   256
178
     2
  0
DIMSTYLE
  2
AM_ISO$SF
 70
     0
  3

  4
"
  5

  6

  7

 40
1.0
 41
2.5
 42
1.0
 43
10.0
 44
1.0
 45
0.0
 46
0.0
 47
0.1
 48
0.1
140
3.5
141
0.0
142
0.0
143
0.0393701
144
1.0
145
0.0
146
0.71
147
1.5
 71
     0
 72
     0
 73
     0
 74
     0
 75
     1
 76
     1
 77
     1
 78
     8
170
     0
171
     2
172
     1
173
     0
174
     0
175
     0
176
   256
177
   256
178
     2
  0
DIMSTYLE
  2
AM_ISO$SH
 70
     0
  3

  4
"
  5

  6
GENAXEH
  7

 40
1.0
 41
2.5
 42
1.0
 43
10.0
 44
1.0
 45
0.0
 46
0.0
 47
0.1
 48
0.1
140
3.5
141
0.0
142
0.0
143
0.0393701
144
2.0
145
0.0
146
0.71
147
1.5
 71
     0
 72
     0
 73
     0
 74
     0
 75
     1
 76
     1
 77
     1
 78
     8
170
     0
171
     2
172
     1
173
     1
174
     0
175
     0
176
   256
177
   256
178
     2
  0
DIMSTYLE
  2
STANDARD
 70
     0
  3

  4

  5

  6

  7

 40
1.0
 41
0.18
 42
0.0625
 43
0.38
 44
0.18
 45
0.0
 46
0.0
 47
0.0
 48
0.0
140
0.18
141
0.09
142
0.0
143
25.399999999999999
144
1.0
145
0.0
146
1.0
147
0.09
 71
     0
 72
     0
 73
     1
 74
     1
 75
     0
 76
     0
 77
     0
 78
     0
170
     0
171
     2
172
     0
173
     0
174
     0
175
     0
176
     0
177
     0
178
     0
  0
ENDTAB
  0
ENDSEC
  0
SECTION
  2
BLOCKS
  0
BLOCK
  8
0
  2
$MODEL_SPACE
 70
     0
 10
0.0
 20
0.0
 30
0.0
  3
$MODEL_SPACE
  1

  0
ENDBLK
  5
21
  8
0
  0
BLOCK
 67
     1
  8
0
  2
$PAPER_SPACE
 70
     0
 10
0.0
 20
0.0
 30
0.0
  3
$PAPER_SPACE
  1

  0
ENDBLK
  5
1D
 67
     1
  8
0
  0
BLOCK
  8
0
  2
GENAXEH
 70
     0
 10
0.0
 20
0.0
 30
0.0
  3
GENAXEH
  1

  0
LINE
  5
88
  8
0
 10
-1.0
 20
0.0
 30
0.0
 11
1.0
 21
0.0
 31
0.0
  0
ENDBLK
  5
8A
  8
0
  0
BLOCK
  8
0
  2
*U3
 70
     1
 10
0.0
 20
0.0
 30
0.0
  3
*U3
  1

  0
TEXT
  5
A3B
  8
UMCL2
 10
1564.775129588752
 20
1191.8724939525309
 30
0.0
 40
3.0
  1
11
 50
90.0
  0
ENDBLK
  5
A3D
  8
0
  0
BLOCK
  8
0
  2
*U4
 70
     1
 10
0.0
 20
0.0
 30
0.0
  3
*U4
  1

  0
TEXT
  5
A3F
  8
UMCL2
 10
1572.775129588752
 20
1191.4651037340279
 30
0.0
 40
3.0
  1
19
 50
90.0
  0
ENDBLK
  5
A41
  8
0
  0
BLOCK
  8
0
  2
*U5
 70
     1
 10
0.0
 20
0.0
 30
0.0
  3
*U5
  1

  0
TEXT
  5
A43
  8
UMCL2
 10
1580.775129588752
 20
1191.032405369853
 30
0.0
 40
3.0
  1
42
 50
90.0
  0
ENDBLK
  5
A45
  8
0
  0
BLOCK
  8
0
  2
*U6
 70
     1
 10
0.0
 20
0.0
 30
0.0
  3
*U6
  1

  0
TEXT
  5
A47
  8
UMCL2
 10
1588.775129588752
 20
1191.2103619181739
 30
0.0
 40
3.0
  1
55
 50
90.0
  0
ENDBLK
  5
A49
  8
0
  0
BLOCK
  8
0
  2
*U7
 70
     1
 10
0.0
 20
0.0
 30
0.0
  3
*U7
  1

  0
TEXT
  5
A4B
  8
UMCL2
 10
1500.975129588752
 20
1158.8724939525309
 30
0.0
 40
3.0
  1
18
  0
ENDBLK
  5
A4D
  8
0
  0
BLOCK
  8
0
  2
*U8
 70
     1
 10
0.0
 20
0.0
 30
0.0
  3
*U8
  1

  0
TEXT
  5
A4F
  8
UMCL2
 10
1536.7132201399329
 20
1131.0313395616911
 30
0.0
 40
3.0
  1
28
  0
ENDBLK
  5
A51
  8
0
  0
BLOCK
  8
0
  2
*U9
 70
     1
 10
0.0
 20
0.0
 30
0.0
  3
*U9
  1

  0
TEXT
  5
A53
  8
UMCL2
 10
1511.6231315572561
 20
1131.0313395616911
 30
0.0
 40
3.0
  1
22
  0
ENDBLK
  5
A55
  8
0
  0
BLOCK
  8
0
  2
*U10
 70
     1
 10
0.0
 20
0.0
 30
0.0
  3
*U10
  1

  0
TEXT
  5
A57
  8
UMCL2
 10
1528.1129975543961
 20
1139.0313395616911
 30
0.0
 40
3.0
  1
55
  0
ENDBLK
  5
A59
  8
0
  0
BLOCK
  8
0
  2
*U11
 70
     1
 10
0.0
 20
0.0
 30
0.0
  3
*U11
  1

  0
TEXT
  5
A5B
  8
UMCL2
 10
1523.61489336828
 20
1147.0313395616911
 30
0.0
 40
3.0
  1
64
  0
ENDBLK
  5
A5D
  8
0
  0
BLOCK
  8
0
  2
*U12
 70
     1
 10
0.0
 20
0.0
 30
0.0
  3
*U12
  1

  0
TEXT
  5
A5F
  8
UMCL2
 10
1539.6248658594729
 20
1095.767188945927
 30
0.0
 40
3.0
  1
24
 50
90.0
  0
ENDBLK
  5
A61
  8
0
  0
BLOCK
  8
0
  2
*U13
 70
     1
 10
0.0
 20
0.0
 30
0.0
  3
*U13
  1

  0
TEXT
  5
A63
  8
UMCL2
 10
1543.1510881055769
 20
1080.8044697598641
 30
0.0
 40
3.0
  1
25
  0
ENDBLK
  5
A65
  8
0
  0
BLOCK
  8
0
  2
*U14
 70
     1
 10
0.0
 20
0.0
 30
0.0
  3
*U14
  1

  0
TEXT
  5
A67
  8
UMCL2
 10
1552.2089010853431
 20
1006.73133956169
 30
0.0
 40
3.0
  1
17
 50
90.0
  0
ENDBLK
  5
A69
  8
0
  0
BLOCK
  8
0
  2
*U15
 70
     1
 10
0.0
 20
0.0
 30
0.0
  3
*U15
  1

  0
TEXT
  5
A6B
  8
UMCL2
 10
1552.2089010853431
 20
1031.3692075273341
 30
0.0
 40
3.0
  1
33
 50
90.0
  0
ENDBLK
  5
A6D
  8
0
  0
BLOCK
  8
0
  2
*U16
 70
     1
 10
0.0
 20
0.0
 30
0.0
  3
*U16
  1

  0
TEXT
  5
A6F
  8
UMCL2
 10
1564.775129588752
 20
1035.8569301128709
 30
0.0
 40
3.0
  1
76
 50
90.0
  0
ENDBLK
  5
A71
  8
0
  0
BLOCK
  8
0
  2
*U17
 70
     1
 10
0.0
 20
0.0
 30
0.0
  3
*U17
  1

  0
TEXT
  5
A73
  8
UMCL2
 10
1564.775129588752
 20
1107.0313395616911
 30
0.0
 40
3.0
  1
11
 50
90.0
  0
ENDBLK
  5
A75
  8
0
  0
BLOCK
  8
0
  2
*U18
 70
     1
 10
0.0
 20
0.0
 30
0.0
  3
*U18
  1

  0
TEXT
  5
A77
  8
UMCL2
 10
1572.775129588752
 20
1048.6192075273341
 30
0.0
 40
3.0
  1
103
 50
90.0
  0
ENDBLK
  5
A79
  8
0
  0
BLOCK
  8
0
  2
*U19
 70
     1
 10
0.0
 20
0.0
 30
0.0
  3
*U19
  1

  0
TEXT
  5
A7B
  8
UMCL2
 10
1572.775129588752
 20
1110.6239493431881
 30
0.0
 40
3.0
  1
19
 50
90.0
  0
ENDBLK
  5
A7D
  8
0
  0
BLOCK
  8
0
  2
*U20
 70
     1
 10
0.0
 20
0.0
 30
0.0
  3
*U20
  1

  0
TEXT
  5
A7F
  8
UMCL2
 10
1580.775129588752
 20
1058.091250979013
 30
0.0
 40
3.0
  1
122
 50
90.0
  0
ENDBLK
  5
A81
  8
0
  0
BLOCK
  8
0
  2
*U21
 70
     1
 10
0.0
 20
0.0
 30
0.0
  3
*U21
  1

  0
TEXT
  5
A83
  8
UMCL2
 10
1489.0515010631329
 20
1103.3766834285079
 30
0.0
 40
3.0
  1
\U+22058
 50
39.831282712150681
  0
ENDBLK
  5
A85
  8
0
  0
BLOCK
  8
0
  2
*U22
 70
     1
 10
0.0
 20
0.0
 30
0.0
  3
*U22
  1

  0
TEXT
  5
A87
  8
UMCL2
 10
1469.1626733312839
 20
1192.271994272643
 30
0.0
 40
3.0
  1
9
 50
90.0
  0
ENDBLK
  5
A89
  8
0
  0
BLOCK
  8
0
  2
*U23
 70
     1
 10
0.0
 20
0.0
 30
0.0
  3
*U23
  1

  0
TEXT
  5
A9D
  8
UMCL2
 10
1347.5108185222971
 20
1190.3724939525309
 30
0.0
 40
3.0
  1
11
 50
90.0
  0
ENDBLK
  5
A9F
  8
0
  0
BLOCK
  8
0
  2
*U24
 70
     1
 10
0.0
 20
0.0
 30
0.0
  3
*U24
  1

  0
TEXT
  5
AA1
  8
UMCL2
 10
1355.5108185222971
 20
1189.9651037340279
 30
0.0
 40
3.0
  1
19
 50
90.0
  0
ENDBLK
  5
AA3
  8
0
  0
BLOCK
  8
0
  2
*U25
 70
     1
 10
0.0
 20
0.0
 30
0.0
  3
*U25
  1

  0
TEXT
  5
AA5
  8
UMCL2
 10
1363.5108185222971
 20
1189.532405369853
 30
0.0
 40
3.0
  1
42
 50
90.0
  0
ENDBLK
  5
AA7
  8
0
  0
BLOCK
  8
0
  2
*U26
 70
     1
 10
0.0
 20
0.0
 30
0.0
  3
*U26
  1

  0
TEXT
  5
AA9
  8
UMCL2
 10
1371.5108185222971
 20
1189.7103619181739
 30
0.0
 40
3.0
  1
55
 50
90.0
  0
ENDBLK
  5
AAB
  8
0
  0
BLOCK
  8
0
  2
*U27
 70
     1
 10
0.0
 20
0.0
 30
0.0
  3
*U27
  1

  0
TEXT
  5
AAD
  8
UMCL2
 10
1319.448909073478
 20
1129.5313395616911
 30
0.0
 40
3.0
  1
28
  0
ENDBLK
  5
AAF
  8
0
  0
BLOCK
  8
0
  2
*U28
 70
     1
 10
0.0
 20
0.0
 30
0.0
  3
*U28
  1

  0
TEXT
  5
AB1
  8
UMCL2
 10
1294.358820490801
 20
1129.5313395616911
 30
0.0
 40
3.0
  1
22
  0
ENDBLK
  5
AB3
  8
0
  0
BLOCK
  8
0
  2
*U29
 70
     1
 10
0.0
 20
0.0
 30
0.0
  3
*U29
  1

  0
TEXT
  5
AB5
  8
UMCL2
 10
1310.848686487941
 20
1137.5313395616911
 30
0.0
 40
3.0
  1
55
  0
ENDBLK
  5
AB7
  8
0
  0
BLOCK
  8
0
  2
*U30
 70
     1
 10
0.0
 20
0.0
 30
0.0
  3
*U30
  1

  0
TEXT
  5
AB9
  8
UMCL2
 10
1306.3505823018249
 20
1145.5313395616911
 30
0.0
 40
3.0
  1
64
  0
ENDBLK
  5
ABB
  8
0
  0
BLOCK
  8
0
  2
*U31
 70
     1
 10
0.0
 20
0.0
 30
0.0
  3
*U31
  1

  0
TEXT
  5
ABD
  8
UMCL2
 10
1322.3605547930181
 20
1094.267188945927
 30
0.0
 40
3.0
  1
24
 50
90.0
  0
ENDBLK
  5
ABF
  8
0
  0
BLOCK
  8
0
  2
*U32
 70
     1
 10
0.0
 20
0.0
 30
0.0
  3
*U32
  1

  0
TEXT
  5
AC1
  8
UMCL2
 10
1325.8867770391221
 20
1079.3044697598641
 30
0.0
 40
3.0
  1
25
  0
ENDBLK
  5
AC3
  8
0
  0
BLOCK
  8
0
  2
*U33
 70
     1
 10
0.0
 20
0.0
 30
0.0
  3
*U33
  1

  0
TEXT
  5
AC5
  8
UMCL2
 10
1347.5108185222971
 20
1034.3569301128709
 30
0.0
 40
3.0
  1
76
 50
90.0
  0
ENDBLK
  5
AC7
  8
0
  0
BLOCK
  8
0
  2
*U34
 70
     1
 10
0.0
 20
0.0
 30
0.0
  3
*U34
  1

  0
TEXT
  5
AC9
  8
UMCL2
 10
1347.5108185222971
 20
1105.5313395616911
 30
0.0
 40
3.0
  1
11
 50
90.0
  0
ENDBLK
  5
ACB
  8
0
  0
BLOCK
  8
0
  2
*U35
 70
     1
 10
0.0
 20
0.0
 30
0.0
  3
*U35
  1

  0
TEXT
  5
ACD
  8
UMCL2
 10
1355.5108185222971
 20
1047.1192075273341
 30
0.0
 40
3.0
  1
103
 50
90.0
  0
ENDBLK
  5
ACF
  8
0
  0
BLOCK
  8
0
  2
*U36
 70
     1
 10
0.0
 20
0.0
 30
0.0
  3
*U36
  1

  0
TEXT
  5
AD1
  8
UMCL2
 10
1355.5108185222971
 20
1109.1239493431881
 30
0.0
 40
3.0
  1
19
 50
90.0
  0
ENDBLK
  5
AD3
  8
0
  0
BLOCK
  8
0
  2
*U37
 70
     1
 10
0.0
 20
0.0
 30
0.0
  3
*U37
  1

  0
TEXT
  5
AD5
  8
UMCL2
 10
1363.5108185222971
 20
1056.591250979013
 30
0.0
 40
3.0
  1
122
 50
90.0
  0
ENDBLK
  5
AD7
  8
0
  0
BLOCK
  8
0
  2
*U38
 70
     1
 10
0.0
 20
0.0
 30
0.0
  3
*U38
  1

  0
TEXT
  5
AD9
  8
UMCL2
 10
1271.7871899966781
 20
1101.8766834285079
 30
0.0
 40
3.0
  1
\U+22058
 50
39.831282712150681
  0
ENDBLK
  5
ADB
  8
0
  0
BLOCK
  8
0
  2
*U39
 70
     1
 10
0.0
 20
0.0
 30
0.0
  3
*U39
  1

  0
TEXT
  5
ADD
  8
UMCL2
 10
1251.8983622648279
 20
1190.771994272643
 30
0.0
 40
3.0
  1
9
 50
90.0
  0
ENDBLK
  5
ADF
  8
0
  0
BLOCK
  8
0
  2
*U40
 70
     1
 10
0.0
 20
0.0
 30
0.0
  3
*U40
  1

  0
TEXT
  5
AE1
  8
UMCL2
 10
1283.7108185222969
 20
1156.256073968475
 30
0.0
 40
3.0
  1
18
  0
ENDBLK
  5
AE3
  8
0
  0
BLOCK
  8
0
  2
*U41
 70
     1
 10
0.0
 20
0.0
 30
0.0
  3
*U41
  1

  0
TEXT
  5
AF3
  8
UMCL2
 10
1243.659366397254
 20
1179.8094034013491
 30
0.0
 40
3.0
  1
20
 50
90.0
  0
ENDBLK
  5
AF5
  8
0
  0
ENDSEC
  0
SECTION
  2
ENTITIES
  0
LINE
  5
5E4
  8
UMCL1
  6
CONTINUOUS
 10
1516.775129588752
 20
1206.8724939525309
 30
0.0
 11
1532.775129588752
 21
1206.8724939525309
 31
0.0
  0
LINE
  5
5E5
  8
UMCL1
  6
CONTINUOUS
 10
1542.8469263584759
 20
1202.8724939525309
 30
0.0
 11
1542.8469263584759
 21
1183.8724939525309
 31
0.0
  0
LINE
  5
5E6
  8
UMCL1
  6
CONTINUOUS
 10
1542.8469263584759
 20
1183.8724939525309
 30
0.0
 11
1557.775129588752
 21
1187.8724939525309
 31
0.0
  0
LINE
  5
5E7
  8
UMCL1
  6
CONTINUOUS
 10
1557.775129588752
 20
1198.8724939525309
 30
0.0
 11
1542.8469263584759
 21
1202.8724939525309
 31
0.0
  0
LINE
  5
5E8
  8
UMCL1
  6
CONTINUOUS
 10
1557.775129588752
 20
1187.8724939525309
 30
0.0
 11
1557.775129588752
 21
1198.8724939525309
 31
0.0
  0
LINE
  5
5E9
  8
UMCL1
  6
HIDDEN
 62
     3
 10
1498.775129588752
 20
1202.8724939525309
 30
0.0
 11
1498.775129588752
 21
1183.87249395253
 31
0.0
  0
LINE
  5
5EA
  8
UMCL1
  6
HIDDEN
 62
     3
 10
1506.775129588752
 20
1202.8724939525309
 30
0.0
 11
1506.775129588752
 21
1183.8724939525309
 31
0.0
  0
LINE
  5
5EB
  8
UMCL1
  6
CONTINUOUS
 10
1498.975129588752
 20
1202.8724939525309
 30
0.0
 11
1498.975129588752
 21
1203.772493952531
 31
0.0
  0
LINE
  5
5EC
  8
UMCL1
  6
CONTINUOUS
 10
1506.5751295887519
 20
1202.8724939525309
 30
0.0
 11
1506.5751295887519
 21
1203.7724939525301
 31
0.0
  0
LINE
  5
5ED
  8
UMCL1
  6
CONTINUOUS
 10
1497.5751295887519
 20
1202.8724939525309
 30
0.0
 11
1497.5751295887519
 21
1203.772493952531
 31
0.0
  0
LINE
  5
5EE
  8
UMCL1
  6
CONTINUOUS
 10
1507.975129588752
 20
1202.8724939525309
 30
0.0
 11
1507.975129588752
 21
1203.7724939525301
 31
0.0
  0
LINE
  5
5EF
  8
UMCL1
  6
CONTINUOUS
 10
1497.5751295887519
 20
1203.772493952531
 30
0.0
 11
1507.975129588752
 21
1203.7724939525301
 31
0.0
  0
LINE
  5
5F0
  8
UMCL1
  6
CONTINUOUS
 10
1520.975129588752
 20
1206.8724939525309
 30
0.0
 11
1520.975129588752
 21
1207.772493952531
 31
0.0
  0
LINE
  5
5F1
  8
UMCL1
  6
CONTINUOUS
 10
1528.5751295887519
 20
1206.8724939525309
 30
0.0
 11
1528.5751295887519
 21
1207.772493952531
 31
0.0
  0
LINE
  5
5F2
  8
UMCL1
  6
CONTINUOUS
 10
1519.5751295887519
 20
1206.8724939525309
 30
0.0
 11
1519.5751295887519
 21
1207.772493952531
 31
0.0
  0
LINE
  5
5F3
  8
UMCL1
  6
CONTINUOUS
 10
1529.975129588752
 20
1206.8724939525309
 30
0.0
 11
1529.975129588752
 21
1207.772493952531
 31
0.0
  0
LINE
  5
5F4
  8
UMCL1
  6
CONTINUOUS
 10
1519.5751295887519
 20
1207.772493952531
 30
0.0
 11
1529.975129588752
 21
1207.772493952531
 31
0.0
  0
LINE
  5
5F5
  8
UMCL1
  6
CONTINUOUS
 10
1498.975129588752
 20
1183.8724939525309
 30
0.0
 11
1498.975129588752
 21
1182.9724939525311
 31
0.0
  0
LINE
  5
5F6
  8
UMCL1
  6
CONTINUOUS
 10
1506.5751295887519
 20
1183.8724939525309
 30
0.0
 11
1506.5751295887519
 21
1182.9724939525311
 31
0.0
  0
LINE
  5
5F7
  8
UMCL1
  6
CONTINUOUS
 10
1497.5751295887519
 20
1183.8724939525309
 30
0.0
 11
1497.5751295887519
 21
1182.9724939525311
 31
0.0
  0
LINE
  5
5F8
  8
UMCL1
  6
CONTINUOUS
 10
1507.975129588752
 20
1183.8724939525309
 30
0.0
 11
1507.975129588752
 21
1182.9724939525311
 31
0.0
  0
LINE
  5
5F9
  8
UMCL1
  6
CONTINUOUS
 10
1497.5751295887519
 20
1182.9724939525311
 30
0.0
 11
1507.975129588752
 21
1182.9724939525311
 31
0.0
  0
LINE
  5
5FA
  8
UMCL1
  6
CONTINUOUS
 10
1521.175129588752
 20
1208.9724939525311
 30
0.0
 11
1528.3751295887521
 21
1208.9724939525311
 31
0.0
  0
LINE
  5
5FB
  8
UMCL1
  6
CONTINUOUS
 10
1520.775129588752
 20
1208.572493952531
 30
0.0
 11
1520.775129588752
 21
1207.772493952531
 31
0.0
  0
LINE
  5
5FC
  8
UMCL1
  6
CONTINUOUS
 10
1528.775129588752
 20
1208.572493952531
 30
0.0
 11
1528.775129588752
 21
1207.772493952531
 31
0.0
  0
LINE
  5
5FD
  8
UMCL1
  6
CONTINUOUS
 10
1520.775129588752
 20
1208.572493952531
 30
0.0
 11
1528.775129588752
 21
1208.572493952531
 31
0.0
  0
LINE
  5
5FE
  8
UMCL1
  6
CONTINUOUS
 10
1528.775129588752
 20
1208.572493952531
 30
0.0
 11
1528.3751295887521
 21
1208.9724939525311
 31
0.0
  0
LINE
  5
5FF
  8
UMCL1
  6
CONTINUOUS
 10
1520.775129588752
 20
1208.572493952531
 30
0.0
 11
1521.175129588752
 21
1208.9724939525311
 31
0.0
  0
LINE
  5
600
  8
UMCL1
  6
CONTINUOUS
 10
1499.175129588752
 20
1204.9724939525311
 30
0.0
 11
1506.3751295887521
 21
1204.9724939525311
 31
0.0
  0
LINE
  5
601
  8
UMCL1
  6
CONTINUOUS
 10
1498.775129588752
 20
1204.572493952531
 30
0.0
 11
1498.775129588752
 21
1203.7724939525301
 31
0.0
  0
LINE
  5
602
  8
UMCL1
  6
CONTINUOUS
 10
1506.775129588752
 20
1204.572493952531
 30
0.0
 11
1506.775129588752
 21
1203.7724939525301
 31
0.0
  0
LINE
  5
603
  8
UMCL1
  6
CONTINUOUS
 10
1498.775129588752
 20
1204.572493952531
 30
0.0
 11
1506.775129588752
 21
1204.572493952531
 31
0.0
  0
LINE
  5
604
  8
UMCL1
  6
CONTINUOUS
 10
1506.775129588752
 20
1204.572493952531
 30
0.0
 11
1506.3751295887521
 21
1204.9724939525311
 31
0.0
  0
LINE
  5
605
  8
UMCL1
  6
CONTINUOUS
 10
1498.775129588752
 20
1204.572493952531
 30
0.0
 11
1499.175129588752
 21
1204.9724939525311
 31
0.0
  0
LINE
  5
606
  8
UMCL1
  6
CONTINUOUS
 10
1499.175129588752
 20
1181.7724939525301
 30
0.0
 11
1506.3751295887521
 21
1181.772493952531
 31
0.0
  0
LINE
  5
607
  8
UMCL1
  6
CONTINUOUS
 10
1498.775129588752
 20
1182.17249395253
 30
0.0
 11
1498.775129588752
 21
1182.9724939525311
 31
0.0
  0
LINE
  5
608
  8
UMCL1
  6
CONTINUOUS
 10
1506.775129588752
 20
1182.1724939525311
 30
0.0
 11
1506.775129588752
 21
1182.9724939525311
 31
0.0
  0
LINE
  5
609
  8
UMCL1
  6
CONTINUOUS
 10
1498.775129588752
 20
1182.17249395253
 30
0.0
 11
1506.775129588752
 21
1182.1724939525311
 31
0.0
  0
LINE
  5
60A
  8
UMCL1
  6
CONTINUOUS
 10
1506.775129588752
 20
1182.1724939525311
 30
0.0
 11
1506.3751295887521
 21
1181.772493952531
 31
0.0
  0
LINE
  5
60B
  8
UMCL1
  6
CONTINUOUS
 10
1498.775129588752
 20
1182.17249395253
 30
0.0
 11
1499.175129588752
 21
1181.7724939525301
 31
0.0
  0
LINE
  5
60C
  8
UMCL1
  6
HIDDEN
 62
     3
 10
1532.775129588752
 20
1202.8724939525309
 30
0.0
 11
1532.775129588752
 21
1183.8724939525309
 31
0.0
  0
CIRCLE
  5
60D
  8
UMCL1
  6
CONTINUOUS
 10
1523.775129588752
 20
1214.3724939525309
 30
0.0
 40
3.3999999999999999
  0
CIRCLE
  5
60E
  8
UMCL1
  6
CONTINUOUS
 10
1523.775129588752
 20
1214.3724939525309
 30
0.0
 40
5.25
  0
LINE
  5
60F
  8
UMCL1
  6
CONTINUOUS
 10
1516.775129588752
 20
1202.8724939525309
 30
0.0
 11
1516.775129588752
 21
1206.8724939525309
 31
0.0
  0
LINE
  5
610
  8
UMCL1
  6
CONTINUOUS
 10
1532.775129588752
 20
1206.8724939525309
 30
0.0
 11
1532.775129588752
 21
1202.8724939525309
 31
0.0
  0
CIRCLE
  5
611
  8
UMCL1
  6
CONTINUOUS
 10
1523.775129588752
 20
1172.3724939525309
 30
0.0
 40
3.3999999999999999
  0
CIRCLE
  5
612
  8
UMCL1
  6
CONTINUOUS
 10
1523.775129588752
 20
1172.3724939525309
 30
0.0
 40
5.25
  0
CIRCLE
  5
613
  8
UMCL1
  6
CONTINUOUS
 10
1481.775129588752
 20
1172.3724939525309
 30
0.0
 40
3.3999999999999999
  0
CIRCLE
  5
614
  8
UMCL1
  6
CONTINUOUS
 10
1481.775129588752
 20
1172.3724939525309
 30
0.0
 40
5.25
  0
CIRCLE
  5
615
  8
UMCL1
  6
CONTINUOUS
 10
1481.775129588752
 20
1214.3724939525309
 30
0.0
 40
3.3999999999999999
  0
CIRCLE
  5
616
  8
UMCL1
  6
CONTINUOUS
 10
1481.775129588752
 20
1214.3724939525309
 30
0.0
 40
5.25
  0
LINE
  5
617
  8
UMCL1
  6
CONTINUOUS
 10
1516.775129588752
 20
1179.8724939525309
 30
0.0
 11
1532.775129588752
 21
1179.87249395253
 31
0.0
  0
LINE
  5
618
  8
UMCL1
  6
CONTINUOUS
 10
1520.975129588752
 20
1179.8724939525309
 30
0.0
 11
1520.975129588752
 21
1178.9724939525311
 31
0.0
  0
LINE
  5
619
  8
UMCL1
  6
CONTINUOUS
 10
1528.5751295887519
 20
1179.8724939525309
 30
0.0
 11
1528.5751295887519
 21
1178.9724939525311
 31
0.0
  0
LINE
  5
61A
  8
UMCL1
  6
CONTINUOUS
 10
1519.5751295887519
 20
1179.8724939525309
 30
0.0
 11
1519.5751295887519
 21
1178.9724939525311
 31
0.0
  0
LINE
  5
61B
  8
UMCL1
  6
CONTINUOUS
 10
1529.975129588752
 20
1179.8724939525309
 30
0.0
 11
1529.975129588752
 21
1178.9724939525311
 31
0.0
  0
LINE
  5
61C
  8
UMCL1
  6
CONTINUOUS
 10
1519.5751295887519
 20
1178.9724939525311
 30
0.0
 11
1529.975129588752
 21
1178.9724939525311
 31
0.0
  0
LINE
  5
61D
  8
UMCL1
  6
CONTINUOUS
 10
1521.175129588752
 20
1177.7724939525301
 30
0.0
 11
1528.3751295887521
 21
1177.772493952531
 31
0.0
  0
LINE
  5
61E
  8
UMCL1
  6
CONTINUOUS
 10
1520.775129588752
 20
1178.17249395253
 30
0.0
 11
1520.775129588752
 21
1178.9724939525311
 31
0.0
  0
LINE
  5
61F
  8
UMCL1
  6
CONTINUOUS
 10
1528.775129588752
 20
1178.17249395253
 30
0.0
 11
1528.775129588752
 21
1178.9724939525311
 31
0.0
  0
LINE
  5
620
  8
UMCL1
  6
CONTINUOUS
 10
1520.775129588752
 20
1178.17249395253
 30
0.0
 11
1528.775129588752
 21
1178.17249395253
 31
0.0
  0
LINE
  5
621
  8
UMCL1
  6
CONTINUOUS
 10
1528.775129588752
 20
1178.17249395253
 30
0.0
 11
1528.3751295887521
 21
1177.772493952531
 31
0.0
  0
LINE
  5
622
  8
UMCL1
  6
CONTINUOUS
 10
1520.775129588752
 20
1178.17249395253
 30
0.0
 11
1521.175129588752
 21
1177.7724939525301
 31
0.0
  0
LINE
  5
623
  8
UMCL1
  6
CONTINUOUS
 10
1516.775129588752
 20
1183.8724939525309
 30
0.0
 11
1516.775129588752
 21
1179.8724939525309
 31
0.0
  0
LINE
  5
624
  8
UMCL1
  6
CONTINUOUS
 10
1532.775129588752
 20
1179.87249395253
 30
0.0
 11
1532.775129588752
 21
1183.8724939525309
 31
0.0
  0
LINE
  5
625
  8
UMCL1
  6
HIDDEN
 62
     3
 10
1520.775129588752
 20
1206.8724939525309
 30
0.0
 11
1520.775129588752
 21
1179.8724939525309
 31
0.0
  0
LINE
  5
626
  8
UMCL1
  6
HIDDEN
 62
     3
 10
1528.775129588752
 20
1206.8724939525309
 30
0.0
 11
1528.775129588752
 21
1179.8724939525309
 31
0.0
  0
ARC
  5
627
  8
UMCL1
  6
CONTINUOUS
 10
1502.775129588752
 20
1193.3724939525309
 30
0.0
 40
9.0
 50
150.0000000000027
 51
209.9999999999973
  0
ARC
  5
628
  8
UMCL1
  6
CONTINUOUS
 10
1502.775129588752
 20
1193.3724939525309
 30
0.0
 40
8.5
 50
148.034281249206
 51
211.965718750794
  0
ARC
  5
629
  8
UMCL1
  6
CONTINUOUS
 10
1502.775129588752
 20
1193.3724939525309
 30
0.0
 40
8.5
 50
328.034281249206
 51
31.965718750794
  0
ARC
  5
62A
  8
UMCL1
  6
CONTINUOUS
 10
1502.775129588752
 20
1193.3724939525309
 30
0.0
 40
9.0
 50
330.00000000000267
 51
29.999999999997289
  0
CIRCLE
  5
62B
  8
UMCL1
  6
CONTINUOUS
 10
1524.775129588752
 20
1112.5313395616911
 30
0.0
 40
4.0
  0
CIRCLE
  5
62C
  8
UMCL1
  6
CONTINUOUS
 10
1502.775129588752
 20
1112.5313395616911
 30
0.0
 40
4.0000001999999988
  0
CIRCLE
  5
62D
  8
UMCL1
  6
CONTINUOUS
 10
1524.775129588752
 20
1088.5313395616899
 30
0.0
 40
4.0
  0
LINE
  5
62E
  8
UMCL1
  6
HIDDEN
 62
     3
 10
1515.275129588752
 20
1122.0313395616911
 30
0.0
 11
1515.275129588752
 21
1103.0313395616911
 31
0.0
  0
LINE
  5
62F
  8
UMCL1
  6
CONTINUOUS
 10
1532.775129588752
 20
1088.5313415694179
 30
0.0
 11
1532.775129588752
 21
1112.5313395616911
 31
0.0
  0
ARC
  5
630
  8
UMCL1
  6
CONTINUOUS
 10
1524.775129588752
 20
1112.5313395616911
 30
0.0
 40
8.0
 50
0.0
 51
180.0
  0
LINE
  5
631
  8
UMCL1
  6
CONTINUOUS
 10
1516.775129588752
 20
1112.5313395616911
 30
0.0
 11
1516.775129588752
 21
1088.5313395616899
 31
0.0
  0
ARC
  5
632
  8
UMCL1
  6
HIDDEN
 62
     3
 10
1524.775129588752
 20
1088.5313395616899
 30
0.0
 40
8.0
 50
180.0
 51
0.000014754894633
  0
LINE
  5
633
  8
UMCL1
  6
CONTINUOUS
 10
1516.775129588752
 20
1076.0313395616899
 30
0.0
 11
1532.775129588752
 21
1076.0313395616899
 31
0.0
  0
LINE
  5
634
  8
UMCL1
  6
CONTINUOUS
 10
1516.775129588752
 20
1093.0313395616899
 30
0.0
 11
1520.275129588752
 21
1096.5313395616899
 31
0.0
  0
LINE
  5
635
  8
UMCL1
  6
CONTINUOUS
 10
1520.275129588752
 20
1096.5313395616899
 30
0.0
 11
1529.275129588752
 21
1096.5313395616899
 31
0.0
  0
LINE
  5
636
  8
UMCL1
  6
CONTINUOUS
 10
1532.775129588752
 20
1093.0313395616899
 30
0.0
 11
1529.275129588752
 21
1096.5313395616899
 31
0.0
  0
LINE
  5
637
  8
UMCL1
  6
CONTINUOUS
 10
1516.775129588752
 20
1093.0313395616899
 30
0.0
 11
1516.775129588752
 21
1076.0313395616899
 31
0.0
  0
LINE
  5
638
  8
UMCL1
  6
CONTINUOUS
 10
1532.775129588752
 20
1093.0313395616899
 30
0.0
 11
1532.775129588752
 21
1076.0313395616899
 31
0.0
  0
POLYLINE
  5
639
  8
UMCL1
  6
CONTINUOUS
 66
     1
 10
0.0
 20
0.0
 30
0.0
  0
VERTEX
  5
A28
  8
UMCL1
  6
CONTINUOUS
 10
1542.846926358477
 20
1122.0313395616911
 30
0.0
  0
VERTEX
  5
A29
  8
UMCL1
  6
CONTINUOUS
 10
1542.846926358477
 20
1103.0313395616911
 30
0.0
  0
SEQEND
  5
A2A
  8
UMCL1
  6
CONTINUOUS
  0
LINE
  5
63A
  8
UMCL1
  6
CONTINUOUS
 10
1557.775129588752
 20
1103.0313395616911
 30
0.0
 11
1557.775129588752
 21
1114.0313395616911
 31
0.0
  0
LINE
  5
63B
  8
UMCL1
  6
CONTINUOUS
 10
1557.775129588752
 20
1114.0313395616911
 30
0.0
 11
1542.846926358477
 21
1122.0313395616911
 31
0.0
  0
LINE
  5
63C
  8
UMCL1
  6
CONTINUOUS
 10
1493.775129588752
 20
1122.0313395616911
 30
0.0
 11
1493.775129588752
 21
1108.0313395616911
 31
0.0
  0
LINE
  5
63D
  8
UMCL1
  6
CONTINUOUS
 10
1493.775129588752
 20
1108.0313395616911
 30
0.0
 11
1498.775129588752
 21
1103.0313395616911
 31
0.0
  0
LINE
  5
63E
  8
UMCL1
  6
CONTINUOUS
 10
1494.275129143597
 20
1101.031338986691
 30
0.0
 11
1511.27513047087
 21
1101.031338986691
 31
0.0
  0
LINE
  5
63F
  8
UMCL1
  6
CONTINUOUS
 10
1493.775129750484
 20
1100.165314634067
 30
0.0
 11
1511.7751297504849
 21
1100.1653148306509
 31
0.0
  0
LINE
  5
640
  8
UMCL1
  6
CONTINUOUS
 10
1511.7751297504849
 20
1100.1653148306509
 30
0.0
 11
1511.27513047087
 21
1101.031338986691
 31
0.0
  0
LINE
  5
641
  8
UMCL1
  6
CONTINUOUS
 10
1493.775129750484
 20
1100.165314634067
 30
0.0
 11
1494.275129143673
 21
1101.031338986824
 31
0.0
  0
LINE
  5
642
  8
UMCL1
  6
HIDDEN
 62
     3
 10
1494.2751291388861
 20
1119.03133931209
 30
0.0
 11
1495.5651291435411
 21
1119.0313393124329
 31
0.0
  0
LINE
  5
643
  8
UMCL1
  6
HIDDEN
 62
     3
 10
1509.98513004354
 20
1119.0313393162689
 30
0.0
 11
1511.275130038885
 21
1119.031339316612
 31
0.0
  0
LINE
  5
644
  8
UMCL1
  6
HIDDEN
 62
     3
 10
1511.275130038885
 20
1119.031339316612
 30
0.0
 11
1508.275130239816
 21
1122.0313395616911
 31
0.0
  0
LINE
  5
645
  8
UMCL1
  6
HIDDEN
 62
     3
 10
1497.275129388486
 20
1122.0313395616911
 30
0.0
 11
1494.2751291388861
 21
1119.03133931209
 31
0.0
  0
LINE
  5
646
  8
UMCL1
  6
HIDDEN
 62
     2
 10
1497.275129388486
 20
1122.0313395616911
 30
0.0
 11
1508.275130239816
 21
1122.0313395616911
 31
0.0
  0
ARC
  5
647
  8
UMCL1
  6
CONTINUOUS
 10
1502.775129588752
 20
1193.3724939525309
 30
0.0
 40
5.5
 50
125.09680122758159
 51
234.90319877241839
  0
ARC
  5
648
  8
UMCL1
  6
CONTINUOUS
 10
1502.775129588752
 20
1193.3724939525309
 30
0.0
 40
5.5
 50
305.09680122758158
 51
54.903198772418392
  0
LINE
  5
649
  8
UMCL1
  6
CONTINUOUS
 10
1493.775129588752
 20
1202.8724939525309
 30
0.0
 11
1493.775129588752
 21
1197.8724939525309
 31
0.0
  0
LINE
  5
64A
  8
UMCL1
  6
CONTINUOUS
 10
1493.775129588752
 20
1188.8724939525309
 30
0.0
 11
1493.775129588752
 21
1183.8724939525309
 31
0.0
  0
LINE
  5
64B
  8
UMCL1
  6
CONTINUOUS
 10
1515.275129588752
 20
1197.8724939525309
 30
0.0
 11
1515.275129588752
 21
1188.8724939525309
 31
0.0
  0
LINE
  5
64C
  8
UMCL1
  6
CONTINUOUS
 10
1493.775129588752
 20
1197.8724939525309
 30
0.0
 11
1515.275129588752
 21
1197.8724939525309
 31
0.0
  0
LINE
  5
64D
  8
UMCL1
  6
CONTINUOUS
 10
1493.775129588752
 20
1188.8724939525309
 30
0.0
 11
1515.275129588752
 21
1188.8724939525309
 31
0.0
  0
LINE
  5
64E
  8
UMCL1
  6
CONTINUOUS
 10
1542.846926358477
 20
1122.0313395616911
 30
0.0
 11
1493.775129588752
 21
1122.0313395616911
 31
0.0
  0
LINE
  5
64F
  8
UMCL1
  6
CONTINUOUS
 10
1498.775129588752
 20
1103.0313395616911
 30
0.0
 11
1516.775129588752
 21
1103.0313395616911
 31
0.0
  0
LINE
  5
650
  8
UMCL1
  6
CONTINUOUS
 10
1532.775129588752
 20
1103.0313395616911
 30
0.0
 11
1557.775129588752
 21
1103.0313395616911
 31
0.0
  0
LINE
  5
651
  8
UMCL1
  6
HIDDEN
 62
     3
 10
1516.775129588752
 20
1103.0313395616911
 30
0.0
 11
1532.775129588752
 21
1103.0313395616911
 31
0.0
  0
LINE
  5
652
  8
UMCL1
  6
HIDDEN
 62
     3
 10
1511.275130043673
 20
1103.0313395616911
 30
0.0
 11
1511.275130043673
 21
1119.031339311824
 31
0.0
  0
LINE
  5
653
  8
UMCL1
  6
HIDDEN
 62
     3
 10
1509.9851300436731
 20
1103.0313395616911
 30
0.0
 11
1509.985130043674
 21
1120.321339503608
 31
0.0
  0
LINE
  5
654
  8
UMCL1
  6
HIDDEN
 62
     3
 10
1494.275129143673
 20
1107.5313400067689
 30
0.0
 11
1494.275129143673
 21
1119.03133931209
 31
0.0
  0
LINE
  5
655
  8
UMCL1
  6
HIDDEN
 62
     3
 10
1495.5651291436741
 20
1106.241340006769
 30
0.0
 11
1495.5651291436741
 21
1120.321339316878
 31
0.0
  0
LINE
  5
656
  8
UMCL1
  6
CONTINUOUS
 10
1494.275129143673
 20
1107.5313400067689
 30
0.0
 11
1494.275129143597
 21
1101.031338986691
 31
0.0
  0
LINE
  5
657
  8
UMCL1
  6
CONTINUOUS
 10
1495.5651291436741
 20
1106.241340006769
 30
0.0
 11
1495.5651291436741
 21
1101.031338986691
 31
0.0
  0
LINE
  5
658
  8
UMCL1
  6
CONTINUOUS
 10
1509.9851300436731
 20
1103.0313395616911
 30
0.0
 11
1509.9851300436731
 21
1101.031338986691
 31
0.0
  0
LINE
  5
659
  8
UMCL1
  6
CONTINUOUS
 10
1511.275130043673
 20
1103.0313395616911
 30
0.0
 11
1511.27513047087
 21
1101.031338986691
 31
0.0
  0
LINE
  5
65A
  8
UMCL1
  6
CONTINUOUS
 10
1493.775129750484
 20
1100.165314634067
 30
0.0
 11
1493.775129750484
 21
1076.0313395616899
 31
0.0
  0
LINE
  5
65B
  8
UMCL1
  6
CONTINUOUS
 10
1511.7751297504849
 20
1100.165314634067
 30
0.0
 11
1511.7751297504849
 21
1076.0313395616899
 31
0.0
  0
LINE
  5
65C
  8
UMCL1
  6
CENTER1
 62
     1
 10
1524.775129588752
 20
1209.9724939525311
 30
0.0
 11
1524.775129588752
 21
1176.772493952531
 31
0.0
  0
LINE
  5
65D
  8
UMCL1
  6
CENTER1
 62
     1
 10
1523.775129588752
 20
1077.5313395616899
 30
0.0
 11
1523.775129588752
 21
998.53133956169017
 31
0.0
  0
LINE
  5
65E
  8
UMCL1
  6
CENTER1
 62
     1
 10
1481.775129588752
 20
1077.5313395616899
 30
0.0
 11
1481.775129588752
 21
998.53133956169063
 31
0.0
  0
LINE
  5
65F
  8
UMCL1
  6
HIDDEN
 62
     3
 10
1485.175129588752
 20
1069.5313395616899
 30
0.0
 11
1485.175129588753
 21
1000.0313395616899
 31
0.0
  0
LINE
  5
660
  8
UMCL1
  6
HIDDEN
 62
     3
 10
1478.375129588753
 20
1069.5313395616899
 30
0.0
 11
1478.375129588753
 21
1000.0313395616899
 31
0.0
  0
LINE
  5
661
  8
UMCL1
  6
CONTINUOUS
 10
1493.775129588752
 20
1202.8724939525309
 30
0.0
 11
1542.8469263584759
 21
1202.8724939525309
 31
0.0
  0
LINE
  5
662
  8
UMCL1
  6
CONTINUOUS
 10
1493.775129588752
 20
1183.8724939525309
 30
0.0
 11
1542.8469263584759
 21
1183.8724939525309
 31
0.0
  0
LINE
  5
663
  8
UMCL1
  6
CENTER1
 62
     1
 10
1475.525129588752
 20
1214.3724939525309
 30
0.0
 11
1479.775129588752
 21
1214.3724939525309
 31
0.0
  0
LINE
  5
664
  8
UMCL1
  6
CENTER1
 62
     1
 10
1480.775129588752
 20
1214.3724939525309
 30
0.0
 11
1482.775129588752
 21
1214.3724939525309
 31
0.0
  0
LINE
  5
665
  8
UMCL1
  6
CENTER1
 62
     1
 10
1483.775129588752
 20
1214.3724939525309
 30
0.0
 11
1488.025129588752
 21
1214.3724939525309
 31
0.0
  0
LINE
  5
666
  8
UMCL1
  6
CENTER1
 62
     1
 10
1481.775129588752
 20
1208.1224939525309
 30
0.0
 11
1481.775129588752
 21
1212.3724939525309
 31
0.0
  0
LINE
  5
667
  8
UMCL1
  6
CENTER1
 62
     1
 10
1481.775129588752
 20
1213.3724939525309
 30
0.0
 11
1481.775129588752
 21
1215.3724939525309
 31
0.0
  0
LINE
  5
668
  8
UMCL1
  6
CENTER1
 62
     1
 10
1481.775129588752
 20
1216.3724939525309
 30
0.0
 11
1481.775129588752
 21
1220.6224939525309
 31
0.0
  0
LINE
  5
669
  8
UMCL1
  6
CENTER1
 62
     1
 10
1517.525129588752
 20
1214.3724939525309
 30
0.0
 11
1521.775129588752
 21
1214.3724939525309
 31
0.0
  0
LINE
  5
66A
  8
UMCL1
  6
CENTER1
 62
     1
 10
1522.775129588752
 20
1214.3724939525309
 30
0.0
 11
1524.775129588752
 21
1214.3724939525309
 31
0.0
  0
LINE
  5
66B
  8
UMCL1
  6
CENTER1
 62
     1
 10
1525.775129588752
 20
1214.3724939525309
 30
0.0
 11
1530.025129588752
 21
1214.3724939525309
 31
0.0
  0
LINE
  5
66C
  8
UMCL1
  6
CENTER1
 62
     1
 10
1523.775129588752
 20
1208.1224939525309
 30
0.0
 11
1523.775129588752
 21
1212.3724939525309
 31
0.0
  0
LINE
  5
66D
  8
UMCL1
  6
CENTER1
 62
     1
 10
1523.775129588752
 20
1213.3724939525309
 30
0.0
 11
1523.775129588752
 21
1215.3724939525309
 31
0.0
  0
LINE
  5
66E
  8
UMCL1
  6
CENTER1
 62
     1
 10
1523.775129588752
 20
1216.3724939525309
 30
0.0
 11
1523.775129588752
 21
1220.6224939525309
 31
0.0
  0
LINE
  5
66F
  8
UMCL1
  6
CENTER1
 62
     1
 10
1517.525129588752
 20
1172.3724939525309
 30
0.0
 11
1521.775129588752
 21
1172.3724939525309
 31
0.0
  0
LINE
  5
670
  8
UMCL1
  6
CENTER1
 62
     1
 10
1522.775129588752
 20
1172.3724939525309
 30
0.0
 11
1524.775129588752
 21
1172.3724939525309
 31
0.0
  0
LINE
  5
671
  8
UMCL1
  6
CENTER1
 62
     1
 10
1525.775129588752
 20
1172.3724939525309
 30
0.0
 11
1530.025129588752
 21
1172.3724939525309
 31
0.0
  0
LINE
  5
672
  8
UMCL1
  6
CENTER1
 62
     1
 10
1523.775129588752
 20
1166.1224939525309
 30
0.0
 11
1523.775129588752
 21
1170.3724939525309
 31
0.0
  0
LINE
  5
673
  8
UMCL1
  6
CENTER1
 62
     1
 10
1523.775129588752
 20
1171.3724939525309
 30
0.0
 11
1523.775129588752
 21
1173.3724939525309
 31
0.0
  0
LINE
  5
674
  8
UMCL1
  6
CENTER1
 62
     1
 10
1523.775129588752
 20
1174.3724939525309
 30
0.0
 11
1523.775129588752
 21
1178.6224939525309
 31
0.0
  0
LINE
  5
675
  8
UMCL1
  6
CENTER1
 62
     1
 10
1475.525129588752
 20
1172.3724939525309
 30
0.0
 11
1479.775129588752
 21
1172.3724939525309
 31
0.0
  0
LINE
  5
676
  8
UMCL1
  6
CENTER1
 62
     1
 10
1480.775129588752
 20
1172.3724939525309
 30
0.0
 11
1482.775129588752
 21
1172.3724939525309
 31
0.0
  0
LINE
  5
677
  8
UMCL1
  6
CENTER1
 62
     1
 10
1483.775129588752
 20
1172.3724939525309
 30
0.0
 11
1488.025129588752
 21
1172.3724939525309
 31
0.0
  0
LINE
  5
678
  8
UMCL1
  6
CENTER1
 62
     1
 10
1481.775129588752
 20
1166.1224939525309
 30
0.0
 11
1481.775129588752
 21
1170.3724939525309
 31
0.0
  0
LINE
  5
679
  8
UMCL1
  6
CENTER1
 62
     1
 10
1481.775129588752
 20
1171.3724939525309
 30
0.0
 11
1481.775129588752
 21
1173.3724939525309
 31
0.0
  0
LINE
  5
67A
  8
UMCL1
  6
CENTER1
 62
     1
 10
1481.775129588752
 20
1174.3724939525309
 30
0.0
 11
1481.775129588752
 21
1178.6224939525309
 31
0.0
  0
LINE
  5
67B
  8
UMCL1
  6
CENTER1
 62
     1
 10
1497.575129388752
 20
1112.5313395616911
 30
0.0
 11
1500.3751295887521
 21
1112.5313395616911
 31
0.0
  0
LINE
  5
67C
  8
UMCL1
  6
CENTER1
 62
     1
 10
1501.5751295887519
 20
1112.5313395616911
 30
0.0
 11
1503.975129588752
 21
1112.5313395616911
 31
0.0
  0
LINE
  5
67D
  8
UMCL1
  6
CENTER1
 62
     1
 10
1505.175129588752
 20
1112.5313395616911
 30
0.0
 11
1507.9751297887519
 21
1112.5313395616911
 31
0.0
  0
LINE
  5
67E
  8
UMCL1
  6
CENTER1
 62
     1
 10
1519.5751295887519
 20
1112.5313395616911
 30
0.0
 11
1522.3751295887521
 21
1112.5313395616911
 31
0.0
  0
LINE
  5
67F
  8
UMCL1
  6
CENTER1
 62
     1
 10
1523.5751295887519
 20
1112.5313395616911
 30
0.0
 11
1525.975129588752
 21
1112.5313395616911
 31
0.0
  0
LINE
  5
680
  8
UMCL1
  6
CENTER1
 62
     1
 10
1527.175129588752
 20
1112.5313395616911
 30
0.0
 11
1529.975129588752
 21
1112.5313395616911
 31
0.0
  0
LINE
  5
681
  8
UMCL1
  6
CENTER1
 62
     1
 10
1524.775129588752
 20
1107.331339561691
 30
0.0
 11
1524.775129588752
 21
1110.1313395616901
 31
0.0
  0
LINE
  5
682
  8
UMCL1
  6
CENTER1
 62
     1
 10
1524.775129588752
 20
1111.331339561691
 30
0.0
 11
1524.775129588752
 21
1113.7313395616909
 31
0.0
  0
LINE
  5
683
  8
UMCL1
  6
CENTER1
 62
     1
 10
1524.775129588752
 20
1114.9313395616909
 30
0.0
 11
1524.775129588752
 21
1117.7313395616909
 31
0.0
  0
LINE
  5
684
  8
UMCL1
  6
CENTER1
 62
     1
 10
1519.5751295887519
 20
1088.5313395616899
 30
0.0
 11
1522.3751295887521
 21
1088.5313395616899
 31
0.0
  0
LINE
  5
685
  8
UMCL1
  6
CENTER1
 62
     1
 10
1523.5751295887519
 20
1088.5313395616899
 30
0.0
 11
1525.975129588752
 21
1088.5313395616899
 31
0.0
  0
LINE
  5
686
  8
UMCL1
  6
CENTER1
 62
     1
 10
1527.175129588752
 20
1088.5313395616899
 30
0.0
 11
1529.975129588752
 21
1088.5313395616899
 31
0.0
  0
LINE
  5
687
  8
UMCL1
  6
CENTER1
 62
     1
 10
1524.775129588752
 20
1083.3313395616899
 30
0.0
 11
1524.775129588752
 21
1086.1313395616901
 31
0.0
  0
LINE
  5
688
  8
UMCL1
  6
CENTER1
 62
     1
 10
1524.775129588752
 20
1087.3313395616899
 30
0.0
 11
1524.775129588752
 21
1089.73133956169
 31
0.0
  0
LINE
  5
689
  8
UMCL1
  6
CENTER1
 62
     1
 10
1524.775129588752
 20
1090.93133956169
 30
0.0
 11
1524.775129588752
 21
1093.73133956169
 31
0.0
  0
LINE
  5
68A
  8
UMCL1
  6
CENTER1
 62
     1
 10
1524.775129588752
 20
1107.331339561691
 30
0.0
 11
1524.775129588752
 21
1093.73133956169
 31
0.0
  0
LINE
  5
68B
  8
UMCL1
  6
CENTER1
 62
     1
 10
1552.775129588752
 20
1119.695596878395
 30
0.0
 11
1552.775129588752
 21
1099.295596878394
 31
0.0
  0
LINE
  5
68C
  8
UMCL1
  6
CONTINUOUS
 10
1475.775129588752
 20
1000.0313395616899
 30
0.0
 11
1529.775129588752
 21
1000.0313395616899
 31
0.0
  0
LINE
  5
68D
  8
UMCL1
  6
CONTINUOUS
 10
1475.275129588752
 20
1075.5313395616911
 30
0.0
 11
1475.275129588752
 21
1000.5313395616899
 31
0.0
  0
LINE
  5
68E
  8
UMCL1
  6
CONTINUOUS
 10
1530.275129588752
 20
1075.5313395616899
 30
0.0
 11
1475.275129588752
 21
1075.5313395616899
 31
0.0
  0
LINE
  5
68F
  8
UMCL1
  6
CONTINUOUS
 10
1475.775129588752
 20
1076.0313395616899
 30
0.0
 11
1475.275129588752
 21
1075.5313395616911
 31
0.0
  0
LINE
  5
690
  8
UMCL1
  6
CONTINUOUS
 10
1529.775129588752
 20
1076.0313395616899
 30
0.0
 11
1530.275129588752
 21
1075.5313395616911
 31
0.0
  0
LINE
  5
691
  8
UMCL1
  6
CONTINUOUS
 10
1530.275129588752
 20
1000.5313395616899
 30
0.0
 11
1530.275129588752
 21
1075.5313395616911
 31
0.0
  0
LINE
  5
692
  8
UMCL1
  6
CONTINUOUS
 10
1475.775129588752
 20
1076.0313395616899
 30
0.0
 11
1529.775129588752
 21
1076.0313395616899
 31
0.0
  0
LINE
  5
693
  8
UMCL1
  6
CONTINUOUS
 10
1475.275129588752
 20
1000.5313395616899
 30
0.0
 11
1530.275129588752
 21
1000.5313395616899
 31
0.0
  0
LINE
  5
694
  8
UMCL1
  6
CONTINUOUS
 10
1475.775129588752
 20
1000.0313395616899
 30
0.0
 11
1475.275129588752
 21
1000.5313395616899
 31
0.0
  0
LINE
  5
695
  8
UMCL1
  6
CONTINUOUS
 10
1529.775129588752
 20
1000.0313395616899
 30
0.0
 11
1530.275129588752
 21
1000.5313395616899
 31
0.0
  0
LINE
  5
696
  8
UMCL1
  6
HIDDEN
 62
     3
 10
1476.525129588752
 20
1069.5313395616899
 30
0.0
 11
1487.0251295887531
 21
1069.5313395616899
 31
0.0
  0
LINE
  5
697
  8
UMCL1
  6
HIDDEN
 62
     3
 10
1476.525129588752
 20
1076.0313395616899
 30
0.0
 11
1476.525129588752
 21
1069.5313395616899
 31
0.0
  0
LINE
  5
698
  8
UMCL1
  6
HIDDEN
 62
     3
 10
1487.0251295887531
 20
1069.5313395616899
 30
0.0
 11
1487.0251295887531
 21
1076.0313395616899
 31
0.0
  0
LINE
  5
699
  8
UMCL1
  6
HIDDEN
 62
     3
 10
1527.175129588752
 20
1069.5313395616899
 30
0.0
 11
1527.175129588752
 21
1000.0313395616899
 31
0.0
  0
LINE
  5
69A
  8
UMCL1
  6
HIDDEN
 62
     3
 10
1520.3751295887521
 20
1069.5313395616899
 30
0.0
 11
1520.3751295887521
 21
1000.0313395616899
 31
0.0
  0
LINE
  5
69B
  8
UMCL1
  6
HIDDEN
 62
     3
 10
1518.525129588752
 20
1069.5313395616899
 30
0.0
 11
1529.025129588752
 21
1069.5313395616899
 31
0.0
  0
LINE
  5
69C
  8
UMCL1
  6
HIDDEN
 62
     3
 10
1518.525129588752
 20
1076.0313395616899
 30
0.0
 11
1518.525129588752
 21
1069.5313395616899
 31
0.0
  0
LINE
  5
69D
  8
UMCL1
  6
HIDDEN
 62
     3
 10
1529.025129588752
 20
1069.5313395616899
 30
0.0
 11
1529.025129588752
 21
1076.0313395616899
 31
0.0
  0
LINE
  5
69E
  8
UMCL1
  6
CENTER1
 62
     1
 10
1502.775129588752
 20
998.53133956169063
 30
0.0
 11
1502.775129588752
 21
1123.5313395616911
 31
0.0
  0
LINE
  5
69F
  8
UMCL1
  6
CENTER1
 62
     1
 10
1473.775129588752
 20
1193.3724939525309
 30
0.0
 11
1559.275129588752
 21
1193.3724939525309
 31
0.0
  0
LINE
  5
6A0
  8
UMCL1
  6
CENTER1
 62
     1
 10
1502.775129588752
 20
1222.3724939525309
 30
0.0
 11
1502.775129588752
 21
1164.3724939525309
 31
0.0
  0
POLYLINE
  5
6A1
  8
UMCL1
  6
CONTINUOUS
 66
     1
 10
0.0
 20
0.0
 30
0.0
  0
VERTEX
  5
A2B
  8
UMCL1
  6
CONTINUOUS
 10
1526.775129588752
 20
1220.8724939525309
 30
0.0
  0
VERTEX
  5
A2C
  8
UMCL1
  6
CONTINUOUS
 10
1478.775129588752
 20
1220.8724939525309
 30
0.0
  0
SEQEND
  5
A2D
  8
UMCL1
  6
CONTINUOUS
  0
ARC
  5
6A2
  8
UMCL1
  6
CONTINUOUS
 10
1502.775129588752
 20
1193.37249395253
 30
0.0
 40
36.5
 50
41.112090439168
 51
48.887909560832007
  0
POLYLINE
  5
6A3
  8
UMCL1
  6
CONTINUOUS
 66
     1
 10
0.0
 20
0.0
 30
0.0
  0
VERTEX
  5
A2E
  8
UMCL1
  6
CONTINUOUS
 10
1530.275129588752
 20
1169.37249395253
 30
0.0
  0
VERTEX
  5
A2F
  8
UMCL1
  6
CONTINUOUS
 10
1530.275129588752
 20
1179.87249395253
 30
0.0
  0
SEQEND
  5
A30
  8
UMCL1
  6
CONTINUOUS
  0
ARC
  5
6A4
  8
UMCL1
  6
CONTINUOUS
 10
1502.775129588752
 20
1193.37249395253
 30
0.0
 40
36.5
 50
311.11209043916801
 51
318.88790956083199
  0
POLYLINE
  5
6A5
  8
UMCL1
  6
CONTINUOUS
 66
     1
 10
0.0
 20
0.0
 30
0.0
  0
VERTEX
  5
A31
  8
UMCL1
  6
CONTINUOUS
 10
1478.775129588752
 20
1165.87249395253
 30
0.0
  0
VERTEX
  5
A32
  8
UMCL1
  6
CONTINUOUS
 10
1526.775129588752
 20
1165.87249395253
 30
0.0
  0
SEQEND
  5
A33
  8
UMCL1
  6
CONTINUOUS
  0
ARC
  5
6A6
  8
UMCL1
  6
CONTINUOUS
 10
1502.775129588752
 20
1193.37249395253
 30
0.0
 40
36.5
 50
131.11209043916801
 51
138.88790956083199
  0
ARC
  5
6A7
  8
UMCL1
  6
CONTINUOUS
 10
1502.775129588752
 20
1193.37249395253
 30
0.0
 40
36.5
 50
221.11209043916801
 51
228.88790956083199
  0
POLYLINE
  5
6A8
  8
UMCL1
  6
CONTINUOUS
 66
     1
 10
0.0
 20
0.0
 30
0.0
  0
VERTEX
  5
A34
  8
UMCL1
  6
CONTINUOUS
 10
1475.275129588752
 20
1217.37249395253
 30
0.0
  0
VERTEX
  5
A35
  8
UMCL1
  6
CONTINUOUS
 10
1475.275129588752
 20
1169.37249395253
 30
0.0
  0
SEQEND
  5
A36
  8
UMCL1
  6
CONTINUOUS
  0
POLYLINE
  5
6A9
  8
UMCL1
  6
CONTINUOUS
 66
     1
 10
0.0
 20
0.0
 30
0.0
  0
VERTEX
  5
A37
  8
UMCL1
  6
CONTINUOUS
 10
1530.275129588752
 20
1206.8724939525309
 30
0.0
  0
VERTEX
  5
A38
  8
UMCL1
  6
CONTINUOUS
 10
1530.275129588752
 20
1217.37249395253
 30
0.0
  0
SEQEND
  5
A39
  8
UMCL1
  6
CONTINUOUS
  0
LINE
  5
6AA
  8
UMCL1
  6
HIDDEN
 62
     3
 10
1530.275129588752
 20
1206.8724939525309
 30
0.0
 11
1530.275129588752
 21
1179.87249395253
 31
0.0
  0
TEXT
  5
6AB
  8
UMCL2
  6
CONTINUOUS
 10
1510.3424972426019
 20
1025.8442393073469
 30
0.0
 40
3.0
  1
A
  7
ROMANS
  0
CIRCLE
  5
6AC
  8
UMCL2
  6
CONTINUOUS
 10
1511.775129588752
 20
1027.0913395616899
 30
0.0
 40
2.5
  0
TEXT
  5
6AD
  8
UMCL2
  6
CONTINUOUS
 10
1492.385719276537
 20
1058.5957558005709
 30
0.0
 40
3.0
  1
B
  7
ROMANS
  0
CIRCLE
  5
6AE
  8
UMCL2
  6
CONTINUOUS
 10
1493.775129588752
 20
1060.0913395616899
 30
0.0
 40
2.5
  0
CIRCLE
  5
6AF
  8
UMCL1
  6
CONTINUOUS
 10
1493.775129588752
 20
1050.0313395616899
 30
0.0
 40
4.2999999999999989
  0
ARC
  5
6B0
  8
UMCL1
  6
CONTINUOUS
 62
     3
 10
1493.775129588752
 20
1050.0313395616899
 30
0.0
 40
4.8599999999999994
 50
344.99999999999932
 51
284.99999999999437
  0
LINE
  5
6B1
  8
UMCL1
  6
HIDDEN
 62
     3
 10
1488.9151295887521
 20
1165.8724939525309
 30
0.0
 11
1489.1651295887521
 21
1173.8724939525309
 31
0.0
  0
LINE
  5
6B2
  8
UMCL1
  6
HIDDEN
 62
     3
 10
1489.475129588752
 20
1165.87249395253
 30
0.0
 11
1489.725129588752
 21
1173.87249395253
 31
0.0
  0
LINE
  5
6B3
  8
UMCL1
  6
CENTER1
 62
     1
 10
1493.775129588752
 20
1175.3724939525309
 30
0.0
 11
1493.775129588752
 21
1164.3724939525309
 31
0.0
  0
LINE
  5
6B4
  8
UMCL1
  6
HIDDEN
 62
     3
 10
1498.6351295887521
 20
1165.8724939525309
 30
0.0
 11
1498.3851295887521
 21
1173.8724939525309
 31
0.0
  0
LINE
  5
6B5
  8
UMCL1
  6
HIDDEN
 62
     3
 10
1498.0751295887519
 20
1165.87249395253
 30
0.0
 11
1497.8251295887519
 21
1173.87249395253
 31
0.0
  0
LINE
  5
6B6
  8
UMCL1
  6
HIDDEN
 62
     3
 10
1506.9151295887521
 20
1165.8724939525309
 30
0.0
 11
1507.1651295887521
 21
1173.8724939525309
 31
0.0
  0
LINE
  5
6B7
  8
UMCL1
  6
HIDDEN
 62
     3
 10
1507.475129588752
 20
1165.87249395253
 30
0.0
 11
1507.725129588752
 21
1173.87249395253
 31
0.0
  0
LINE
  5
6B8
  8
UMCL1
  6
CENTER1
 62
     1
 10
1511.775129588752
 20
1175.3724939525309
 30
0.0
 11
1511.775129588752
 21
1164.3724939525309
 31
0.0
  0
LINE
  5
6B9
  8
UMCL1
  6
HIDDEN
 62
     3
 10
1516.6351295887521
 20
1165.8724939525309
 30
0.0
 11
1516.3851295887521
 21
1173.8724939525309
 31
0.0
  0
LINE
  5
6BA
  8
UMCL1
  6
HIDDEN
 62
     3
 10
1516.0751295887519
 20
1165.87249395253
 30
0.0
 11
1515.8251295887519
 21
1173.87249395253
 31
0.0
  0
LINE
  5
6BB
  8
UMCL1
  6
HIDDEN
 62
     3
 10
1488.9151295887521
 20
1220.8724939525309
 30
0.0
 11
1489.1651295887521
 21
1212.8724939525309
 31
0.0
  0
LINE
  5
6BC
  8
UMCL1
  6
HIDDEN
 62
     3
 10
1489.475129588752
 20
1220.8724939525309
 30
0.0
 11
1489.725129588752
 21
1212.8724939525309
 31
0.0
  0
LINE
  5
6BD
  8
UMCL1
  6
CENTER1
 62
     1
 10
1493.775129588752
 20
1211.3724939525309
 30
0.0
 11
1493.775129588752
 21
1222.3724939525309
 31
0.0
  0
LINE
  5
6BE
  8
UMCL1
  6
HIDDEN
 62
     3
 10
1498.6351295887521
 20
1220.8724939525309
 30
0.0
 11
1498.3851295887521
 21
1212.8724939525309
 31
0.0
  0
LINE
  5
6BF
  8
UMCL1
  6
HIDDEN
 62
     3
 10
1498.0751295887519
 20
1220.8724939525309
 30
0.0
 11
1497.8251295887519
 21
1212.8724939525309
 31
0.0
  0
LINE
  5
6C0
  8
UMCL1
  6
HIDDEN
 62
     3
 10
1506.9151295887521
 20
1220.8724939525309
 30
0.0
 11
1507.1651295887521
 21
1212.8724939525309
 31
0.0
  0
LINE
  5
6C1
  8
UMCL1
  6
HIDDEN
 62
     3
 10
1507.475129588752
 20
1220.8724939525309
 30
0.0
 11
1507.725129588752
 21
1212.8724939525309
 31
0.0
  0
LINE
  5
6C2
  8
UMCL1
  6
CENTER1
 62
     1
 10
1511.775129588752
 20
1211.3724939525309
 30
0.0
 11
1511.775129588752
 21
1222.3724939525309
 31
0.0
  0
LINE
  5
6C3
  8
UMCL1
  6
HIDDEN
 62
     3
 10
1516.6351295887521
 20
1220.8724939525309
 30
0.0
 11
1516.3851295887521
 21
1212.8724939525309
 31
0.0
  0
LINE
  5
6C4
  8
UMCL1
  6
HIDDEN
 62
     3
 10
1516.0751295887519
 20
1220.8724939525309
 30
0.0
 11
1515.8251295887519
 21
1212.8724939525309
 31
0.0
  0
CIRCLE
  5
6C5
  8
UMCL1
  6
CONTINUOUS
 10
1511.775129588752
 20
1017.0313395616899
 30
0.0
 40
4.2999999999999989
  0
ARC
  5
6C6
  8
UMCL1
  6
CONTINUOUS
 62
     3
 10
1511.775129588752
 20
1017.0313395616899
 30
0.0
 40
4.8599999999999994
 50
344.99999999999932
 51
284.99999999999437
  0
LINE
  5
6C7
  8
UMCL1
  6
CENTER1
 62
     1
 10
1488.4291295887531
 20
1050.0313395616899
 30
0.0
 11
1499.121129588752
 21
1050.0313395616899
 31
0.0
  0
LINE
  5
6C8
  8
UMCL1
  6
CENTER1
 62
     1
 10
1493.775129588752
 20
1055.37733956169
 30
0.0
 11
1493.775129588752
 21
1044.6853395616899
 31
0.0
  0
LINE
  5
6C9
  8
UMCL1
  6
CENTER1
 62
     1
 10
1506.4291295887531
 20
1017.0313395616899
 30
0.0
 11
1517.1211295887531
 21
1017.0313395616899
 31
0.0
  0
LINE
  5
6CA
  8
UMCL1
  6
CENTER1
 62
     1
 10
1511.775129588752
 20
1022.37733956169
 30
0.0
 11
1511.775129588752
 21
1011.6853395616899
 31
0.0
  0
LINE
  5
6CB
  8
UMCL2
 10
1558.775129588752
 20
1187.8724939525309
 30
0.0
 11
1566.775129588752
 21
1187.8724939525309
 31
0.0
  0
LINE
  5
6CC
  8
UMCL2
 10
1558.775129588752
 20
1198.8724939525309
 30
0.0
 11
1566.775129588752
 21
1198.8724939525309
 31
0.0
  0
LINE
  5
6CD
  8
UMCL2
 10
1565.775129588752
 20
1190.3724939525309
 30
0.0
 11
1565.775129588752
 21
1196.3724939525309
 31
0.0
  0
SOLID
  5
6CE
  8
UMCL2
 10
1565.3584629220859
 20
1190.3724939525309
 30
0.0
 11
1566.1917962554189
 21
1190.3724939525309
 31
0.0
 12
1565.775129588752
 22
1187.8724939525309
 32
0.0
 13
1565.775129588752
 23
1187.8724939525309
 33
0.0
  0
SOLID
  5
6CF
  8
UMCL2
 10
1565.3584629220859
 20
1196.3724939525309
 30
0.0
 11
1566.1917962554189
 21
1196.3724939525309
 31
0.0
 12
1565.775129588752
 22
1198.8724939525309
 32
0.0
 13
1565.775129588752
 23
1198.8724939525309
 33
0.0
  0
INSERT
  5
6D0
  8
0
  2
*U3
 10
0.0
 20
0.0
 30
0.0
  0
LINE
  5
6D1
  8
UMCL2
 10
1543.8469263584759
 20
1183.8724939525309
 30
0.0
 11
1574.775129588752
 21
1183.8724939525309
 31
0.0
  0
LINE
  5
6D2
  8
UMCL2
 10
1543.8469263584759
 20
1202.8724939525309
 30
0.0
 11
1574.775129588752
 21
1202.8724939525309
 31
0.0
  0
LINE
  5
6D3
  8
UMCL2
 10
1573.775129588752
 20
1186.3724939525309
 30
0.0
 11
1573.775129588752
 21
1200.3724939525309
 31
0.0
  0
SOLID
  5
6D4
  8
UMCL2
 10
1573.3584629220859
 20
1186.3724939525309
 30
0.0
 11
1574.1917962554189
 21
1186.3724939525309
 31
0.0
 12
1573.775129588752
 22
1183.8724939525309
 32
0.0
 13
1573.775129588752
 23
1183.8724939525309
 33
0.0
  0
SOLID
  5
6D5
  8
UMCL2
 10
1573.3584629220859
 20
1200.3724939525309
 30
0.0
 11
1574.1917962554189
 21
1200.3724939525309
 31
0.0
 12
1573.775129588752
 22
1202.8724939525309
 32
0.0
 13
1573.775129588752
 23
1202.8724939525309
 33
0.0
  0
INSERT
  5
6D6
  8
0
  2
*U4
 10
0.0
 20
0.0
 30
0.0
  0
LINE
  5
6D7
  8
UMCL2
 10
1531.025129588752
 20
1172.3724939525309
 30
0.0
 11
1582.775129588752
 21
1172.3724939525309
 31
0.0
  0
LINE
  5
6D8
  8
UMCL2
 10
1531.025129588752
 20
1214.3724939525309
 30
0.0
 11
1582.775129588752
 21
1214.3724939525309
 31
0.0
  0
LINE
  5
6D9
  8
UMCL2
 10
1581.775129588752
 20
1174.8724939525309
 30
0.0
 11
1581.775129588752
 21
1211.8724939525309
 31
0.0
  0
SOLID
  5
6DA
  8
UMCL2
 10
1581.3584629220859
 20
1174.8724939525309
 30
0.0
 11
1582.1917962554189
 21
1174.8724939525309
 31
0.0
 12
1581.775129588752
 22
1172.3724939525309
 32
0.0
 13
1581.775129588752
 23
1172.3724939525309
 33
0.0
  0
SOLID
  5
6DB
  8
UMCL2
 10
1581.3584629220859
 20
1211.8724939525309
 30
0.0
 11
1582.1917962554189
 21
1211.8724939525309
 31
0.0
 12
1581.775129588752
 22
1214.3724939525309
 32
0.0
 13
1581.775129588752
 23
1214.3724939525309
 33
0.0
  0
INSERT
  5
6DC
  8
0
  2
*U5
 10
0.0
 20
0.0
 30
0.0
  0
LINE
  5
6DD
  8
UMCL2
 10
1527.775129588752
 20
1165.87249395253
 30
0.0
 11
1590.775129588752
 21
1165.87249395253
 31
0.0
  0
LINE
  5
6DE
  8
UMCL2
 10
1527.7751295887531
 20
1220.8724939525291
 30
0.0
 11
1590.775129588752
 21
1220.8724939525291
 31
0.0
  0
LINE
  5
6DF
  8
UMCL2
 10
1589.775129588752
 20
1168.3724939525309
 30
0.0
 11
1589.775129588752
 21
1218.37249395253
 31
0.0
  0
SOLID
  5
6E0
  8
UMCL2
 10
1589.3584629220859
 20
1168.3724939525309
 30
0.0
 11
1590.1917962554189
 21
1168.3724939525309
 31
0.0
 12
1589.775129588752
 22
1165.87249395253
 32
0.0
 13
1589.775129588752
 23
1165.87249395253
 33
0.0
  0
SOLID
  5
6E1
  8
UMCL2
 10
1589.3584629220859
 20
1218.37249395253
 30
0.0
 11
1590.1917962554189
 21
1218.37249395253
 31
0.0
 12
1589.775129588752
 22
1220.8724939525291
 32
0.0
 13
1589.775129588752
 23
1220.8724939525291
 33
0.0
  0
INSERT
  5
6E2
  8
0
  2
*U6
 10
0.0
 20
0.0
 30
0.0
  0
LINE
  5
6E3
  8
UMCL2
  6
CONTINUOUS
 10
1577.779620682124
 20
1189.8015348671529
 30
0.0
 11
1580.4021663034321
 21
1189.8015348671529
 31
0.0
  0
LINE
  5
6E4
  8
UMCL2
  6
CONTINUOUS
 10
1580.4021663034321
 20
1189.8015348671529
 30
0.0
 11
1580.4021663034321
 21
1187.391688389926
 31
0.0
  0
LINE
  5
6E5
  8
UMCL2
  6
CONTINUOUS
 10
1580.4021663034321
 20
1187.391688389926
 30
0.0
 11
1577.779620682124
 21
1187.391688389926
 31
0.0
  0
LINE
  5
6E6
  8
UMCL2
  6
CONTINUOUS
 10
1577.779620682124
 20
1187.391688389926
 30
0.0
 11
1577.779620682124
 21
1189.8015348671529
 31
0.0
  0
LINE
  5
6E7
  8
UMCL2
  6
CONTINUOUS
 10
1585.864888974106
 20
1189.5450611797371
 30
0.0
 11
1588.4874345954131
 21
1189.5450611797371
 31
0.0
  0
LINE
  5
6E8
  8
UMCL2
  6
CONTINUOUS
 10
1588.4874345954131
 20
1189.5450611797371
 30
0.0
 11
1588.4874345954131
 21
1187.13521470251
 31
0.0
  0
LINE
  5
6E9
  8
UMCL2
  6
CONTINUOUS
 10
1588.4874345954131
 20
1187.13521470251
 30
0.0
 11
1585.864888974106
 21
1187.13521470251
 31
0.0
  0
LINE
  5
6EA
  8
UMCL2
  6
CONTINUOUS
 10
1585.864888974106
 20
1187.13521470251
 30
0.0
 11
1585.864888974106
 21
1189.5450611797371
 31
0.0
  0
LINE
  5
6EB
  8
UMCL2
 10
1543.8469263584759
 20
1183.8724939525309
 30
0.0
 11
1574.775129588752
 21
1183.87249395253
 31
0.0
  0
ARC
  5
6EC
  8
UMCL2
 10
1542.8469263584759
 20
1183.8724939525309
 30
0.0
 40
11.301506297044741
 50
334.59929400486658
 51
347.29964700243391
  0
ARC
  5
6ED
  8
UMCL2
 10
1542.8469263584759
 20
1183.8724939525309
 30
0.0
 40
11.301506297044741
 50
27.700352997566728
 51
40.400705995128817
  0
ARC
  5
6EE
  8
UMCL2
 10
1542.8469263584759
 20
1183.8724939525309
 30
0.0
 40
11.301506297044741
 50
0.0
 51
15.000000000000741
  0
SOLID
  5
6EF
  8
UMCL2
 10
1553.457810644222
 20
1181.4339180671791
 30
0.0
 11
1554.286031040082
 21
1181.341747462722
 31
0.0
 12
1554.148432655521
 22
1183.8724939525309
 32
0.0
 13
1554.148432655521
 23
1183.8724939525309
 33
0.0
  0
SOLID
  5
6F0
  8
UMCL2
 10
1553.2412476101749
 20
1189.2776654973479
 30
0.0
 11
1552.465103647786
 21
1188.974276318088
 31
0.0
 12
1553.76334316676
 22
1186.797539020552
 32
0.0
 13
1553.76334316676
 23
1186.797539020552
 33
0.0
  0
TEXT
  5
6F1
  8
UMCL2
  6
CONTINUOUS
 10
1556.552973172747
 20
1178.7461698368691
 30
0.0
 40
3.0
  1
15%%D
  7
ROMANSS
 72
     2
 11
1562.267258887033
 21
1180.2461698368691
 31
0.0
 73
     2
  0
LINE
  5
6F2
  8
UMCL2
 10
1493.775129588752
 20
1163.3724939525309
 30
0.0
 11
1493.775129588752
 21
1156.8724939525309
 31
0.0
  0
LINE
  5
6F3
  8
UMCL2
 10
1511.775129588752
 20
1163.3724939525309
 30
0.0
 11
1511.775129588752
 21
1156.8724939525309
 31
0.0
  0
LINE
  5
6F4
  8
UMCL2
 10
1496.275129588752
 20
1157.87249395253
 30
0.0
 11
1509.275129588752
 21
1157.87249395253
 31
0.0
  0
SOLID
  5
6F5
  8
UMCL2
 10
1496.275129588752
 20
1158.289160619197
 30
0.0
 11
1496.275129588752
 21
1157.455827285864
 31
0.0
 12
1493.775129588752
 22
1157.87249395253
 32
0.0
 13
1493.775129588752
 23
1157.87249395253
 33
0.0
  0
SOLID
  5
6F6
  8
UMCL2
 10
1509.275129588752
 20
1158.289160619197
 30
0.0
 11
1509.275129588752
 21
1157.455827285864
 31
0.0
 12
1511.775129588752
 22
1157.87249395253
 32
0.0
 13
1511.775129588752
 23
1157.87249395253
 33
0.0
  0
INSERT
  5
6F7
  8
0
  2
*U7
 10
0.0
 20
0.0
 30
0.0
  0
LINE
  5
6F8
  8
UMCL2
 10
1524.775129588752
 20
1118.7313395616909
 30
0.0
 11
1524.775129588752
 21
1131.0313395616911
 31
0.0
  0
LINE
  5
6F9
  8
UMCL2
 10
1552.775129588752
 20
1120.695596878395
 30
0.0
 11
1552.775129588752
 21
1131.0313395616911
 31
0.0
  0
LINE
  5
6FA
  8
UMCL2
 10
1527.275129588752
 20
1130.0313395616911
 30
0.0
 11
1550.275129588752
 21
1130.0313395616911
 31
0.0
  0
SOLID
  5
6FB
  8
UMCL2
 10
1527.275129588752
 20
1130.4480062283569
 30
0.0
 11
1527.275129588752
 21
1129.6146728950239
 31
0.0
 12
1524.775129588752
 22
1130.0313395616911
 32
0.0
 13
1524.775129588752
 23
1130.0313395616911
 33
0.0
  0
SOLID
  5
6FC
  8
UMCL2
 10
1550.275129588752
 20
1130.4480062283569
 30
0.0
 11
1550.275129588752
 21
1129.6146728950239
 31
0.0
 12
1552.775129588752
 22
1130.0313395616911
 32
0.0
 13
1552.775129588752
 23
1130.0313395616911
 33
0.0
  0
INSERT
  5
6FD
  8
0
  2
*U8
 10
0.0
 20
0.0
 30
0.0
  0
LINE
  5
6FE
  8
UMCL2
 10
1524.775129588752
 20
1118.7313395616909
 30
0.0
 11
1524.775129588752
 21
1131.0313395616911
 31
0.0
  0
LINE
  5
6FF
  8
UMCL2
 10
1502.775129588752
 20
1124.5313395616911
 30
0.0
 11
1502.775129588752
 21
1131.0313395616911
 31
0.0
  0
LINE
  5
700
  8
UMCL2
 10
1522.275129588752
 20
1130.0313395616911
 30
0.0
 11
1505.275129588752
 21
1130.0313395616911
 31
0.0
  0
SOLID
  5
701
  8
UMCL2
 10
1522.275129588752
 20
1130.4480062283569
 30
0.0
 11
1522.275129588752
 21
1129.6146728950239
 31
0.0
 12
1524.775129588752
 22
1130.0313395616911
 32
0.0
 13
1524.775129588752
 23
1130.0313395616911
 33
0.0
  0
SOLID
  5
702
  8
UMCL2
 10
1505.275129588752
 20
1130.4480062283569
 30
0.0
 11
1505.275129588752
 21
1129.6146728950239
 31
0.0
 12
1502.775129588752
 22
1130.0313395616911
 32
0.0
 13
1502.775129588752
 23
1130.0313395616911
 33
0.0
  0
INSERT
  5
703
  8
0
  2
*U9
 10
0.0
 20
0.0
 30
0.0
  0
LINE
  5
704
  8
UMCL2
 10
1557.775129588752
 20
1115.0313395616911
 30
0.0
 11
1557.775129588752
 21
1139.0313395616911
 31
0.0
  0
LINE
  5
705
  8
UMCL2
 10
1502.775129588752
 20
1124.5313395616911
 30
0.0
 11
1502.775129588752
 21
1139.0313395616911
 31
0.0
  0
LINE
  5
706
  8
UMCL2
 10
1555.275129588752
 20
1138.0313395616911
 30
0.0
 11
1505.275129588752
 21
1138.0313395616911
 31
0.0
  0
SOLID
  5
707
  8
UMCL2
 10
1555.275129588752
 20
1138.4480062283569
 30
0.0
 11
1555.275129588752
 21
1137.6146728950239
 31
0.0
 12
1557.775129588752
 22
1138.0313395616911
 32
0.0
 13
1557.775129588752
 23
1138.0313395616911
 33
0.0
  0
SOLID
  5
708
  8
UMCL2
 10
1505.275129588752
 20
1138.4480062283569
 30
0.0
 11
1505.275129588752
 21
1137.6146728950239
 31
0.0
 12
1502.775129588752
 22
1138.0313395616911
 32
0.0
 13
1502.775129588752
 23
1138.0313395616911
 33
0.0
  0
INSERT
  5
709
  8
0
  2
*U10
 10
0.0
 20
0.0
 30
0.0
  0
LINE
  5
70A
  8
UMCL2
 10
1557.775129588752
 20
1115.0313395616911
 30
0.0
 11
1557.775129588752
 21
1147.0313395616911
 31
0.0
  0
LINE
  5
70B
  8
UMCL2
 10
1493.775129588752
 20
1123.0313395616911
 30
0.0
 11
1493.775129588752
 21
1147.0313395616911
 31
0.0
  0
LINE
  5
70C
  8
UMCL2
 10
1555.275129588752
 20
1146.0313395616911
 30
0.0
 11
1496.275129588752
 21
1146.0313395616911
 31
0.0
  0
SOLID
  5
70D
  8
UMCL2
 10
1555.275129588752
 20
1146.4480062283569
 30
0.0
 11
1555.275129588752
 21
1145.6146728950239
 31
0.0
 12
1557.775129588752
 22
1146.0313395616911
 32
0.0
 13
1557.775129588752
 23
1146.0313395616911
 33
0.0
  0
SOLID
  5
70E
  8
UMCL2
 10
1496.275129588752
 20
1146.4480062283569
 30
0.0
 11
1496.275129588752
 21
1145.6146728950239
 31
0.0
 12
1493.775129588752
 22
1146.0313395616911
 32
0.0
 13
1493.775129588752
 23
1146.0313395616911
 33
0.0
  0
INSERT
  5
70F
  8
0
  2
*U11
 10
0.0
 20
0.0
 30
0.0
  0
LINE
  5
710
  8
UMCL2
 10
1530.975129588752
 20
1112.5313395616911
 30
0.0
 11
1541.6248658594729
 21
1112.5313395616911
 31
0.0
  0
LINE
  5
711
  8
UMCL2
 10
1530.975129588752
 20
1088.5313395616899
 30
0.0
 11
1541.6248658594729
 21
1088.5313395616899
 31
0.0
  0
LINE
  5
712
  8
UMCL2
 10
1540.6248658594729
 20
1110.0313395616899
 30
0.0
 11
1540.6248658594729
 21
1091.0313395616899
 31
0.0
  0
INSERT
  5
713
  8
0
  2
*U12
 10
0.0
 20
0.0
 30
0.0
  0
SOLID
  5
714
  8
UMCL2
 10
1540.208199192806
 20
1110.0313395616899
 30
0.0
 11
1541.041532526139
 21
1110.0313395616899
 31
0.0
 12
1540.6248658594729
 22
1112.5313395616911
 32
0.0
 13
1540.6248658594729
 23
1112.5313395616911
 33
0.0
  0
SOLID
  5
715
  8
UMCL2
 10
1540.208199192806
 20
1091.0313395616899
 30
0.0
 11
1541.041532526139
 21
1091.0313395616899
 31
0.0
 12
1540.6248658594729
 22
1088.5313395616899
 32
0.0
 13
1540.6248658594729
 23
1088.5313395616899
 33
0.0
  0
LINE
  5
716
  8
UMCL2
 10
1532.775129588752
 20
1077.0313395616899
 30
0.0
 11
1532.775129588752
 21
1080.8044697598641
 31
0.0
  0
LINE
  5
717
  8
UMCL2
 10
1557.775129588752
 20
1102.0313395616899
 30
0.0
 11
1557.775129588752
 21
1078.8044697598641
 31
0.0
  0
LINE
  5
718
  8
UMCL2
 10
1535.275129588752
 20
1079.8044697598641
 30
0.0
 11
1555.275129588752
 21
1079.8044697598641
 31
0.0
  0
SOLID
  5
719
  8
UMCL2
 10
1535.275129588752
 20
1080.2211364265311
 30
0.0
 11
1535.275129588752
 21
1079.3878030931969
 31
0.0
 12
1532.775129588752
 22
1079.8044697598641
 32
0.0
 13
1532.775129588752
 23
1079.8044697598641
 33
0.0
  0
SOLID
  5
71A
  8
UMCL2
 10
1555.275129588752
 20
1080.2211364265311
 30
0.0
 11
1555.275129588752
 21
1079.3878030931969
 31
0.0
 12
1557.775129588752
 22
1079.8044697598641
 32
0.0
 13
1557.775129588752
 23
1079.8044697598641
 33
0.0
  0
INSERT
  5
71B
  8
0
  2
*U13
 10
0.0
 20
0.0
 30
0.0
  0
LINE
  5
71C
  8
UMCL2
 10
1530.775129588752
 20
1000.0313395616899
 30
0.0
 11
1554.2089010853431
 21
1000.0313395616899
 31
0.0
  0
LINE
  5
71D
  8
UMCL2
 10
1518.1211295887531
 20
1017.0313395616899
 30
0.0
 11
1554.2089010853431
 21
1017.0313395616899
 31
0.0
  0
LINE
  5
71E
  8
UMCL2
 10
1553.2089010853431
 20
1002.5313395616899
 30
0.0
 11
1553.2089010853431
 21
1014.5313395616899
 31
0.0
  0
SOLID
  5
71F
  8
UMCL2
 10
1552.792234418677
 20
1002.5313395616899
 30
0.0
 11
1553.6255677520101
 21
1002.5313395616899
 31
0.0
 12
1553.2089010853431
 22
1000.0313395616899
 32
0.0
 13
1553.2089010853431
 23
1000.0313395616899
 33
0.0
  0
SOLID
  5
720
  8
UMCL2
 10
1552.792234418677
 20
1014.5313395616899
 30
0.0
 11
1553.6255677520101
 21
1014.5313395616899
 31
0.0
 12
1553.2089010853431
 22
1017.0313395616899
 32
0.0
 13
1553.2089010853431
 23
1017.0313395616899
 33
0.0
  0
INSERT
  5
721
  8
0
  2
*U14
 10
0.0
 20
0.0
 30
0.0
  0
LINE
  5
722
  8
UMCL2
 10
1518.1211295887531
 20
1017.0313395616899
 30
0.0
 11
1554.2089010853431
 21
1017.0313395616899
 31
0.0
  0
LINE
  5
723
  8
UMCL2
 10
1500.1211295887531
 20
1050.0313395616899
 30
0.0
 11
1554.2089010853431
 21
1050.0313395616899
 31
0.0
  0
LINE
  5
724
  8
UMCL2
 10
1553.2089010853431
 20
1019.5313395616899
 30
0.0
 11
1553.2089010853431
 21
1047.5313395616899
 31
0.0
  0
SOLID
  5
725
  8
UMCL2
 10
1552.792234418677
 20
1019.5313395616899
 30
0.0
 11
1553.6255677520101
 21
1019.5313395616899
 31
0.0
 12
1553.2089010853431
 22
1017.0313395616899
 32
0.0
 13
1553.2089010853431
 23
1017.0313395616899
 33
0.0
  0
SOLID
  5
726
  8
UMCL2
 10
1552.792234418677
 20
1047.5313395616899
 30
0.0
 11
1553.6255677520101
 21
1047.5313395616899
 31
0.0
 12
1553.2089010853431
 22
1050.0313395616899
 32
0.0
 13
1553.2089010853431
 23
1050.0313395616899
 33
0.0
  0
INSERT
  5
727
  8
0
  2
*U15
 10
0.0
 20
0.0
 30
0.0
  0
LINE
  5
728
  8
UMCL2
 10
1530.775129588752
 20
1000.0313395616899
 30
0.0
 11
1566.775129588752
 21
1000.0313395616899
 31
0.0
  0
LINE
  5
729
  8
UMCL2
 10
1533.775129588752
 20
1076.0313395616899
 30
0.0
 11
1566.775129588752
 21
1076.0313395616899
 31
0.0
  0
LINE
  5
72A
  8
UMCL2
 10
1565.775129588752
 20
1002.5313395616899
 30
0.0
 11
1565.775129588752
 21
1073.5313395616899
 31
0.0
  0
SOLID
  5
72B
  8
UMCL2
 10
1565.3584629220859
 20
1002.5313395616899
 30
0.0
 11
1566.1917962554189
 21
1002.5313395616899
 31
0.0
 12
1565.775129588752
 22
1000.0313395616899
 32
0.0
 13
1565.775129588752
 23
1000.0313395616899
 33
0.0
  0
SOLID
  5
72C
  8
UMCL2
 10
1565.3584629220859
 20
1073.5313395616899
 30
0.0
 11
1566.1917962554189
 21
1073.5313395616899
 31
0.0
 12
1565.775129588752
 22
1076.0313395616899
 32
0.0
 13
1565.775129588752
 23
1076.0313395616899
 33
0.0
  0
INSERT
  5
72D
  8
0
  2
*U16
 10
0.0
 20
0.0
 30
0.0
  0
LINE
  5
72E
  8
UMCL2
 10
1558.775129588752
 20
1103.0313395616911
 30
0.0
 11
1566.775129588752
 21
1103.0313395616911
 31
0.0
  0
LINE
  5
72F
  8
UMCL2
 10
1558.775129588752
 20
1114.0313395616911
 30
0.0
 11
1566.775129588752
 21
1114.0313395616911
 31
0.0
  0
LINE
  5
730
  8
UMCL2
 10
1565.775129588752
 20
1105.5313395616911
 30
0.0
 11
1565.775129588752
 21
1111.5313395616911
 31
0.0
  0
SOLID
  5
731
  8
UMCL2
 10
1565.3584629220859
 20
1105.5313395616911
 30
0.0
 11
1566.1917962554189
 21
1105.5313395616911
 31
0.0
 12
1565.775129588752
 22
1103.0313395616911
 32
0.0
 13
1565.775129588752
 23
1103.0313395616911
 33
0.0
  0
SOLID
  5
732
  8
UMCL2
 10
1565.3584629220859
 20
1111.5313395616911
 30
0.0
 11
1566.1917962554189
 21
1111.5313395616911
 31
0.0
 12
1565.775129588752
 22
1114.0313395616911
 32
0.0
 13
1565.775129588752
 23
1114.0313395616911
 33
0.0
  0
INSERT
  5
733
  8
0
  2
*U17
 10
0.0
 20
0.0
 30
0.0
  0
LINE
  5
734
  8
UMCL2
 10
1530.775129588752
 20
1000.0313395616899
 30
0.0
 11
1574.775129588752
 21
1000.0313395616899
 31
0.0
  0
LINE
  5
735
  8
UMCL2
 10
1558.775129588752
 20
1103.0313395616911
 30
0.0
 11
1574.775129588752
 21
1103.0313395616911
 31
0.0
  0
LINE
  5
736
  8
UMCL2
 10
1573.775129588752
 20
1002.5313395616899
 30
0.0
 11
1573.775129588752
 21
1100.5313395616911
 31
0.0
  0
SOLID
  5
737
  8
UMCL2
 10
1573.3584629220859
 20
1002.5313395616899
 30
0.0
 11
1574.1917962554189
 21
1002.5313395616899
 31
0.0
 12
1573.775129588752
 22
1000.0313395616899
 32
0.0
 13
1573.775129588752
 23
1000.0313395616899
 33
0.0
  0
SOLID
  5
738
  8
UMCL2
 10
1573.3584629220859
 20
1100.5313395616911
 30
0.0
 11
1574.1917962554189
 21
1100.5313395616911
 31
0.0
 12
1573.775129588752
 22
1103.0313395616911
 32
0.0
 13
1573.775129588752
 23
1103.0313395616911
 33
0.0
  0
INSERT
  5
739
  8
0
  2
*U18
 10
0.0
 20
0.0
 30
0.0
  0
LINE
  5
73A
  8
UMCL2
 10
1558.775129588752
 20
1103.0313395616911
 30
0.0
 11
1574.775129588752
 21
1103.0313395616911
 31
0.0
  0
LINE
  5
73B
  8
UMCL2
 10
1543.846926358477
 20
1122.0313395616911
 30
0.0
 11
1574.775129588752
 21
1122.0313395616911
 31
0.0
  0
LINE
  5
73C
  8
UMCL2
 10
1573.775129588752
 20
1105.5313395616911
 30
0.0
 11
1573.775129588752
 21
1119.5313395616911
 31
0.0
  0
SOLID
  5
73D
  8
UMCL2
 10
1573.3584629220859
 20
1105.5313395616911
 30
0.0
 11
1574.1917962554189
 21
1105.5313395616911
 31
0.0
 12
1573.775129588752
 22
1103.0313395616911
 32
0.0
 13
1573.775129588752
 23
1103.0313395616911
 33
0.0
  0
SOLID
  5
73E
  8
UMCL2
 10
1573.3584629220859
 20
1119.5313395616911
 30
0.0
 11
1574.1917962554189
 21
1119.5313395616911
 31
0.0
 12
1573.775129588752
 22
1122.0313395616911
 32
0.0
 13
1573.775129588752
 23
1122.0313395616911
 33
0.0
  0
INSERT
  5
73F
  8
0
  2
*U19
 10
0.0
 20
0.0
 30
0.0
  0
LINE
  5
740
  8
UMCL2
 10
1530.775129588752
 20
1000.0313395616899
 30
0.0
 11
1582.775129588752
 21
1000.0313395616899
 31
0.0
  0
LINE
  5
741
  8
UMCL2
 10
1543.846926358477
 20
1122.0313395616911
 30
0.0
 11
1582.775129588752
 21
1122.0313395616911
 31
0.0
  0
LINE
  5
742
  8
UMCL2
 10
1581.775129588752
 20
1002.5313395616899
 30
0.0
 11
1581.775129588752
 21
1119.5313395616911
 31
0.0
  0
SOLID
  5
743
  8
UMCL2
 10
1581.358462922085
 20
1002.5313395616899
 30
0.0
 11
1582.1917962554189
 21
1002.5313395616899
 31
0.0
 12
1581.775129588752
 22
1000.0313395616899
 32
0.0
 13
1581.775129588752
 23
1000.0313395616899
 33
0.0
  0
SOLID
  5
744
  8
UMCL2
 10
1581.358462922085
 20
1119.5313395616911
 30
0.0
 11
1582.1917962554189
 21
1119.5313395616911
 31
0.0
 12
1581.775129588752
 22
1122.0313395616911
 32
0.0
 13
1581.775129588752
 23
1122.0313395616911
 33
0.0
  0
INSERT
  5
745
  8
0
  2
*U20
 10
0.0
 20
0.0
 30
0.0
  0
TEXT
  5
746
  8
UMCL2
  6
CONTINUOUS
 10
1551.0452648731191
 20
1158.523139111456
 30
0.0
 40
3.0
  1
4-%%C6.8 Through-hole 
  7
ROMANSS
 72
     2
 11
1603.759550587404
 21
1160.023139111456
 31
0.0
 73
     2
  0
LINE
  5
747
  8
UMCL2
  6
CONTINUOUS
 10
1604.373223273913
 20
1156.8107168483859
 30
0.0
 11
1544.786767836692
 21
1156.8107168483859
 31
0.0
  0
TEXT
  5
748
  8
UMCL2
  6
CONTINUOUS
 10
1544.6091087111911
 20
1152.359832622695
 30
0.0
 40
3.0
  1
Counter bore %%C10.5x6.5dp
  7
ROMANSS
 72
     2
 11
1603.6091087111911
 21
1153.859832622695
 31
0.0
 73
     2
  0
LINE
  5
749
  8
UMCL2
 10
1544.786767836692
 20
1156.8107168483859
 30
0.0
 11
1527.994035271799
 21
1169.247860400008
 31
0.0
  0
SOLID
  5
74A
  8
UMCL2
  6
CONTINUOUS
 10
1530.6884371981439
 20
1167.8371165326421
 30
0.0
 11
1530.085255299196
 21
1167.039512873685
 31
0.0
 12
1527.994035271799
 22
1169.247860400008
 32
0.0
 13
1527.994035271799
 23
1169.247860400008
 33
0.0
  0
LINE
  5
74B
  8
UMCL2
  6
CONTINUOUS
 10
1455.3677303744689
 20
1154.710240107873
 30
0.0
 11
1481.4767472010069
 21
1154.710240107873
 31
0.0
  0
TEXT
  5
74C
  8
UMCL2
  6
CONTINUOUS
 10
1455.934017370121
 20
1156.210240107873
 30
0.0
 40
3.0
  1
2x2-PT1/8
  7
ROMANSS
 72
     2
 11
1480.7911602272641
 21
1157.7102401078721
 31
0.0
 73
     2
  0
LINE
  5
74D
  8
UMCL2
 10
1481.4767472010069
 20
1154.710240107873
 30
0.0
 11
1493.775129588752
 21
1165.87249395253
 31
0.0
  0
SOLID
  5
74E
  8
UMCL2
  6
CONTINUOUS
 10
1491.198942856274
 20
1164.255526997473
 30
0.0
 11
1491.8618436222521
 21
1163.5068197285991
 31
0.0
 12
1493.776515045887
 22
1165.869875660971
 32
0.0
 13
1493.776515045887
 23
1165.869875660971
 33
0.0
  0
TEXT
  5
74F
  8
UMCL2
  6
CONTINUOUS
 10
1589.8081184223629
 20
1011.151703370758
 30
0.0
 40
3.0
  1
A
  7
ROMANS
  0
CIRCLE
  5
750
  8
UMCL2
  6
CONTINUOUS
 10
1591.240750768513
 20
1012.398803625101
 30
0.0
 40
2.5
  0
TEXT
  5
751
  8
UMCL2
  6
CONTINUOUS
 10
1589.8081184223629
 20
1004.486262465176
 30
0.0
 40
3.0
  1
B
  7
ROMANS
  0
CIRCLE
  5
752
  8
UMCL2
  6
CONTINUOUS
 10
1591.240750768513
 20
1005.7333627195191
 30
0.0
 40
2.5
  0
TEXT
  5
753
  8
UMCL2
  6
CONTINUOUS
 10
1596.774004376462
 20
1011.782165348595
 30
0.0
 40
3.0
  1
Clamping port
  7
ROMANSS
 72
     2
 11
1628.3454329478909
 21
1013.282165348595
 31
0.0
 73
     2
  0
TEXT
  5
754
  8
UMCL2
  6
CONTINUOUS
 10
1596.6313142455081
 20
1004.2168609737359
 30
0.0
 40
3.0
  1
Unclamping port
  7
ROMANSS
 72
     2
 11
1633.6313142455081
 21
1005.7168609737359
 31
0.0
 73
     2
  0
LINE
  5
755
  8
UMCL2
 10
1586.8685596305199
 20
1017.10247537731
 30
0.0
 11
1635.8740616922489
 21
1017.10247537731
 31
0.0
  0
LINE
  5
756
  8
UMCL2
 10
1635.8740616922489
 20
1017.10247537731
 30
0.0
 11
1635.8740616922489
 21
1001.301591191169
 31
0.0
  0
LINE
  5
757
  8
UMCL2
 10
1635.8740616922489
 20
1001.301591191169
 30
0.0
 11
1586.8685596305199
 21
1001.301591191169
 31
0.0
  0
LINE
  5
758
  8
UMCL2
 10
1586.8685596305199
 20
1001.301591191169
 30
0.0
 11
1586.8685596305199
 21
1017.10247537731
 31
0.0
  0
LINE
  5
759
  8
UMCL2
 10
1503.9270306192709
 20
1113.4921333043269
 30
0.0
 11
1501.623228558233
 21
1111.5705458190539
 31
0.0
  0
INSERT
  5
75A
  8
0
  2
*U21
 10
0.0
 20
0.0
 30
0.0
  0
SOLID
  5
75B
  8
UMCL2
 10
1503.6601435041241
 20
1113.8121057701419
 30
0.0
 11
1504.1939177344191
 21
1113.172160838513
 31
0.0
 12
1505.8468654141579
 22
1115.093455995212
 32
0.0
 13
1505.8468654141579
 23
1115.093455995212
 33
0.0
  0
SOLID
  5
75C
  8
UMCL2
 10
1501.356341443086
 20
1111.8905182848689
 30
0.0
 11
1501.8901156733809
 21
1111.25057335324
 31
0.0
 12
1499.703393763346
 22
1109.9692231281699
 32
0.0
 13
1499.703393763346
 23
1109.9692231281699
 33
0.0
  0
LINE
  5
75D
  8
UMCL2
 10
1505.8468654141579
 20
1115.0934559952109
 30
0.0
 11
1489.3288004659039
 21
1102.1367695580291
 31
0.0
  0
LINE
  5
75E
  8
UMCL1
  6
HIDDEN
 62
     6
 10
1511.275130038885
 20
1122.031339316612
 30
0.0
 11
1508.275130239816
 21
1125.0313395616911
 31
0.0
  0
LINE
  5
75F
  8
UMCL1
  6
HIDDEN
 62
     6
 10
1497.275129388486
 20
1125.0313395616911
 30
0.0
 11
1494.2751291388861
 21
1122.03133931209
 31
0.0
  0
LINE
  5
760
  8
UMCL1
  6
HIDDEN
 62
     6
 10
1497.275129388486
 20
1125.0313395616911
 30
0.0
 11
1508.275130239816
 21
1125.0313395616911
 31
0.0
  0
LINE
  5
761
  8
UMCL2
 10
1496.275129388486
 20
1125.0313395616911
 30
0.0
 11
1484.508904548243
 21
1125.0313395616911
 31
0.0
  0
LINE
  5
762
  8
UMCL2
 10
1492.775129588752
 20
1122.0313395616911
 30
0.0
 11
1484.508904548243
 21
1122.0313395616911
 31
0.0
  0
LINE
  5
763
  8
UMCL2
 10
1485.508904548243
 20
1127.5313395616911
 30
0.0
 11
1485.508904548243
 21
1130.0313395616911
 31
0.0
  0
LINE
  5
764
  8
UMCL2
 10
1485.508904548243
 20
1119.5313395616911
 30
0.0
 11
1485.508904548243
 21
1117.0313395616911
 31
0.0
  0
TEXT
  5
765
  8
UMCL2
 10
1483.008904548243
 20
1122.1027681331191
 30
0.0
 40
3.0
  1
3
 50
90.0
  0
LINE
  5
766
  8
UMCL2
 10
1485.508904548243
 20
1125.0313395616911
 30
0.0
 11
1485.508904548243
 21
1122.0313395616911
 31
0.0
  0
SOLID
  5
767
  8
UMCL2
 10
1485.092237881576
 20
1127.5313395616911
 30
0.0
 11
1485.92557121491
 21
1127.5313395616911
 31
0.0
 12
1485.508904548243
 22
1125.0313395616911
 32
0.0
 13
1485.508904548243
 23
1125.0313395616911
 33
0.0
  0
SOLID
  5
768
  8
UMCL2
 10
1485.092237881576
 20
1119.5313395616911
 30
0.0
 11
1485.92557121491
 21
1119.5313395616911
 31
0.0
 12
1485.508904548243
 22
1122.0313395616911
 32
0.0
 13
1485.508904548243
 23
1122.0313395616911
 33
0.0
  0
TEXT
  5
769
  8
UMCL2
 10
1476.6543692969681
 20
1106.674196704548
 30
0.0
 40
3.0
  1
Raise clearnce
 50
90.0
  0
LINE
  5
76A
  8
UMCL2
 10
1477.1830632661699
 20
1106.8156049256429
 30
0.0
 11
1477.1830632661699
 21
1139.9469596322219
 31
0.0
  0
LINE
  5
76B
  8
UMCL2
 10
1478.1830632661699
 20
1106.8156049256429
 30
0.0
 11
1478.1830632661699
 21
1139.9469596322219
 31
0.0
  0
LINE
  5
76C
  8
UMCL2
 10
1492.775129588752
 20
1197.8724939525309
 30
0.0
 11
1469.1626733312839
 21
1197.8724939525309
 31
0.0
  0
LINE
  5
76D
  8
UMCL2
 10
1492.7751295887531
 20
1188.8724939525309
 30
0.0
 11
1469.1626733312839
 21
1188.8724939525309
 31
0.0
  0
LINE
  5
76E
  8
UMCL2
 10
1470.1626733312839
 20
1195.3724939525309
 30
0.0
 11
1470.1626733312839
 21
1191.3724939525309
 31
0.0
  0
SOLID
  5
76F
  8
UMCL2
 10
1469.746006664617
 20
1195.3724939525309
 30
0.0
 11
1470.57933999795
 21
1195.3724939525309
 31
0.0
 12
1470.1626733312839
 22
1197.8724939525309
 32
0.0
 13
1470.1626733312839
 23
1197.8724939525309
 33
0.0
  0
SOLID
  5
770
  8
UMCL2
 10
1469.746006664617
 20
1191.3724939525309
 30
0.0
 11
1470.57933999795
 21
1191.3724939525309
 31
0.0
 12
1470.1626733312839
 22
1188.8724939525309
 32
0.0
 13
1470.1626733312839
 23
1188.8724939525309
 33
0.0
  0
INSERT
  5
771
  8
0
  2
*U22
 10
0.0
 20
0.0
 30
0.0
  0
LINE
  5
772
  8
UMCL1
  6
CONTINUOUS
 10
1299.5108185222971
 20
1205.3724939525309
 30
0.0
 11
1315.5108185222971
 21
1205.3724939525309
 31
0.0
  0
LINE
  5
773
  8
UMCL1
  6
CONTINUOUS
 10
1325.582615292021
 20
1201.3724939525309
 30
0.0
 11
1325.582615292021
 21
1182.3724939525309
 31
0.0
  0
LINE
  5
774
  8
UMCL1
  6
CONTINUOUS
 10
1325.582615292021
 20
1182.3724939525309
 30
0.0
 11
1340.5108185222971
 21
1186.3724939525309
 31
0.0
  0
LINE
  5
775
  8
UMCL1
  6
CONTINUOUS
 10
1340.5108185222971
 20
1197.3724939525309
 30
0.0
 11
1325.582615292021
 21
1201.3724939525309
 31
0.0
  0
LINE
  5
776
  8
UMCL1
  6
CONTINUOUS
 10
1340.5108185222971
 20
1186.3724939525309
 30
0.0
 11
1340.5108185222971
 21
1197.3724939525309
 31
0.0
  0
LINE
  5
777
  8
UMCL1
  6
HIDDEN
 62
     3
 10
1281.5108185222971
 20
1201.3724939525309
 30
0.0
 11
1281.5108185222971
 21
1182.3724939525309
 31
0.0
  0
LINE
  5
778
  8
UMCL1
  6
HIDDEN
 62
     3
 10
1289.5108185222971
 20
1201.3724939525309
 30
0.0
 11
1289.5108185222971
 21
1182.3724939525309
 31
0.0
  0
LINE
  5
779
  8
UMCL1
  6
CONTINUOUS
 10
1281.7108185222969
 20
1201.37249395253
 30
0.0
 11
1281.7108185222969
 21
1202.272493952531
 31
0.0
  0
LINE
  5
77A
  8
UMCL1
  6
CONTINUOUS
 10
1289.310818522297
 20
1201.3724939525309
 30
0.0
 11
1289.310818522297
 21
1202.2724939525301
 31
0.0
  0
LINE
  5
77B
  8
UMCL1
  6
CONTINUOUS
 10
1280.310818522297
 20
1201.37249395253
 30
0.0
 11
1280.310818522297
 21
1202.272493952531
 31
0.0
  0
LINE
  5
77C
  8
UMCL1
  6
CONTINUOUS
 10
1290.7108185222969
 20
1201.3724939525309
 30
0.0
 11
1290.7108185222969
 21
1202.2724939525301
 31
0.0
  0
LINE
  5
77D
  8
UMCL1
  6
CONTINUOUS
 10
1280.310818522297
 20
1202.272493952531
 30
0.0
 11
1290.7108185222969
 21
1202.2724939525301
 31
0.0
  0
LINE
  5
77E
  8
UMCL1
  6
CONTINUOUS
 10
1303.7108185222969
 20
1205.3724939525309
 30
0.0
 11
1303.7108185222969
 21
1206.272493952531
 31
0.0
  0
LINE
  5
77F
  8
UMCL1
  6
CONTINUOUS
 10
1311.310818522297
 20
1205.3724939525309
 30
0.0
 11
1311.310818522297
 21
1206.272493952531
 31
0.0
  0
LINE
  5
780
  8
UMCL1
  6
CONTINUOUS
 10
1302.310818522297
 20
1205.3724939525309
 30
0.0
 11
1302.310818522297
 21
1206.272493952531
 31
0.0
  0
LINE
  5
781
  8
UMCL1
  6
CONTINUOUS
 10
1312.7108185222969
 20
1205.3724939525309
 30
0.0
 11
1312.7108185222969
 21
1206.272493952531
 31
0.0
  0
LINE
  5
782
  8
UMCL1
  6
CONTINUOUS
 10
1302.310818522297
 20
1206.272493952531
 30
0.0
 11
1312.7108185222969
 21
1206.272493952531
 31
0.0
  0
LINE
  5
783
  8
UMCL1
  6
CONTINUOUS
 10
1281.7108185222969
 20
1182.3724939525309
 30
0.0
 11
1281.7108185222969
 21
1181.4724939525311
 31
0.0
  0
LINE
  5
784
  8
UMCL1
  6
CONTINUOUS
 10
1289.310818522297
 20
1182.3724939525309
 30
0.0
 11
1289.310818522297
 21
1181.4724939525311
 31
0.0
  0
LINE
  5
785
  8
UMCL1
  6
CONTINUOUS
 10
1280.310818522297
 20
1182.3724939525309
 30
0.0
 11
1280.310818522297
 21
1181.4724939525311
 31
0.0
  0
LINE
  5
786
  8
UMCL1
  6
CONTINUOUS
 10
1290.7108185222969
 20
1182.3724939525309
 30
0.0
 11
1290.7108185222969
 21
1181.4724939525311
 31
0.0
  0
LINE
  5
787
  8
UMCL1
  6
CONTINUOUS
 10
1280.310818522297
 20
1181.4724939525311
 30
0.0
 11
1290.7108185222969
 21
1181.4724939525311
 31
0.0
  0
LINE
  5
788
  8
UMCL1
  6
CONTINUOUS
 10
1303.9108185222969
 20
1207.4724939525311
 30
0.0
 11
1311.110818522297
 21
1207.4724939525311
 31
0.0
  0
LINE
  5
789
  8
UMCL1
  6
CONTINUOUS
 10
1303.5108185222971
 20
1207.072493952531
 30
0.0
 11
1303.5108185222971
 21
1206.272493952531
 31
0.0
  0
LINE
  5
78A
  8
UMCL1
  6
CONTINUOUS
 10
1311.5108185222971
 20
1207.072493952531
 30
0.0
 11
1311.5108185222971
 21
1206.272493952531
 31
0.0
  0
LINE
  5
78B
  8
UMCL1
  6
CONTINUOUS
 10
1303.5108185222971
 20
1207.072493952531
 30
0.0
 11
1311.5108185222971
 21
1207.072493952531
 31
0.0
  0
LINE
  5
78C
  8
UMCL1
  6
CONTINUOUS
 10
1311.5108185222971
 20
1207.072493952531
 30
0.0
 11
1311.110818522297
 21
1207.4724939525311
 31
0.0
  0
LINE
  5
78D
  8
UMCL1
  6
CONTINUOUS
 10
1303.5108185222971
 20
1207.072493952531
 30
0.0
 11
1303.9108185222969
 21
1207.4724939525311
 31
0.0
  0
LINE
  5
78E
  8
UMCL1
  6
CONTINUOUS
 10
1281.9108185222969
 20
1203.4724939525311
 30
0.0
 11
1289.110818522297
 21
1203.4724939525311
 31
0.0
  0
LINE
  5
78F
  8
UMCL1
  6
CONTINUOUS
 10
1281.5108185222971
 20
1203.072493952531
 30
0.0
 11
1281.5108185222971
 21
1202.2724939525301
 31
0.0
  0
LINE
  5
790
  8
UMCL1
  6
CONTINUOUS
 10
1289.5108185222971
 20
1203.072493952531
 30
0.0
 11
1289.5108185222971
 21
1202.2724939525301
 31
0.0
  0
LINE
  5
791
  8
UMCL1
  6
CONTINUOUS
 10
1281.5108185222971
 20
1203.072493952531
 30
0.0
 11
1289.5108185222971
 21
1203.072493952531
 31
0.0
  0
LINE
  5
792
  8
UMCL1
  6
CONTINUOUS
 10
1289.5108185222971
 20
1203.072493952531
 30
0.0
 11
1289.110818522297
 21
1203.4724939525311
 31
0.0
  0
LINE
  5
793
  8
UMCL1
  6
CONTINUOUS
 10
1281.5108185222971
 20
1203.072493952531
 30
0.0
 11
1281.9108185222969
 21
1203.4724939525311
 31
0.0
  0
LINE
  5
794
  8
UMCL1
  6
CONTINUOUS
 10
1281.9108185222969
 20
1180.272493952531
 30
0.0
 11
1289.110818522297
 21
1180.272493952531
 31
0.0
  0
LINE
  5
795
  8
UMCL1
  6
CONTINUOUS
 10
1281.5108185222971
 20
1180.67249395253
 30
0.0
 11
1281.5108185222971
 21
1181.4724939525311
 31
0.0
  0
LINE
  5
796
  8
UMCL1
  6
CONTINUOUS
 10
1289.5108185222971
 20
1180.6724939525311
 30
0.0
 11
1289.5108185222971
 21
1181.4724939525311
 31
0.0
  0
LINE
  5
797
  8
UMCL1
  6
CONTINUOUS
 10
1281.5108185222971
 20
1180.67249395253
 30
0.0
 11
1289.5108185222971
 21
1180.6724939525311
 31
0.0
  0
LINE
  5
798
  8
UMCL1
  6
CONTINUOUS
 10
1289.5108185222971
 20
1180.6724939525311
 30
0.0
 11
1289.110818522297
 21
1180.272493952531
 31
0.0
  0
LINE
  5
799
  8
UMCL1
  6
CONTINUOUS
 10
1281.5108185222971
 20
1180.67249395253
 30
0.0
 11
1281.9108185222969
 21
1180.272493952531
 31
0.0
  0
LINE
  5
79A
  8
UMCL1
  6
HIDDEN
 62
     3
 10
1315.5108185222971
 20
1201.3724939525309
 30
0.0
 11
1315.5108185222971
 21
1182.3724939525309
 31
0.0
  0
CIRCLE
  5
79B
  8
UMCL1
  6
CONTINUOUS
 10
1306.5108185222971
 20
1212.8724939525309
 30
0.0
 40
3.3999999999999999
  0
CIRCLE
  5
79C
  8
UMCL1
  6
CONTINUOUS
 10
1306.5108185222971
 20
1212.8724939525309
 30
0.0
 40
5.25
  0
LINE
  5
79D
  8
UMCL1
  6
CONTINUOUS
 10
1299.5108185222971
 20
1201.3724939525309
 30
0.0
 11
1299.5108185222971
 21
1205.3724939525309
 31
0.0
  0
LINE
  5
79E
  8
UMCL1
  6
CONTINUOUS
 10
1315.5108185222971
 20
1205.3724939525309
 30
0.0
 11
1315.5108185222971
 21
1201.3724939525309
 31
0.0
  0
CIRCLE
  5
79F
  8
UMCL1
  6
CONTINUOUS
 10
1306.5108185222971
 20
1170.8724939525309
 30
0.0
 40
3.3999999999999999
  0
CIRCLE
  5
7A0
  8
UMCL1
  6
CONTINUOUS
 10
1306.5108185222971
 20
1170.8724939525309
 30
0.0
 40
5.25
  0
CIRCLE
  5
7A1
  8
UMCL1
  6
CONTINUOUS
 10
1264.5108185222971
 20
1170.8724939525309
 30
0.0
 40
3.3999999999999999
  0
CIRCLE
  5
7A2
  8
UMCL1
  6
CONTINUOUS
 10
1264.5108185222971
 20
1170.8724939525309
 30
0.0
 40
5.25
  0
CIRCLE
  5
7A3
  8
UMCL1
  6
CONTINUOUS
 10
1264.5108185222971
 20
1212.8724939525309
 30
0.0
 40
3.3999999999999999
  0
CIRCLE
  5
7A4
  8
UMCL1
  6
CONTINUOUS
 10
1264.5108185222971
 20
1212.8724939525309
 30
0.0
 40
5.25
  0
LINE
  5
7A5
  8
UMCL1
  6
CONTINUOUS
 10
1299.5108185222971
 20
1178.3724939525309
 30
0.0
 11
1315.5108185222971
 21
1178.37249395253
 31
0.0
  0
LINE
  5
7A6
  8
UMCL1
  6
CONTINUOUS
 10
1303.7108185222969
 20
1178.3724939525309
 30
0.0
 11
1303.7108185222969
 21
1177.4724939525311
 31
0.0
  0
LINE
  5
7A7
  8
UMCL1
  6
CONTINUOUS
 10
1311.310818522297
 20
1178.3724939525309
 30
0.0
 11
1311.310818522297
 21
1177.4724939525311
 31
0.0
  0
LINE
  5
7A8
  8
UMCL1
  6
CONTINUOUS
 10
1302.310818522297
 20
1178.3724939525309
 30
0.0
 11
1302.310818522297
 21
1177.4724939525311
 31
0.0
  0
LINE
  5
7A9
  8
UMCL1
  6
CONTINUOUS
 10
1312.7108185222969
 20
1178.3724939525309
 30
0.0
 11
1312.7108185222969
 21
1177.4724939525311
 31
0.0
  0
LINE
  5
7AA
  8
UMCL1
  6
CONTINUOUS
 10
1302.310818522297
 20
1177.4724939525311
 30
0.0
 11
1312.7108185222969
 21
1177.4724939525311
 31
0.0
  0
LINE
  5
7AB
  8
UMCL1
  6
CONTINUOUS
 10
1303.9108185222969
 20
1176.2724939525301
 30
0.0
 11
1311.110818522297
 21
1176.272493952531
 31
0.0
  0
LINE
  5
7AC
  8
UMCL1
  6
CONTINUOUS
 10
1303.5108185222971
 20
1176.6724939525311
 30
0.0
 11
1303.5108185222971
 21
1177.4724939525311
 31
0.0
  0
LINE
  5
7AD
  8
UMCL1
  6
CONTINUOUS
 10
1311.5108185222971
 20
1176.6724939525311
 30
0.0
 11
1311.5108185222971
 21
1177.4724939525311
 31
0.0
  0
LINE
  5
7AE
  8
UMCL1
  6
CONTINUOUS
 10
1303.5108185222971
 20
1176.6724939525311
 30
0.0
 11
1311.5108185222971
 21
1176.6724939525311
 31
0.0
  0
LINE
  5
7AF
  8
UMCL1
  6
CONTINUOUS
 10
1311.5108185222971
 20
1176.6724939525311
 30
0.0
 11
1311.110818522297
 21
1176.272493952531
 31
0.0
  0
LINE
  5
7B0
  8
UMCL1
  6
CONTINUOUS
 10
1303.5108185222971
 20
1176.6724939525311
 30
0.0
 11
1303.9108185222969
 21
1176.2724939525301
 31
0.0
  0
LINE
  5
7B1
  8
UMCL1
  6
CONTINUOUS
 10
1299.5108185222971
 20
1182.3724939525309
 30
0.0
 11
1299.5108185222971
 21
1178.3724939525309
 31
0.0
  0
LINE
  5
7B2
  8
UMCL1
  6
CONTINUOUS
 10
1315.5108185222971
 20
1178.37249395253
 30
0.0
 11
1315.5108185222971
 21
1182.3724939525309
 31
0.0
  0
LINE
  5
7B3
  8
UMCL1
  6
HIDDEN
 62
     3
 10
1303.5108185222971
 20
1205.3724939525309
 30
0.0
 11
1303.5108185222971
 21
1178.3724939525309
 31
0.0
  0
LINE
  5
7B4
  8
UMCL1
  6
HIDDEN
 62
     3
 10
1311.5108185222971
 20
1205.3724939525309
 30
0.0
 11
1311.5108185222971
 21
1178.3724939525309
 31
0.0
  0
ARC
  5
7B5
  8
UMCL1
  6
CONTINUOUS
 10
1285.5108185222971
 20
1191.8724939525309
 30
0.0
 40
9.0
 50
150.0000000000027
 51
209.9999999999973
  0
ARC
  5
7B6
  8
UMCL1
  6
CONTINUOUS
 10
1285.5108185222971
 20
1191.8724939525309
 30
0.0
 40
8.5
 50
148.034281249206
 51
211.965718750794
  0
ARC
  5
7B7
  8
UMCL1
  6
CONTINUOUS
 10
1285.5108185222971
 20
1191.8724939525309
 30
0.0
 40
8.5
 50
328.034281249206
 51
31.965718750794
  0
ARC
  5
7B8
  8
UMCL1
  6
CONTINUOUS
 10
1285.5108185222971
 20
1191.8724939525309
 30
0.0
 40
9.0
 50
330.00000000000267
 51
29.999999999997289
  0
CIRCLE
  5
7B9
  8
UMCL1
  6
CONTINUOUS
 10
1307.5108185222971
 20
1111.0313395616911
 30
0.0
 40
4.0
  0
CIRCLE
  5
7BA
  8
UMCL1
  6
CONTINUOUS
 10
1285.5108185222971
 20
1111.0313395616911
 30
0.0
 40
4.0000001999999988
  0
CIRCLE
  5
7BB
  8
UMCL1
  6
CONTINUOUS
 10
1307.5108185222971
 20
1087.0313395616899
 30
0.0
 40
4.0
  0
LINE
  5
7BC
  8
UMCL1
  6
HIDDEN
 62
     3
 10
1298.0108185222971
 20
1120.5313395616911
 30
0.0
 11
1298.0108185222971
 21
1101.5313395616911
 31
0.0
  0
LINE
  5
7BD
  8
UMCL1
  6
CONTINUOUS
 10
1315.5108185222971
 20
1087.0313415694179
 30
0.0
 11
1315.5108185222971
 21
1111.0313395616911
 31
0.0
  0
ARC
  5
7BE
  8
UMCL1
  6
CONTINUOUS
 10
1307.5108185222971
 20
1111.0313395616911
 30
0.0
 40
8.0
 50
0.0
 51
180.0
  0
LINE
  5
7BF
  8
UMCL1
  6
CONTINUOUS
 10
1299.5108185222971
 20
1111.0313395616911
 30
0.0
 11
1299.5108185222959
 21
1087.0313395616899
 31
0.0
  0
ARC
  5
7C0
  8
UMCL1
  6
HIDDEN
 62
     3
 10
1307.5108185222971
 20
1087.0313395616899
 30
0.0
 40
8.0
 50
180.0
 51
0.000014754894633
  0
LINE
  5
7C1
  8
UMCL1
  6
CONTINUOUS
 10
1299.5108185222971
 20
1074.5313395616899
 30
0.0
 11
1315.5108185222971
 21
1074.5313395616899
 31
0.0
  0
LINE
  5
7C2
  8
UMCL1
  6
CONTINUOUS
 10
1299.5108185222971
 20
1091.5313395616899
 30
0.0
 11
1303.0108185222971
 21
1095.0313395616899
 31
0.0
  0
LINE
  5
7C3
  8
UMCL1
  6
CONTINUOUS
 10
1303.0108185222971
 20
1095.0313395616899
 30
0.0
 11
1312.0108185222971
 21
1095.0313395616899
 31
0.0
  0
LINE
  5
7C4
  8
UMCL1
  6
CONTINUOUS
 10
1315.5108185222971
 20
1091.5313395616899
 30
0.0
 11
1312.0108185222971
 21
1095.0313395616899
 31
0.0
  0
LINE
  5
7C5
  8
UMCL1
  6
CONTINUOUS
 10
1299.5108185222971
 20
1091.5313395616899
 30
0.0
 11
1299.5108185222971
 21
1074.5313395616899
 31
0.0
  0
LINE
  5
7C6
  8
UMCL1
  6
CONTINUOUS
 10
1315.5108185222971
 20
1091.5313395616899
 30
0.0
 11
1315.5108185222971
 21
1074.5313395616899
 31
0.0
  0
POLYLINE
  5
7C7
  8
UMCL1
  6
CONTINUOUS
 66
     1
 10
0.0
 20
0.0
 30
0.0
  0
VERTEX
  5
A8A
  8
UMCL1
  6
CONTINUOUS
 10
1325.582615292022
 20
1120.5313395616911
 30
0.0
  0
VERTEX
  5
A8B
  8
UMCL1
  6
CONTINUOUS
 10
1325.582615292022
 20
1101.5313395616911
 30
0.0
  0
SEQEND
  5
A8C
  8
UMCL1
  6
CONTINUOUS
  0
LINE
  5
7C8
  8
UMCL1
  6
CONTINUOUS
 10
1340.5108185222971
 20
1101.5313395616911
 30
0.0
 11
1340.5108185222971
 21
1112.5313395616911
 31
0.0
  0
LINE
  5
7C9
  8
UMCL1
  6
CONTINUOUS
 10
1340.5108185222971
 20
1112.5313395616911
 30
0.0
 11
1325.582615292022
 21
1120.5313395616911
 31
0.0
  0
LINE
  5
7CA
  8
UMCL1
  6
CONTINUOUS
 10
1276.5108185222971
 20
1120.5313395616911
 30
0.0
 11
1276.5108185222971
 21
1106.5313395616911
 31
0.0
  0
LINE
  5
7CB
  8
UMCL1
  6
CONTINUOUS
 10
1276.5108185222971
 20
1106.5313395616911
 30
0.0
 11
1281.5108185222971
 21
1101.5313395616911
 31
0.0
  0
LINE
  5
7CC
  8
UMCL1
  6
CONTINUOUS
 10
1277.0108180771419
 20
1099.5313389866899
 30
0.0
 11
1294.0108194044151
 21
1099.5313389866899
 31
0.0
  0
LINE
  5
7CD
  8
UMCL1
  6
CONTINUOUS
 10
1276.5108186840289
 20
1098.665314634067
 30
0.0
 11
1294.51081868403
 21
1098.6653148306509
 31
0.0
  0
LINE
  5
7CE
  8
UMCL1
  6
CONTINUOUS
 10
1294.51081868403
 20
1098.6653148306509
 30
0.0
 11
1294.0108194044151
 21
1099.5313389866899
 31
0.0
  0
LINE
  5
7CF
  8
UMCL1
  6
CONTINUOUS
 10
1276.5108186840289
 20
1098.665314634067
 30
0.0
 11
1277.0108180772179
 21
1099.531338986824
 31
0.0
  0
LINE
  5
7D0
  8
UMCL1
  6
HIDDEN
 62
     3
 10
1277.0108180724301
 20
1117.53133931209
 30
0.0
 11
1278.3008180770851
 21
1117.5313393124329
 31
0.0
  0
LINE
  5
7D1
  8
UMCL1
  6
HIDDEN
 62
     3
 10
1292.7208189770849
 20
1117.5313393162689
 30
0.0
 11
1294.0108189724299
 21
1117.531339316612
 31
0.0
  0
LINE
  5
7D2
  8
UMCL1
  6
HIDDEN
 62
     3
 10
1294.0108189724299
 20
1117.531339316612
 30
0.0
 11
1291.0108191733609
 21
1120.5313395616911
 31
0.0
  0
LINE
  5
7D3
  8
UMCL1
  6
HIDDEN
 62
     3
 10
1280.0108183220309
 20
1120.5313395616911
 30
0.0
 11
1277.0108180724301
 21
1117.53133931209
 31
0.0
  0
LINE
  5
7D4
  8
UMCL1
  6
HIDDEN
 62
     2
 10
1280.0108183220309
 20
1120.5313395616911
 30
0.0
 11
1291.0108191733609
 21
1120.5313395616911
 31
0.0
  0
ARC
  5
7D5
  8
UMCL1
  6
CONTINUOUS
 10
1285.5108185222971
 20
1191.8724939525309
 30
0.0
 40
5.5
 50
125.09680122758159
 51
234.90319877241839
  0
ARC
  5
7D6
  8
UMCL1
  6
CONTINUOUS
 10
1285.5108185222971
 20
1191.8724939525309
 30
0.0
 40
5.5
 50
305.09680122758158
 51
54.903198772418392
  0
LINE
  5
7D7
  8
UMCL1
  6
CONTINUOUS
 10
1276.5108185222971
 20
1201.3724939525309
 30
0.0
 11
1276.5108185222971
 21
1196.3724939525309
 31
0.0
  0
LINE
  5
7D8
  8
UMCL1
  6
CONTINUOUS
 10
1276.5108185222971
 20
1187.3724939525309
 30
0.0
 11
1276.5108185222971
 21
1182.3724939525309
 31
0.0
  0
LINE
  5
7D9
  8
UMCL1
  6
CONTINUOUS
 10
1298.0108185222971
 20
1196.3724939525309
 30
0.0
 11
1298.0108185222971
 21
1187.3724939525309
 31
0.0
  0
LINE
  5
7DA
  8
UMCL1
  6
CONTINUOUS
 10
1276.5108185222971
 20
1196.3724939525309
 30
0.0
 11
1298.0108185222971
 21
1196.3724939525309
 31
0.0
  0
LINE
  5
7DB
  8
UMCL1
  6
CONTINUOUS
 10
1276.5108185222971
 20
1187.3724939525309
 30
0.0
 11
1298.0108185222971
 21
1187.3724939525309
 31
0.0
  0
LINE
  5
7DC
  8
UMCL1
  6
CONTINUOUS
 10
1325.582615292022
 20
1120.5313395616911
 30
0.0
 11
1276.5108185222971
 21
1120.5313395616911
 31
0.0
  0
LINE
  5
7DD
  8
UMCL1
  6
CONTINUOUS
 10
1281.5108185222971
 20
1101.5313395616911
 30
0.0
 11
1299.5108185222971
 21
1101.5313395616911
 31
0.0
  0
LINE
  5
7DE
  8
UMCL1
  6
CONTINUOUS
 10
1315.5108185222971
 20
1101.5313395616911
 30
0.0
 11
1340.5108185222971
 21
1101.5313395616911
 31
0.0
  0
LINE
  5
7DF
  8
UMCL1
  6
HIDDEN
 62
     3
 10
1299.5108185222971
 20
1101.5313395616911
 30
0.0
 11
1315.5108185222971
 21
1101.5313395616911
 31
0.0
  0
LINE
  5
7E0
  8
UMCL1
  6
HIDDEN
 62
     3
 10
1294.0108189772179
 20
1101.5313395616911
 30
0.0
 11
1294.0108189772179
 21
1117.531339311824
 31
0.0
  0
LINE
  5
7E1
  8
UMCL1
  6
HIDDEN
 62
     3
 10
1292.720818977218
 20
1101.5313395616911
 30
0.0
 11
1292.7208189772191
 21
1118.821339503608
 31
0.0
  0
LINE
  5
7E2
  8
UMCL1
  6
HIDDEN
 62
     3
 10
1277.0108180772179
 20
1106.0313400067689
 30
0.0
 11
1277.0108180772179
 21
1117.53133931209
 31
0.0
  0
LINE
  5
7E3
  8
UMCL1
  6
HIDDEN
 62
     3
 10
1278.3008180772181
 20
1104.741340006769
 30
0.0
 11
1278.3008180772181
 21
1118.821339316878
 31
0.0
  0
LINE
  5
7E4
  8
UMCL1
  6
CONTINUOUS
 10
1277.0108180772179
 20
1106.0313400067689
 30
0.0
 11
1277.0108180771419
 21
1099.5313389866899
 31
0.0
  0
LINE
  5
7E5
  8
UMCL1
  6
CONTINUOUS
 10
1278.3008180772181
 20
1104.741340006769
 30
0.0
 11
1278.3008180772181
 21
1099.5313389866899
 31
0.0
  0
LINE
  5
7E6
  8
UMCL1
  6
CONTINUOUS
 10
1292.720818977218
 20
1101.5313395616911
 30
0.0
 11
1292.720818977218
 21
1099.5313389866899
 31
0.0
  0
LINE
  5
7E7
  8
UMCL1
  6
CONTINUOUS
 10
1294.0108189772179
 20
1101.5313395616911
 30
0.0
 11
1294.0108194044151
 21
1099.5313389866899
 31
0.0
  0
LINE
  5
7E8
  8
UMCL1
  6
CONTINUOUS
 10
1276.5108186840289
 20
1098.665314634067
 30
0.0
 11
1276.5108186840289
 21
1074.5313395616899
 31
0.0
  0
LINE
  5
7E9
  8
UMCL1
  6
CONTINUOUS
 10
1294.5108186840289
 20
1098.665314634067
 30
0.0
 11
1294.5108186840289
 21
1074.5313395616899
 31
0.0
  0
LINE
  5
7EA
  8
UMCL1
  6
CENTER1
 62
     1
 10
1307.5108185222971
 20
1208.4724939525311
 30
0.0
 11
1307.5108185222971
 21
1175.2724939525301
 31
0.0
  0
LINE
  5
7EB
  8
UMCL1
  6
CENTER1
 62
     1
 10
1306.5108185222971
 20
1076.0313395616899
 30
0.0
 11
1306.5108185222971
 21
997.03133956169029
 31
0.0
  0
LINE
  5
7EC
  8
UMCL1
  6
CENTER1
 62
     1
 10
1264.5108185222971
 20
1076.0313395616899
 30
0.0
 11
1264.5108185222971
 21
997.03133956169052
 31
0.0
  0
LINE
  5
7ED
  8
UMCL1
  6
HIDDEN
 62
     3
 10
1267.9108185222969
 20
1068.0313395616899
 30
0.0
 11
1267.9108185222969
 21
998.53133956169063
 31
0.0
  0
LINE
  5
7EE
  8
UMCL1
  6
HIDDEN
 62
     3
 10
1261.110818522297
 20
1068.0313395616899
 30
0.0
 11
1261.110818522297
 21
998.53133956169063
 31
0.0
  0
LINE
  5
7EF
  8
UMCL1
  6
CONTINUOUS
 10
1276.5108185222971
 20
1201.3724939525309
 30
0.0
 11
1325.582615292021
 21
1201.3724939525309
 31
0.0
  0
LINE
  5
7F0
  8
UMCL1
  6
CONTINUOUS
 10
1276.5108185222971
 20
1182.3724939525309
 30
0.0
 11
1325.582615292021
 21
1182.3724939525309
 31
0.0
  0
LINE
  5
7F1
  8
UMCL1
  6
CENTER1
 62
     1
 10
1258.2608185222971
 20
1212.8724939525309
 30
0.0
 11
1262.5108185222971
 21
1212.8724939525309
 31
0.0
  0
LINE
  5
7F2
  8
UMCL1
  6
CENTER1
 62
     1
 10
1263.5108185222971
 20
1212.8724939525309
 30
0.0
 11
1265.5108185222971
 21
1212.8724939525309
 31
0.0
  0
LINE
  5
7F3
  8
UMCL1
  6
CENTER1
 62
     1
 10
1266.5108185222971
 20
1212.8724939525309
 30
0.0
 11
1270.7608185222971
 21
1212.8724939525309
 31
0.0
  0
LINE
  5
7F4
  8
UMCL1
  6
CENTER1
 62
     1
 10
1264.5108185222971
 20
1206.6224939525309
 30
0.0
 11
1264.5108185222971
 21
1210.8724939525309
 31
0.0
  0
LINE
  5
7F5
  8
UMCL1
  6
CENTER1
 62
     1
 10
1264.5108185222971
 20
1211.8724939525309
 30
0.0
 11
1264.5108185222971
 21
1213.8724939525309
 31
0.0
  0
LINE
  5
7F6
  8
UMCL1
  6
CENTER1
 62
     1
 10
1264.5108185222971
 20
1214.8724939525309
 30
0.0
 11
1264.5108185222971
 21
1219.1224939525309
 31
0.0
  0
LINE
  5
7F7
  8
UMCL1
  6
CENTER1
 62
     1
 10
1300.2608185222971
 20
1212.8724939525309
 30
0.0
 11
1304.5108185222971
 21
1212.8724939525309
 31
0.0
  0
LINE
  5
7F8
  8
UMCL1
  6
CENTER1
 62
     1
 10
1305.5108185222971
 20
1212.8724939525309
 30
0.0
 11
1307.5108185222971
 21
1212.8724939525309
 31
0.0
  0
LINE
  5
7F9
  8
UMCL1
  6
CENTER1
 62
     1
 10
1308.5108185222971
 20
1212.8724939525309
 30
0.0
 11
1312.7608185222971
 21
1212.8724939525309
 31
0.0
  0
LINE
  5
7FA
  8
UMCL1
  6
CENTER1
 62
     1
 10
1306.5108185222971
 20
1206.6224939525309
 30
0.0
 11
1306.5108185222971
 21
1210.8724939525309
 31
0.0
  0
LINE
  5
7FB
  8
UMCL1
  6
CENTER1
 62
     1
 10
1306.5108185222971
 20
1211.8724939525309
 30
0.0
 11
1306.5108185222971
 21
1213.8724939525309
 31
0.0
  0
LINE
  5
7FC
  8
UMCL1
  6
CENTER1
 62
     1
 10
1306.5108185222971
 20
1214.8724939525309
 30
0.0
 11
1306.5108185222971
 21
1219.1224939525309
 31
0.0
  0
LINE
  5
7FD
  8
UMCL1
  6
CENTER1
 62
     1
 10
1300.2608185222971
 20
1170.8724939525309
 30
0.0
 11
1304.5108185222971
 21
1170.8724939525309
 31
0.0
  0
LINE
  5
7FE
  8
UMCL1
  6
CENTER1
 62
     1
 10
1305.5108185222971
 20
1170.8724939525309
 30
0.0
 11
1307.5108185222971
 21
1170.8724939525309
 31
0.0
  0
LINE
  5
7FF
  8
UMCL1
  6
CENTER1
 62
     1
 10
1308.5108185222971
 20
1170.8724939525309
 30
0.0
 11
1312.7608185222971
 21
1170.8724939525309
 31
0.0
  0
LINE
  5
800
  8
UMCL1
  6
CENTER1
 62
     1
 10
1306.5108185222971
 20
1164.6224939525309
 30
0.0
 11
1306.5108185222971
 21
1168.8724939525309
 31
0.0
  0
LINE
  5
801
  8
UMCL1
  6
CENTER1
 62
     1
 10
1306.5108185222971
 20
1169.8724939525309
 30
0.0
 11
1306.5108185222971
 21
1171.8724939525309
 31
0.0
  0
LINE
  5
802
  8
UMCL1
  6
CENTER1
 62
     1
 10
1306.5108185222971
 20
1172.8724939525309
 30
0.0
 11
1306.5108185222971
 21
1177.1224939525309
 31
0.0
  0
LINE
  5
803
  8
UMCL1
  6
CENTER1
 62
     1
 10
1258.2608185222971
 20
1170.8724939525309
 30
0.0
 11
1262.5108185222971
 21
1170.8724939525309
 31
0.0
  0
LINE
  5
804
  8
UMCL1
  6
CENTER1
 62
     1
 10
1263.5108185222971
 20
1170.8724939525309
 30
0.0
 11
1265.5108185222971
 21
1170.8724939525309
 31
0.0
  0
LINE
  5
805
  8
UMCL1
  6
CENTER1
 62
     1
 10
1266.5108185222971
 20
1170.8724939525309
 30
0.0
 11
1270.7608185222971
 21
1170.8724939525309
 31
0.0
  0
LINE
  5
806
  8
UMCL1
  6
CENTER1
 62
     1
 10
1264.5108185222971
 20
1164.6224939525309
 30
0.0
 11
1264.5108185222971
 21
1168.8724939525309
 31
0.0
  0
LINE
  5
807
  8
UMCL1
  6
CENTER1
 62
     1
 10
1264.5108185222971
 20
1169.8724939525309
 30
0.0
 11
1264.5108185222971
 21
1171.8724939525309
 31
0.0
  0
LINE
  5
808
  8
UMCL1
  6
CENTER1
 62
     1
 10
1264.5108185222971
 20
1172.8724939525309
 30
0.0
 11
1264.5108185222971
 21
1177.1224939525309
 31
0.0
  0
LINE
  5
809
  8
UMCL1
  6
CENTER1
 62
     1
 10
1280.3108183222971
 20
1111.0313395616911
 30
0.0
 11
1283.110818522297
 21
1111.0313395616911
 31
0.0
  0
LINE
  5
80A
  8
UMCL1
  6
CENTER1
 62
     1
 10
1284.310818522297
 20
1111.0313395616911
 30
0.0
 11
1286.7108185222969
 21
1111.0313395616911
 31
0.0
  0
LINE
  5
80B
  8
UMCL1
  6
CENTER1
 62
     1
 10
1287.9108185222969
 20
1111.0313395616911
 30
0.0
 11
1290.7108187222971
 21
1111.0313395616911
 31
0.0
  0
LINE
  5
80C
  8
UMCL1
  6
CENTER1
 62
     1
 10
1302.310818522297
 20
1111.0313395616911
 30
0.0
 11
1305.110818522297
 21
1111.0313395616911
 31
0.0
  0
LINE
  5
80D
  8
UMCL1
  6
CENTER1
 62
     1
 10
1306.310818522297
 20
1111.0313395616911
 30
0.0
 11
1308.7108185222969
 21
1111.0313395616911
 31
0.0
  0
LINE
  5
80E
  8
UMCL1
  6
CENTER1
 62
     1
 10
1309.9108185222969
 20
1111.0313395616911
 30
0.0
 11
1312.7108185222969
 21
1111.0313395616911
 31
0.0
  0
LINE
  5
80F
  8
UMCL1
  6
CENTER1
 62
     1
 10
1307.5108185222971
 20
1105.831339561691
 30
0.0
 11
1307.5108185222971
 21
1108.631339561691
 31
0.0
  0
LINE
  5
810
  8
UMCL1
  6
CENTER1
 62
     1
 10
1307.5108185222971
 20
1109.831339561691
 30
0.0
 11
1307.5108185222971
 21
1112.2313395616909
 31
0.0
  0
LINE
  5
811
  8
UMCL1
  6
CENTER1
 62
     1
 10
1307.5108185222971
 20
1113.4313395616909
 30
0.0
 11
1307.5108185222971
 21
1116.2313395616909
 31
0.0
  0
LINE
  5
812
  8
UMCL1
  6
CENTER1
 62
     1
 10
1302.310818522297
 20
1087.0313395616899
 30
0.0
 11
1305.110818522297
 21
1087.0313395616899
 31
0.0
  0
LINE
  5
813
  8
UMCL1
  6
CENTER1
 62
     1
 10
1306.310818522297
 20
1087.0313395616899
 30
0.0
 11
1308.7108185222969
 21
1087.0313395616899
 31
0.0
  0
LINE
  5
814
  8
UMCL1
  6
CENTER1
 62
     1
 10
1309.9108185222969
 20
1087.0313395616899
 30
0.0
 11
1312.7108185222969
 21
1087.0313395616899
 31
0.0
  0
LINE
  5
815
  8
UMCL1
  6
CENTER1
 62
     1
 10
1307.5108185222971
 20
1081.8313395616899
 30
0.0
 11
1307.5108185222971
 21
1084.6313395616901
 31
0.0
  0
LINE
  5
816
  8
UMCL1
  6
CENTER1
 62
     1
 10
1307.5108185222971
 20
1085.8313395616899
 30
0.0
 11
1307.5108185222971
 21
1088.23133956169
 31
0.0
  0
LINE
  5
817
  8
UMCL1
  6
CENTER1
 62
     1
 10
1307.5108185222971
 20
1089.43133956169
 30
0.0
 11
1307.5108185222971
 21
1092.23133956169
 31
0.0
  0
LINE
  5
818
  8
UMCL1
  6
CENTER1
 62
     1
 10
1307.5108185222971
 20
1105.831339561691
 30
0.0
 11
1307.5108185222971
 21
1092.23133956169
 31
0.0
  0
LINE
  5
819
  8
UMCL1
  6
CENTER1
 62
     1
 10
1335.5108185222971
 20
1118.1955968783941
 30
0.0
 11
1335.5108185222971
 21
1097.795596878394
 31
0.0
  0
LINE
  5
81A
  8
UMCL1
  6
CONTINUOUS
 10
1258.5108185222971
 20
998.53133956169063
 30
0.0
 11
1312.5108185222971
 21
998.53133956169063
 31
0.0
  0
LINE
  5
81B
  8
UMCL1
  6
CONTINUOUS
 10
1258.0108185222971
 20
1074.0313395616899
 30
0.0
 11
1258.0108185222971
 21
999.03133956169052
 31
0.0
  0
LINE
  5
81C
  8
UMCL1
  6
CONTINUOUS
 10
1313.0108185222971
 20
1074.0313395616899
 30
0.0
 11
1258.0108185222971
 21
1074.0313395616899
 31
0.0
  0
LINE
  5
81D
  8
UMCL1
  6
CONTINUOUS
 10
1258.5108185222971
 20
1074.5313395616899
 30
0.0
 11
1258.0108185222971
 21
1074.0313395616899
 31
0.0
  0
LINE
  5
81E
  8
UMCL1
  6
CONTINUOUS
 10
1312.5108185222971
 20
1074.5313395616899
 30
0.0
 11
1313.0108185222971
 21
1074.0313395616899
 31
0.0
  0
LINE
  5
81F
  8
UMCL1
  6
CONTINUOUS
 10
1313.0108185222971
 20
999.03133956169052
 30
0.0
 11
1313.0108185222971
 21
1074.0313395616899
 31
0.0
  0
LINE
  5
820
  8
UMCL1
  6
CONTINUOUS
 10
1258.5108185222971
 20
1074.5313395616899
 30
0.0
 11
1312.5108185222971
 21
1074.5313395616899
 31
0.0
  0
LINE
  5
821
  8
UMCL1
  6
CONTINUOUS
 10
1258.0108185222971
 20
999.03133956169052
 30
0.0
 11
1313.0108185222971
 21
999.03133956169052
 31
0.0
  0
LINE
  5
822
  8
UMCL1
  6
CONTINUOUS
 10
1258.5108185222971
 20
998.53133956169063
 30
0.0
 11
1258.0108185222971
 21
999.03133956169052
 31
0.0
  0
LINE
  5
823
  8
UMCL1
  6
CONTINUOUS
 10
1312.5108185222971
 20
998.53133956169063
 30
0.0
 11
1313.0108185222971
 21
999.03133956169052
 31
0.0
  0
LINE
  5
824
  8
UMCL1
  6
HIDDEN
 62
     3
 10
1259.2608185222971
 20
1068.0313395616899
 30
0.0
 11
1269.7608185222971
 21
1068.0313395616899
 31
0.0
  0
LINE
  5
825
  8
UMCL1
  6
HIDDEN
 62
     3
 10
1259.2608185222971
 20
1074.5313395616899
 30
0.0
 11
1259.2608185222971
 21
1068.0313395616899
 31
0.0
  0
LINE
  5
826
  8
UMCL1
  6
HIDDEN
 62
     3
 10
1269.7608185222971
 20
1068.0313395616899
 30
0.0
 11
1269.7608185222971
 21
1074.5313395616899
 31
0.0
  0
LINE
  5
827
  8
UMCL1
  6
HIDDEN
 62
     3
 10
1309.9108185222969
 20
1068.0313395616899
 30
0.0
 11
1309.9108185222969
 21
998.53133956169063
 31
0.0
  0
LINE
  5
828
  8
UMCL1
  6
HIDDEN
 62
     3
 10
1303.110818522297
 20
1068.0313395616899
 30
0.0
 11
1303.110818522297
 21
998.53133956169063
 31
0.0
  0
LINE
  5
829
  8
UMCL1
  6
HIDDEN
 62
     3
 10
1301.2608185222971
 20
1068.0313395616899
 30
0.0
 11
1311.7608185222971
 21
1068.0313395616899
 31
0.0
  0
LINE
  5
82A
  8
UMCL1
  6
HIDDEN
 62
     3
 10
1301.2608185222971
 20
1074.5313395616899
 30
0.0
 11
1301.2608185222971
 21
1068.0313395616899
 31
0.0
  0
LINE
  5
82B
  8
UMCL1
  6
HIDDEN
 62
     3
 10
1311.7608185222971
 20
1068.0313395616899
 30
0.0
 11
1311.7608185222971
 21
1074.5313395616899
 31
0.0
  0
LINE
  5
82C
  8
UMCL1
  6
CENTER1
 62
     1
 10
1285.5108185222971
 20
997.03133956169052
 30
0.0
 11
1285.5108185222971
 21
1122.0313395616911
 31
0.0
  0
LINE
  5
82D
  8
UMCL1
  6
CENTER1
 62
     1
 10
1256.5108185222971
 20
1191.8724939525309
 30
0.0
 11
1342.0108185222971
 21
1191.8724939525309
 31
0.0
  0
LINE
  5
82E
  8
UMCL1
  6
CENTER1
 62
     1
 10
1285.5108185222971
 20
1220.8724939525309
 30
0.0
 11
1285.5108185222971
 21
1162.8724939525309
 31
0.0
  0
POLYLINE
  5
82F
  8
UMCL1
  6
CONTINUOUS
 66
     1
 10
0.0
 20
0.0
 30
0.0
  0
VERTEX
  5
A8D
  8
UMCL1
  6
CONTINUOUS
 10
1309.5108185222971
 20
1219.3724939525309
 30
0.0
  0
VERTEX
  5
A8E
  8
UMCL1
  6
CONTINUOUS
 10
1261.5108185222971
 20
1219.3724939525309
 30
0.0
  0
SEQEND
  5
A8F
  8
UMCL1
  6
CONTINUOUS
  0
ARC
  5
830
  8
UMCL1
  6
CONTINUOUS
 10
1285.5108185222971
 20
1191.87249395253
 30
0.0
 40
36.5
 50
41.112090439168
 51
48.887909560832007
  0
POLYLINE
  5
831
  8
UMCL1
  6
CONTINUOUS
 66
     1
 10
0.0
 20
0.0
 30
0.0
  0
VERTEX
  5
A90
  8
UMCL1
  6
CONTINUOUS
 10
1313.0108185222971
 20
1167.8724939525309
 30
0.0
  0
VERTEX
  5
A91
  8
UMCL1
  6
CONTINUOUS
 10
1313.0108185222971
 20
1178.37249395253
 30
0.0
  0
SEQEND
  5
A92
  8
UMCL1
  6
CONTINUOUS
  0
ARC
  5
832
  8
UMCL1
  6
CONTINUOUS
 10
1285.5108185222971
 20
1191.87249395253
 30
0.0
 40
36.5
 50
311.11209043916801
 51
318.88790956083199
  0
POLYLINE
  5
833
  8
UMCL1
  6
CONTINUOUS
 66
     1
 10
0.0
 20
0.0
 30
0.0
  0
VERTEX
  5
A93
  8
UMCL1
  6
CONTINUOUS
 10
1261.5108185222971
 20
1164.3724939525309
 30
0.0
  0
VERTEX
  5
A94
  8
UMCL1
  6
CONTINUOUS
 10
1309.5108185222971
 20
1164.3724939525309
 30
0.0
  0
SEQEND
  5
A95
  8
UMCL1
  6
CONTINUOUS
  0
ARC
  5
834
  8
UMCL1
  6
CONTINUOUS
 10
1285.5108185222971
 20
1191.87249395253
 30
0.0
 40
36.5
 50
131.11209043916801
 51
138.88790956083199
  0
ARC
  5
835
  8
UMCL1
  6
CONTINUOUS
 10
1285.5108185222971
 20
1191.87249395253
 30
0.0
 40
36.5
 50
221.11209043916801
 51
228.88790956083199
  0
POLYLINE
  5
836
  8
UMCL1
  6
CONTINUOUS
 66
     1
 10
0.0
 20
0.0
 30
0.0
  0
VERTEX
  5
A96
  8
UMCL1
  6
CONTINUOUS
 10
1258.0108185222971
 20
1215.87249395253
 30
0.0
  0
VERTEX
  5
A97
  8
UMCL1
  6
CONTINUOUS
 10
1258.0108185222971
 20
1167.8724939525309
 30
0.0
  0
SEQEND
  5
A98
  8
UMCL1
  6
CONTINUOUS
  0
POLYLINE
  5
837
  8
UMCL1
  6
CONTINUOUS
 66
     1
 10
0.0
 20
0.0
 30
0.0
  0
VERTEX
  5
A99
  8
UMCL1
  6
CONTINUOUS
 10
1313.0108185222971
 20
1205.3724939525309
 30
0.0
  0
VERTEX
  5
A9A
  8
UMCL1
  6
CONTINUOUS
 10
1313.0108185222971
 20
1215.87249395253
 30
0.0
  0
SEQEND
  5
A9B
  8
UMCL1
  6
CONTINUOUS
  0
LINE
  5
838
  8
UMCL1
  6
HIDDEN
 62
     3
 10
1313.0108185222971
 20
1205.3724939525309
 30
0.0
 11
1313.0108185222971
 21
1178.37249395253
 31
0.0
  0
TEXT
  5
839
  8
UMCL2
  6
CONTINUOUS
 10
1297.670178318589
 20
1159.9171942317271
 30
0.0
 40
3.0
  1
A
  7
ROMANS
  0
CIRCLE
  5
83A
  8
UMCL2
  6
CONTINUOUS
 10
1299.10281066474
 20
1161.16429448607
 30
0.0
 40
2.5
  0
TEXT
  5
83B
  8
UMCL2
  6
CONTINUOUS
 10
1271.3691143056719
 20
1159.0783586031259
 30
0.0
 40
3.0
  1
B
  7
ROMANS
  0
CIRCLE
  5
83C
  8
UMCL2
  6
CONTINUOUS
 10
1272.7585246178869
 20
1160.5739423642451
 30
0.0
 40
2.5
  0
CIRCLE
  5
83D
  8
UMCL1
  6
CONTINUOUS
 10
1276.5108185222971
 20
1048.5313395616899
 30
0.0
 40
4.2999999999999989
  0
ARC
  5
83E
  8
UMCL1
  6
CONTINUOUS
 62
     3
 10
1276.5108185222971
 20
1048.5313395616899
 30
0.0
 40
4.8599999999999994
 50
344.99999999999932
 51
284.99999999999437
  0
CIRCLE
  5
83F
  8
UMCL1
  6
CONTINUOUS
 10
1294.5108185222971
 20
1015.5313395616899
 30
0.0
 40
4.2999999999999989
  0
ARC
  5
840
  8
UMCL1
  6
CONTINUOUS
 62
     3
 10
1294.5108185222971
 20
1015.5313395616899
 30
0.0
 40
4.8599999999999994
 50
344.99999999999932
 51
284.99999999999437
  0
LINE
  5
841
  8
UMCL1
  6
CENTER1
 62
     1
 10
1271.1648185222971
 20
1048.5313395616899
 30
0.0
 11
1281.8568185222971
 21
1048.5313395616899
 31
0.0
  0
LINE
  5
842
  8
UMCL1
  6
CENTER1
 62
     1
 10
1276.5108185222971
 20
1053.87733956169
 30
0.0
 11
1276.5108185222971
 21
1043.1853395616899
 31
0.0
  0
LINE
  5
843
  8
UMCL1
  6
CENTER1
 62
     1
 10
1289.1648185222971
 20
1015.5313395616899
 30
0.0
 11
1299.8568185222971
 21
1015.5313395616899
 31
0.0
  0
LINE
  5
844
  8
UMCL1
  6
CENTER1
 62
     1
 10
1294.5108185222971
 20
1020.87733956169
 30
0.0
 11
1294.5108185222971
 21
1010.1853395616899
 31
0.0
  0
LINE
  5
845
  8
UMCL2
 10
1341.5108185222971
 20
1186.3724939525309
 30
0.0
 11
1349.5108185222971
 21
1186.3724939525309
 31
0.0
  0
LINE
  5
846
  8
UMCL2
 10
1341.5108185222971
 20
1197.3724939525309
 30
0.0
 11
1349.5108185222971
 21
1197.3724939525309
 31
0.0
  0
LINE
  5
847
  8
UMCL2
 10
1348.5108185222971
 20
1188.8724939525309
 30
0.0
 11
1348.5108185222971
 21
1194.8724939525309
 31
0.0
  0
SOLID
  5
848
  8
UMCL2
 10
1348.0941518556299
 20
1188.8724939525309
 30
0.0
 11
1348.9274851889641
 21
1188.8724939525309
 31
0.0
 12
1348.5108185222971
 22
1186.3724939525309
 32
0.0
 13
1348.5108185222971
 23
1186.3724939525309
 33
0.0
  0
SOLID
  5
849
  8
UMCL2
 10
1348.0941518556299
 20
1194.8724939525309
 30
0.0
 11
1348.9274851889641
 21
1194.8724939525309
 31
0.0
 12
1348.5108185222971
 22
1197.3724939525309
 32
0.0
 13
1348.5108185222971
 23
1197.3724939525309
 33
0.0
  0
INSERT
  5
84A
  8
0
  2
*U23
 10
0.0
 20
0.0
 30
0.0
  0
LINE
  5
84B
  8
UMCL2
 10
1326.582615292021
 20
1182.3724939525309
 30
0.0
 11
1357.5108185222971
 21
1182.3724939525309
 31
0.0
  0
LINE
  5
84C
  8
UMCL2
 10
1326.582615292021
 20
1201.3724939525309
 30
0.0
 11
1357.5108185222971
 21
1201.3724939525309
 31
0.0
  0
LINE
  5
84D
  8
UMCL2
 10
1356.5108185222971
 20
1184.8724939525309
 30
0.0
 11
1356.5108185222971
 21
1198.8724939525309
 31
0.0
  0
SOLID
  5
84E
  8
UMCL2
 10
1356.0941518556299
 20
1184.8724939525309
 30
0.0
 11
1356.9274851889641
 21
1184.8724939525309
 31
0.0
 12
1356.5108185222971
 22
1182.3724939525309
 32
0.0
 13
1356.5108185222971
 23
1182.3724939525309
 33
0.0
  0
SOLID
  5
84F
  8
UMCL2
 10
1356.0941518556299
 20
1198.8724939525309
 30
0.0
 11
1356.9274851889641
 21
1198.8724939525309
 31
0.0
 12
1356.5108185222971
 22
1201.3724939525309
 32
0.0
 13
1356.5108185222971
 23
1201.3724939525309
 33
0.0
  0
INSERT
  5
850
  8
0
  2
*U24
 10
0.0
 20
0.0
 30
0.0
  0
LINE
  5
851
  8
UMCL2
 10
1313.7608185222971
 20
1170.8724939525309
 30
0.0
 11
1365.5108185222971
 21
1170.8724939525309
 31
0.0
  0
LINE
  5
852
  8
UMCL2
 10
1313.7608185222971
 20
1212.8724939525309
 30
0.0
 11
1365.5108185222971
 21
1212.8724939525309
 31
0.0
  0
LINE
  5
853
  8
UMCL2
 10
1364.5108185222971
 20
1173.3724939525309
 30
0.0
 11
1364.5108185222971
 21
1210.3724939525309
 31
0.0
  0
SOLID
  5
854
  8
UMCL2
 10
1364.0941518556299
 20
1173.3724939525309
 30
0.0
 11
1364.9274851889641
 21
1173.3724939525309
 31
0.0
 12
1364.5108185222971
 22
1170.8724939525309
 32
0.0
 13
1364.5108185222971
 23
1170.8724939525309
 33
0.0
  0
SOLID
  5
855
  8
UMCL2
 10
1364.0941518556299
 20
1210.3724939525309
 30
0.0
 11
1364.9274851889641
 21
1210.3724939525309
 31
0.0
 12
1364.5108185222971
 22
1212.8724939525309
 32
0.0
 13
1364.5108185222971
 23
1212.8724939525309
 33
0.0
  0
INSERT
  5
856
  8
0
  2
*U25
 10
0.0
 20
0.0
 30
0.0
  0
LINE
  5
857
  8
UMCL2
 10
1310.5108185222971
 20
1164.3724939525309
 30
0.0
 11
1373.5108185222971
 21
1164.3724939525309
 31
0.0
  0
LINE
  5
858
  8
UMCL2
 10
1310.510818522298
 20
1219.3724939525291
 30
0.0
 11
1373.5108185222971
 21
1219.3724939525291
 31
0.0
  0
LINE
  5
859
  8
UMCL2
 10
1372.5108185222971
 20
1166.8724939525309
 30
0.0
 11
1372.5108185222971
 21
1216.8724939525291
 31
0.0
  0
SOLID
  5
85A
  8
UMCL2
 10
1372.0941518556299
 20
1166.8724939525309
 30
0.0
 11
1372.9274851889641
 21
1166.8724939525309
 31
0.0
 12
1372.5108185222971
 22
1164.3724939525309
 32
0.0
 13
1372.5108185222971
 23
1164.3724939525309
 33
0.0
  0
SOLID
  5
85B
  8
UMCL2
 10
1372.0941518556299
 20
1216.8724939525291
 30
0.0
 11
1372.9274851889641
 21
1216.8724939525291
 31
0.0
 12
1372.5108185222971
 22
1219.3724939525291
 32
0.0
 13
1372.5108185222971
 23
1219.3724939525291
 33
0.0
  0
INSERT
  5
85C
  8
0
  2
*U26
 10
0.0
 20
0.0
 30
0.0
  0
LINE
  5
85D
  8
UMCL2
  6
CONTINUOUS
 10
1360.5153096156689
 20
1188.3015348671529
 30
0.0
 11
1363.137855236977
 21
1188.3015348671529
 31
0.0
  0
LINE
  5
85E
  8
UMCL2
  6
CONTINUOUS
 10
1363.137855236977
 20
1188.3015348671529
 30
0.0
 11
1363.137855236977
 21
1185.891688389926
 31
0.0
  0
LINE
  5
85F
  8
UMCL2
  6
CONTINUOUS
 10
1363.137855236977
 20
1185.891688389926
 30
0.0
 11
1360.5153096156689
 21
1185.891688389926
 31
0.0
  0
LINE
  5
860
  8
UMCL2
  6
CONTINUOUS
 10
1360.5153096156689
 20
1185.891688389926
 30
0.0
 11
1360.5153096156689
 21
1188.3015348671529
 31
0.0
  0
LINE
  5
861
  8
UMCL2
  6
CONTINUOUS
 10
1368.6005779076499
 20
1188.0450611797371
 30
0.0
 11
1371.223123528958
 21
1188.0450611797371
 31
0.0
  0
LINE
  5
862
  8
UMCL2
  6
CONTINUOUS
 10
1371.223123528958
 20
1188.0450611797371
 30
0.0
 11
1371.223123528958
 21
1185.63521470251
 31
0.0
  0
LINE
  5
863
  8
UMCL2
  6
CONTINUOUS
 10
1371.223123528958
 20
1185.63521470251
 30
0.0
 11
1368.6005779076499
 21
1185.63521470251
 31
0.0
  0
LINE
  5
864
  8
UMCL2
  6
CONTINUOUS
 10
1368.6005779076499
 20
1185.63521470251
 30
0.0
 11
1368.6005779076499
 21
1188.0450611797371
 31
0.0
  0
LINE
  5
865
  8
UMCL2
 10
1326.582615292021
 20
1182.3724939525309
 30
0.0
 11
1357.5108185222971
 21
1182.3724939525309
 31
0.0
  0
ARC
  5
866
  8
UMCL2
 10
1325.582615292021
 20
1182.3724939525309
 30
0.0
 40
11.301506297044741
 50
334.59929400486658
 51
347.29964700243391
  0
ARC
  5
867
  8
UMCL2
 10
1325.582615292021
 20
1182.3724939525309
 30
0.0
 40
11.301506297044741
 50
27.700352997566728
 51
40.400705995128817
  0
ARC
  5
868
  8
UMCL2
 10
1325.582615292021
 20
1182.3724939525309
 30
0.0
 40
11.301506297044741
 50
0.0
 51
15.000000000000741
  0
SOLID
  5
869
  8
UMCL2
 10
1336.1934995777669
 20
1179.9339180671791
 30
0.0
 11
1337.0217199736269
 21
1179.841747462722
 31
0.0
 12
1336.8841215890659
 22
1182.3724939525309
 32
0.0
 13
1336.8841215890659
 23
1182.3724939525309
 33
0.0
  0
SOLID
  5
86A
  8
UMCL2
 10
1335.9769365437189
 20
1187.7776654973479
 30
0.0
 11
1335.2007925813309
 21
1187.474276318088
 31
0.0
 12
1336.4990321003049
 22
1185.297539020552
 32
0.0
 13
1336.4990321003049
 23
1185.297539020552
 33
0.0
  0
TEXT
  5
86B
  8
UMCL2
  6
CONTINUOUS
 10
1339.2886621062919
 20
1177.2461698368691
 30
0.0
 40
3.0
  1
15%%D
  7
ROMANSS
 72
     2
 11
1345.002947820577
 21
1178.7461698368691
 31
0.0
 73
     2
  0
LINE
  5
86C
  8
UMCL2
 10
1307.5108185222971
 20
1117.2313395616909
 30
0.0
 11
1307.5108185222971
 21
1129.5313395616911
 31
0.0
  0
LINE
  5
86D
  8
UMCL2
 10
1335.5108185222971
 20
1119.195596878395
 30
0.0
 11
1335.5108185222971
 21
1129.5313395616911
 31
0.0
  0
LINE
  5
86E
  8
UMCL2
 10
1310.0108185222971
 20
1128.5313395616911
 30
0.0
 11
1333.0108185222971
 21
1128.5313395616911
 31
0.0
  0
SOLID
  5
86F
  8
UMCL2
 10
1310.0108185222971
 20
1128.9480062283569
 30
0.0
 11
1310.0108185222971
 21
1128.1146728950239
 31
0.0
 12
1307.5108185222971
 22
1128.5313395616911
 32
0.0
 13
1307.5108185222971
 23
1128.5313395616911
 33
0.0
  0
SOLID
  5
870
  8
UMCL2
 10
1333.0108185222971
 20
1128.9480062283569
 30
0.0
 11
1333.0108185222971
 21
1128.1146728950239
 31
0.0
 12
1335.5108185222971
 22
1128.5313395616911
 32
0.0
 13
1335.5108185222971
 23
1128.5313395616911
 33
0.0
  0
INSERT
  5
871
  8
0
  2
*U27
 10
0.0
 20
0.0
 30
0.0
  0
LINE
  5
872
  8
UMCL2
 10
1307.5108185222971
 20
1117.2313395616909
 30
0.0
 11
1307.5108185222971
 21
1129.5313395616911
 31
0.0
  0
LINE
  5
873
  8
UMCL2
 10
1285.5108185222971
 20
1123.0313395616911
 30
0.0
 11
1285.5108185222971
 21
1129.5313395616911
 31
0.0
  0
LINE
  5
874
  8
UMCL2
 10
1305.0108185222971
 20
1128.5313395616911
 30
0.0
 11
1288.0108185222971
 21
1128.5313395616911
 31
0.0
  0
SOLID
  5
875
  8
UMCL2
 10
1305.0108185222971
 20
1128.9480062283569
 30
0.0
 11
1305.0108185222971
 21
1128.1146728950239
 31
0.0
 12
1307.5108185222971
 22
1128.5313395616911
 32
0.0
 13
1307.5108185222971
 23
1128.5313395616911
 33
0.0
  0
SOLID
  5
876
  8
UMCL2
 10
1288.0108185222971
 20
1128.9480062283569
 30
0.0
 11
1288.0108185222971
 21
1128.1146728950239
 31
0.0
 12
1285.5108185222971
 22
1128.5313395616911
 32
0.0
 13
1285.5108185222971
 23
1128.5313395616911
 33
0.0
  0
INSERT
  5
877
  8
0
  2
*U28
 10
0.0
 20
0.0
 30
0.0
  0
LINE
  5
878
  8
UMCL2
 10
1340.5108185222971
 20
1113.5313395616911
 30
0.0
 11
1340.5108185222971
 21
1137.5313395616911
 31
0.0
  0
LINE
  5
879
  8
UMCL2
 10
1285.5108185222971
 20
1123.0313395616911
 30
0.0
 11
1285.5108185222971
 21
1137.5313395616911
 31
0.0
  0
LINE
  5
87A
  8
UMCL2
 10
1338.0108185222971
 20
1136.5313395616911
 30
0.0
 11
1288.0108185222971
 21
1136.5313395616911
 31
0.0
  0
SOLID
  5
87B
  8
UMCL2
 10
1338.0108185222971
 20
1136.9480062283569
 30
0.0
 11
1338.0108185222971
 21
1136.1146728950239
 31
0.0
 12
1340.5108185222971
 22
1136.5313395616911
 32
0.0
 13
1340.5108185222971
 23
1136.5313395616911
 33
0.0
  0
SOLID
  5
87C
  8
UMCL2
 10
1288.0108185222971
 20
1136.9480062283569
 30
0.0
 11
1288.0108185222971
 21
1136.1146728950239
 31
0.0
 12
1285.5108185222971
 22
1136.5313395616911
 32
0.0
 13
1285.5108185222971
 23
1136.5313395616911
 33
0.0
  0
INSERT
  5
87D
  8
0
  2
*U29
 10
0.0
 20
0.0
 30
0.0
  0
LINE
  5
87E
  8
UMCL2
 10
1340.5108185222971
 20
1113.5313395616911
 30
0.0
 11
1340.5108185222971
 21
1145.5313395616911
 31
0.0
  0
LINE
  5
87F
  8
UMCL2
 10
1276.5108185222971
 20
1121.5313395616911
 30
0.0
 11
1276.5108185222971
 21
1145.5313395616911
 31
0.0
  0
LINE
  5
880
  8
UMCL2
 10
1338.0108185222971
 20
1144.5313395616911
 30
0.0
 11
1279.0108185222971
 21
1144.5313395616911
 31
0.0
  0
SOLID
  5
881
  8
UMCL2
 10
1338.0108185222971
 20
1144.9480062283569
 30
0.0
 11
1338.0108185222971
 21
1144.1146728950239
 31
0.0
 12
1340.5108185222971
 22
1144.5313395616911
 32
0.0
 13
1340.5108185222971
 23
1144.5313395616911
 33
0.0
  0
SOLID
  5
882
  8
UMCL2
 10
1279.0108185222971
 20
1144.9480062283569
 30
0.0
 11
1279.0108185222971
 21
1144.1146728950239
 31
0.0
 12
1276.5108185222971
 22
1144.5313395616911
 32
0.0
 13
1276.5108185222971
 23
1144.5313395616911
 33
0.0
  0
INSERT
  5
883
  8
0
  2
*U30
 10
0.0
 20
0.0
 30
0.0
  0
LINE
  5
884
  8
UMCL2
 10
1313.7108185222969
 20
1111.0313395616911
 30
0.0
 11
1324.3605547930181
 21
1111.0313395616911
 31
0.0
  0
LINE
  5
885
  8
UMCL2
 10
1313.7108185222969
 20
1087.0313395616899
 30
0.0
 11
1324.3605547930181
 21
1087.0313395616899
 31
0.0
  0
LINE
  5
886
  8
UMCL2
 10
1323.3605547930181
 20
1108.5313395616911
 30
0.0
 11
1323.3605547930181
 21
1089.5313395616899
 31
0.0
  0
INSERT
  5
887
  8
0
  2
*U31
 10
0.0
 20
0.0
 30
0.0
  0
SOLID
  5
888
  8
UMCL2
 10
1322.9438881263511
 20
1108.5313395616911
 30
0.0
 11
1323.7772214596839
 21
1108.5313395616911
 31
0.0
 12
1323.3605547930181
 22
1111.0313395616911
 32
0.0
 13
1323.3605547930181
 23
1111.0313395616911
 33
0.0
  0
SOLID
  5
889
  8
UMCL2
 10
1322.9438881263511
 20
1089.5313395616899
 30
0.0
 11
1323.7772214596839
 21
1089.5313395616899
 31
0.0
 12
1323.3605547930181
 22
1087.0313395616899
 32
0.0
 13
1323.3605547930181
 23
1087.0313395616899
 33
0.0
  0
LINE
  5
88A
  8
UMCL2
 10
1315.5108185222971
 20
1075.5313395616899
 30
0.0
 11
1315.5108185222971
 21
1079.3044697598641
 31
0.0
  0
LINE
  5
88B
  8
UMCL2
 10
1340.5108185222971
 20
1100.5313395616911
 30
0.0
 11
1340.5108185222971
 21
1077.3044697598641
 31
0.0
  0
LINE
  5
88C
  8
UMCL2
 10
1318.0108185222971
 20
1078.3044697598641
 30
0.0
 11
1338.0108185222971
 21
1078.3044697598641
 31
0.0
  0
SOLID
  5
88D
  8
UMCL2
 10
1318.0108185222971
 20
1078.7211364265311
 30
0.0
 11
1318.0108185222971
 21
1077.8878030931969
 31
0.0
 12
1315.5108185222971
 22
1078.3044697598641
 32
0.0
 13
1315.5108185222971
 23
1078.3044697598641
 33
0.0
  0
SOLID
  5
88E
  8
UMCL2
 10
1338.0108185222971
 20
1078.7211364265311
 30
0.0
 11
1338.0108185222971
 21
1077.8878030931969
 31
0.0
 12
1340.5108185222971
 22
1078.3044697598641
 32
0.0
 13
1340.5108185222971
 23
1078.3044697598641
 33
0.0
  0
INSERT
  5
88F
  8
0
  2
*U32
 10
0.0
 20
0.0
 30
0.0
  0
LINE
  5
890
  8
UMCL2
 10
1313.5108185222971
 20
998.53133956169063
 30
0.0
 11
1349.5108185222971
 21
998.53133956169063
 31
0.0
  0
LINE
  5
891
  8
UMCL2
 10
1316.5108185222971
 20
1074.5313395616899
 30
0.0
 11
1349.5108185222971
 21
1074.5313395616899
 31
0.0
  0
LINE
  5
892
  8
UMCL2
 10
1348.5108185222971
 20
1001.0313395616899
 30
0.0
 11
1348.5108185222971
 21
1072.0313395616899
 31
0.0
  0
SOLID
  5
893
  8
UMCL2
 10
1348.0941518556299
 20
1001.0313395616899
 30
0.0
 11
1348.9274851889629
 21
1001.0313395616899
 31
0.0
 12
1348.5108185222971
 22
998.53133956169063
 32
0.0
 13
1348.5108185222971
 23
998.53133956169063
 33
0.0
  0
SOLID
  5
894
  8
UMCL2
 10
1348.0941518556299
 20
1072.0313395616899
 30
0.0
 11
1348.9274851889641
 21
1072.0313395616899
 31
0.0
 12
1348.5108185222971
 22
1074.5313395616899
 32
0.0
 13
1348.5108185222971
 23
1074.5313395616899
 33
0.0
  0
INSERT
  5
895
  8
0
  2
*U33
 10
0.0
 20
0.0
 30
0.0
  0
LINE
  5
896
  8
UMCL2
 10
1341.5108185222971
 20
1101.5313395616911
 30
0.0
 11
1349.5108185222971
 21
1101.5313395616911
 31
0.0
  0
LINE
  5
897
  8
UMCL2
 10
1341.5108185222971
 20
1112.5313395616911
 30
0.0
 11
1349.5108185222971
 21
1112.5313395616911
 31
0.0
  0
LINE
  5
898
  8
UMCL2
 10
1348.5108185222971
 20
1104.0313395616911
 30
0.0
 11
1348.5108185222971
 21
1110.0313395616899
 31
0.0
  0
SOLID
  5
899
  8
UMCL2
 10
1348.0941518556299
 20
1104.0313395616911
 30
0.0
 11
1348.9274851889641
 21
1104.0313395616911
 31
0.0
 12
1348.5108185222971
 22
1101.5313395616911
 32
0.0
 13
1348.5108185222971
 23
1101.5313395616911
 33
0.0
  0
SOLID
  5
89A
  8
UMCL2
 10
1348.0941518556299
 20
1110.0313395616899
 30
0.0
 11
1348.9274851889641
 21
1110.0313395616899
 31
0.0
 12
1348.5108185222971
 22
1112.5313395616911
 32
0.0
 13
1348.5108185222971
 23
1112.5313395616911
 33
0.0
  0
INSERT
  5
89B
  8
0
  2
*U34
 10
0.0
 20
0.0
 30
0.0
  0
LINE
  5
89C
  8
UMCL2
 10
1313.5108185222971
 20
998.53133956169063
 30
0.0
 11
1357.5108185222971
 21
998.53133956169063
 31
0.0
  0
LINE
  5
89D
  8
UMCL2
 10
1341.5108185222971
 20
1101.5313395616911
 30
0.0
 11
1357.5108185222971
 21
1101.5313395616911
 31
0.0
  0
LINE
  5
89E
  8
UMCL2
 10
1356.5108185222971
 20
1001.0313395616899
 30
0.0
 11
1356.5108185222971
 21
1099.0313395616911
 31
0.0
  0
SOLID
  5
89F
  8
UMCL2
 10
1356.0941518556299
 20
1001.0313395616899
 30
0.0
 11
1356.9274851889629
 21
1001.0313395616899
 31
0.0
 12
1356.5108185222971
 22
998.53133956169063
 32
0.0
 13
1356.5108185222971
 23
998.53133956169063
 33
0.0
  0
SOLID
  5
8A0
  8
UMCL2
 10
1356.0941518556299
 20
1099.0313395616911
 30
0.0
 11
1356.9274851889641
 21
1099.0313395616911
 31
0.0
 12
1356.5108185222971
 22
1101.5313395616911
 32
0.0
 13
1356.5108185222971
 23
1101.5313395616911
 33
0.0
  0
INSERT
  5
8A1
  8
0
  2
*U35
 10
0.0
 20
0.0
 30
0.0
  0
LINE
  5
8A2
  8
UMCL2
 10
1341.5108185222971
 20
1101.5313395616911
 30
0.0
 11
1357.5108185222971
 21
1101.5313395616911
 31
0.0
  0
LINE
  5
8A3
  8
UMCL2
 10
1326.582615292022
 20
1120.5313395616911
 30
0.0
 11
1357.5108185222971
 21
1120.5313395616911
 31
0.0
  0
LINE
  5
8A4
  8
UMCL2
 10
1356.5108185222971
 20
1104.0313395616911
 30
0.0
 11
1356.5108185222971
 21
1118.0313395616899
 31
0.0
  0
SOLID
  5
8A5
  8
UMCL2
 10
1356.0941518556299
 20
1104.0313395616911
 30
0.0
 11
1356.9274851889641
 21
1104.0313395616911
 31
0.0
 12
1356.5108185222971
 22
1101.5313395616911
 32
0.0
 13
1356.5108185222971
 23
1101.5313395616911
 33
0.0
  0
SOLID
  5
8A6
  8
UMCL2
 10
1356.0941518556299
 20
1118.0313395616899
 30
0.0
 11
1356.9274851889641
 21
1118.0313395616899
 31
0.0
 12
1356.5108185222971
 22
1120.5313395616911
 32
0.0
 13
1356.5108185222971
 23
1120.5313395616911
 33
0.0
  0
INSERT
  5
8A7
  8
0
  2
*U36
 10
0.0
 20
0.0
 30
0.0
  0
LINE
  5
8A8
  8
UMCL2
 10
1313.5108185222971
 20
998.53133956169063
 30
0.0
 11
1365.5108185222971
 21
998.53133956169063
 31
0.0
  0
LINE
  5
8A9
  8
UMCL2
 10
1326.582615292022
 20
1120.5313395616911
 30
0.0
 11
1365.5108185222971
 21
1120.5313395616911
 31
0.0
  0
LINE
  5
8AA
  8
UMCL2
 10
1364.5108185222971
 20
1001.0313395616899
 30
0.0
 11
1364.5108185222971
 21
1118.0313395616899
 31
0.0
  0
SOLID
  5
8AB
  8
UMCL2
 10
1364.0941518556299
 20
1001.0313395616899
 30
0.0
 11
1364.9274851889629
 21
1001.0313395616899
 31
0.0
 12
1364.5108185222971
 22
998.53133956169063
 32
0.0
 13
1364.5108185222971
 23
998.53133956169063
 33
0.0
  0
SOLID
  5
8AC
  8
UMCL2
 10
1364.0941518556299
 20
1118.0313395616899
 30
0.0
 11
1364.9274851889629
 21
1118.0313395616899
 31
0.0
 12
1364.5108185222971
 22
1120.5313395616911
 32
0.0
 13
1364.5108185222971
 23
1120.5313395616911
 33
0.0
  0
INSERT
  5
8AD
  8
0
  2
*U37
 10
0.0
 20
0.0
 30
0.0
  0
TEXT
  5
8AE
  8
UMCL2
  6
CONTINUOUS
 10
1333.7809538066631
 20
1157.023139111456
 30
0.0
 40
3.0
  1
4-%%C6.8 Through-hole 
  7
ROMANSS
 72
     2
 11
1386.4952395209491
 21
1158.523139111456
 31
0.0
 73
     2
  0
LINE
  5
8AF
  8
UMCL2
  6
CONTINUOUS
 10
1387.1089122074579
 20
1155.3107168483859
 30
0.0
 11
1327.5224567702371
 21
1155.3107168483859
 31
0.0
  0
TEXT
  5
8B0
  8
UMCL2
  6
CONTINUOUS
 10
1327.344797644736
 20
1150.859832622695
 30
0.0
 40
3.0
  1
Counter bore %%C10.5x6.5dp
  7
ROMANSS
 72
     2
 11
1386.344797644736
 21
1152.359832622695
 31
0.0
 73
     2
  0
LINE
  5
8B1
  8
UMCL2
 10
1327.5224567702371
 20
1155.3107168483859
 30
0.0
 11
1310.7297242053439
 21
1167.7478604000071
 31
0.0
  0
SOLID
  5
8B2
  8
UMCL2
  6
CONTINUOUS
 10
1313.424126131689
 20
1166.3371165326421
 30
0.0
 11
1312.82094423274
 21
1165.539512873685
 31
0.0
 12
1310.7297242053439
 22
1167.7478604000071
 32
0.0
 13
1310.7297242053439
 23
1167.7478604000071
 33
0.0
  0
LINE
  5
8B3
  8
UMCL2
  6
CONTINUOUS
 10
1238.1034193080141
 20
1153.2102401078721
 30
0.0
 11
1264.212436134552
 21
1153.2102401078721
 31
0.0
  0
TEXT
  5
8B4
  8
UMCL2
  6
CONTINUOUS
 10
1246.6028415190469
 20
1154.4555551363389
 30
0.0
 40
3.0
  1
P-07
  7
ROMANSS
 72
     2
 11
1258.1742700904749
 21
1155.9555551363389
 31
0.0
 73
     2
  0
LINE
  5
8B5
  8
UMCL2
 10
1264.212436134552
 20
1153.2102401078721
 30
0.0
 11
1273.75952300774
 21
1167.6975241332891
 31
0.0
  0
SOLID
  5
8B6
  8
UMCL2
  6
CONTINUOUS
 10
1271.614485266532
 20
1165.544502630647
 30
0.0
 11
1272.4293399510971
 21
1164.964837345294
 31
0.0
 12
1273.760908464875
 22
1167.699234041663
 32
0.0
 13
1273.760908464875
 23
1167.699234041663
 33
0.0
  0
TEXT
  5
8B7
  8
UMCL2
  6
CONTINUOUS
 10
1372.5438073559069
 20
1009.651703370758
 30
0.0
 40
3.0
  1
A
  7
ROMANS
  0
CIRCLE
  5
8B8
  8
UMCL2
  6
CONTINUOUS
 10
1373.9764397020581
 20
1010.898803625101
 30
0.0
 40
2.5
  0
TEXT
  5
8B9
  8
UMCL2
  6
CONTINUOUS
 10
1372.5438073559069
 20
1002.9862624651749
 30
0.0
 40
3.0
  1
B
  7
ROMANS
  0
CIRCLE
  5
8BA
  8
UMCL2
  6
CONTINUOUS
 10
1373.9764397020581
 20
1004.2333627195191
 30
0.0
 40
2.5
  0
TEXT
  5
8BB
  8
UMCL2
  6
CONTINUOUS
 10
1379.5096933100069
 20
1010.282165348595
 30
0.0
 40
3.0
  1
Clamping port
  7
ROMANSS
 72
     2
 11
1411.081121881436
 21
1011.782165348595
 31
0.0
 73
     2
  0
TEXT
  5
8BC
  8
UMCL2
  6
CONTINUOUS
 10
1379.367003179053
 20
1002.7168609737359
 30
0.0
 40
3.0
  1
Unclamping port
  7
ROMANSS
 72
     2
 11
1416.367003179053
 21
1004.2168609737359
 31
0.0
 73
     2
  0
LINE
  5
8BD
  8
UMCL2
 10
1369.6042485640651
 20
1015.60247537731
 30
0.0
 11
1418.609750625794
 21
1015.60247537731
 31
0.0
  0
LINE
  5
8BE
  8
UMCL2
 10
1418.609750625794
 20
1015.60247537731
 30
0.0
 11
1418.609750625794
 21
999.80159119116934
 31
0.0
  0
LINE
  5
8BF
  8
UMCL2
 10
1418.609750625794
 20
999.80159119116934
 30
0.0
 11
1369.6042485640651
 21
999.80159119116934
 31
0.0
  0
LINE
  5
8C0
  8
UMCL2
 10
1369.6042485640651
 20
999.80159119116934
 30
0.0
 11
1369.6042485640651
 21
1015.60247537731
 31
0.0
  0
LINE
  5
8C1
  8
UMCL2
 10
1286.662719552816
 20
1111.9921333043269
 30
0.0
 11
1284.3589174917779
 21
1110.0705458190539
 31
0.0
  0
INSERT
  5
8C2
  8
0
  2
*U38
 10
0.0
 20
0.0
 30
0.0
  0
SOLID
  5
8C3
  8
UMCL2
 10
1286.3958324376681
 20
1112.312105770141
 30
0.0
 11
1286.9296066679631
 21
1111.672160838513
 31
0.0
 12
1288.5825543477031
 22
1113.593455995212
 32
0.0
 13
1288.5825543477031
 23
1113.593455995212
 33
0.0
  0
SOLID
  5
8C4
  8
UMCL2
 10
1284.0920303766311
 20
1110.3905182848689
 30
0.0
 11
1284.6258046069249
 21
1109.75057335324
 31
0.0
 12
1282.4390826968911
 22
1108.4692231281699
 32
0.0
 13
1282.4390826968911
 23
1108.4692231281699
 33
0.0
  0
LINE
  5
8C5
  8
UMCL2
 10
1288.5825543477031
 20
1113.5934559952109
 30
0.0
 11
1272.064489399449
 21
1100.6367695580291
 31
0.0
  0
LINE
  5
8C6
  8
UMCL1
  6
HIDDEN
 62
     6
 10
1294.0108189724299
 20
1120.531339316612
 30
0.0
 11
1291.0108191733609
 21
1123.5313395616911
 31
0.0
  0
LINE
  5
8C7
  8
UMCL1
  6
HIDDEN
 62
     6
 10
1280.0108183220309
 20
1123.5313395616911
 30
0.0
 11
1277.0108180724301
 21
1120.53133931209
 31
0.0
  0
LINE
  5
8C8
  8
UMCL1
  6
HIDDEN
 62
     6
 10
1280.0108183220309
 20
1123.5313395616911
 30
0.0
 11
1291.0108191733609
 21
1123.5313395616911
 31
0.0
  0
LINE
  5
8C9
  8
UMCL2
 10
1279.0108183220309
 20
1123.5313395616911
 30
0.0
 11
1267.2445934817879
 21
1123.5313395616911
 31
0.0
  0
LINE
  5
8CA
  8
UMCL2
 10
1275.5108185222971
 20
1120.5313395616911
 30
0.0
 11
1267.2445934817879
 21
1120.5313395616911
 31
0.0
  0
LINE
  5
8CB
  8
UMCL2
 10
1268.2445934817879
 20
1126.0313395616899
 30
0.0
 11
1268.2445934817879
 21
1128.5313395616911
 31
0.0
  0
LINE
  5
8CC
  8
UMCL2
 10
1268.2445934817879
 20
1118.0313395616899
 30
0.0
 11
1268.2445934817879
 21
1115.5313395616911
 31
0.0
  0
TEXT
  5
8CD
  8
UMCL2
 10
1265.7445934817879
 20
1120.6027681331191
 30
0.0
 40
3.0
  1
3
 50
90.0
  0
LINE
  5
8CE
  8
UMCL2
 10
1268.2445934817879
 20
1123.5313395616911
 30
0.0
 11
1268.2445934817879
 21
1120.5313395616911
 31
0.0
  0
SOLID
  5
8CF
  8
UMCL2
 10
1267.8279268151209
 20
1126.0313395616899
 30
0.0
 11
1268.6612601484539
 21
1126.0313395616899
 31
0.0
 12
1268.2445934817879
 22
1123.5313395616911
 32
0.0
 13
1268.2445934817879
 23
1123.5313395616911
 33
0.0
  0
SOLID
  5
8D0
  8
UMCL2
 10
1267.8279268151209
 20
1118.0313395616899
 30
0.0
 11
1268.6612601484539
 21
1118.0313395616899
 31
0.0
 12
1268.2445934817879
 22
1120.5313395616911
 32
0.0
 13
1268.2445934817879
 23
1120.5313395616911
 33
0.0
  0
TEXT
  5
8D1
  8
UMCL2
 10
1259.390058230513
 20
1105.174196704548
 30
0.0
 40
3.0
  1
Raise clearnce
 50
90.0
  0
LINE
  5
8D2
  8
UMCL2
 10
1259.9187521997151
 20
1105.315604925642
 30
0.0
 11
1259.9187521997151
 21
1138.4469596322219
 31
0.0
  0
LINE
  5
8D3
  8
UMCL2
 10
1260.9187521997151
 20
1105.315604925642
 30
0.0
 11
1260.9187521997151
 21
1138.4469596322219
 31
0.0
  0
LINE
  5
8D4
  8
UMCL2
 10
1275.5108185222971
 20
1196.3724939525309
 30
0.0
 11
1251.8983622648291
 21
1196.3724939525309
 31
0.0
  0
LINE
  5
8D5
  8
UMCL2
 10
1275.5108185222971
 20
1187.3724939525309
 30
0.0
 11
1251.8983622648291
 21
1187.3724939525309
 31
0.0
  0
LINE
  5
8D6
  8
UMCL2
 10
1252.8983622648291
 20
1193.8724939525309
 30
0.0
 11
1252.8983622648291
 21
1189.8724939525309
 31
0.0
  0
SOLID
  5
8D7
  8
UMCL2
 10
1252.4816955981621
 20
1193.8724939525309
 30
0.0
 11
1253.3150289314949
 21
1193.8724939525309
 31
0.0
 12
1252.8983622648291
 22
1196.3724939525309
 32
0.0
 13
1252.8983622648291
 23
1196.3724939525309
 33
0.0
  0
SOLID
  5
8D8
  8
UMCL2
 10
1252.4816955981621
 20
1189.8724939525309
 30
0.0
 11
1253.3150289314949
 21
1189.8724939525309
 31
0.0
 12
1252.8983622648291
 22
1187.3724939525309
 32
0.0
 13
1252.8983622648291
 23
1187.3724939525309
 33
0.0
  0
INSERT
  5
8D9
  8
0
  2
*U39
 10
0.0
 20
0.0
 30
0.0
  0
CIRCLE
  5
8DA
  8
UMCL1
  6
HIDDEN
 62
     3
 10
1276.5108185222971
 20
1171.87249395253
 30
0.0
 40
2.5
  0
CIRCLE
  5
8DB
  8
UMCL1
  6
HIDDEN
 62
     3
 10
1276.5108185222971
 20
1171.87249395253
 30
0.0
 40
5.0
  0
CIRCLE
  5
8DC
  8
UMCL1
  6
HIDDEN
 62
     3
 10
1294.5108185222971
 20
1171.87249395253
 30
0.0
 40
2.5
  0
CIRCLE
  5
8DD
  8
UMCL1
  6
HIDDEN
 62
     3
 10
1294.5108185222971
 20
1171.87249395253
 30
0.0
 40
5.0
  0
LINE
  5
8DE
  8
UMCL1
  6
CENTER1
 62
     1
 10
1288.7108185222969
 20
1171.87249395253
 30
0.0
 11
1292.9108185222969
 21
1171.87249395253
 31
0.0
  0
LINE
  5
8DF
  8
UMCL1
  6
CENTER1
 62
     1
 10
1293.7108185222969
 20
1171.87249395253
 30
0.0
 11
1295.310818522297
 21
1171.87249395253
 31
0.0
  0
LINE
  5
8E0
  8
UMCL1
  6
CENTER1
 62
     1
 10
1296.110818522297
 20
1171.87249395253
 30
0.0
 11
1300.310818522297
 21
1171.87249395253
 31
0.0
  0
LINE
  5
8E1
  8
UMCL1
  6
CENTER1
 62
     1
 10
1294.5108185222971
 20
1166.072493952531
 30
0.0
 11
1294.5108185222971
 21
1170.2724939525301
 31
0.0
  0
LINE
  5
8E2
  8
UMCL1
  6
CENTER1
 62
     1
 10
1294.5108185222971
 20
1171.0724939525301
 30
0.0
 11
1294.5108185222971
 21
1172.67249395253
 31
0.0
  0
LINE
  5
8E3
  8
UMCL1
  6
CENTER1
 62
     1
 10
1294.5108185222971
 20
1173.4724939525299
 30
0.0
 11
1294.5108185222971
 21
1177.67249395253
 31
0.0
  0
LINE
  5
8E4
  8
UMCL1
  6
CENTER1
 62
     1
 10
1270.7108185222969
 20
1171.87249395253
 30
0.0
 11
1274.9108185222969
 21
1171.87249395253
 31
0.0
  0
LINE
  5
8E5
  8
UMCL1
  6
CENTER1
 62
     1
 10
1275.7108185222969
 20
1171.87249395253
 30
0.0
 11
1277.310818522297
 21
1171.87249395253
 31
0.0
  0
LINE
  5
8E6
  8
UMCL1
  6
CENTER1
 62
     1
 10
1278.110818522297
 20
1171.87249395253
 30
0.0
 11
1282.310818522297
 21
1171.87249395253
 31
0.0
  0
LINE
  5
8E7
  8
UMCL1
  6
CENTER1
 62
     1
 10
1276.5108185222971
 20
1166.072493952531
 30
0.0
 11
1276.5108185222971
 21
1170.2724939525301
 31
0.0
  0
LINE
  5
8E8
  8
UMCL1
  6
CENTER1
 62
     1
 10
1276.5108185222971
 20
1171.0724939525301
 30
0.0
 11
1276.5108185222971
 21
1172.67249395253
 31
0.0
  0
LINE
  5
8E9
  8
UMCL1
  6
CENTER1
 62
     1
 10
1276.5108185222971
 20
1173.4724939525299
 30
0.0
 11
1276.5108185222971
 21
1177.67249395253
 31
0.0
  0
LINE
  5
8EA
  8
UMCL2
 10
1276.5108185222971
 20
1165.0724939525301
 30
0.0
 11
1276.5108185222971
 21
1154.256073968475
 31
0.0
  0
LINE
  5
8EB
  8
UMCL2
 10
1294.5108185222971
 20
1165.0724939525301
 30
0.0
 11
1294.5108185222971
 21
1154.256073968475
 31
0.0
  0
LINE
  5
8EC
  8
UMCL2
 10
1279.0108185222971
 20
1155.256073968475
 30
0.0
 11
1292.0108185222971
 21
1155.256073968475
 31
0.0
  0
SOLID
  5
8ED
  8
UMCL2
 10
1279.0108185222971
 20
1155.672740635142
 30
0.0
 11
1279.0108185222971
 21
1154.8394073018089
 31
0.0
 12
1276.5108185222971
 22
1155.256073968475
 32
0.0
 13
1276.5108185222971
 23
1155.256073968475
 33
0.0
  0
SOLID
  5
8EE
  8
UMCL2
 10
1292.0108185222971
 20
1155.672740635142
 30
0.0
 11
1292.0108185222971
 21
1154.8394073018089
 31
0.0
 12
1294.5108185222971
 22
1155.256073968475
 32
0.0
 13
1294.5108185222971
 23
1155.256073968475
 33
0.0
  0
INSERT
  5
8EF
  8
0
  2
*U40
 10
0.0
 20
0.0
 30
0.0
  0
TEXT
  5
8F0
  8
UMCL2
  6
CONTINUOUS
 10
1244.466170122465
 20
1148.788814869403
 30
0.0
 40
3.0
  1
O-Ring
  7
ROMANSS
 72
     2
 11
1259.8947415510361
 21
1150.288814869403
 31
0.0
 73
     2
  0
LINE
  5
8F1
  8
UMCL1
  6
HIDDEN
 62
     3
 10
1271.5108185222971
 20
998.53133956169017
 30
0.0
 11
1271.5108185222971
 21
999.93133956169027
 31
0.0
  0
LINE
  5
8F2
  8
UMCL1
  6
HIDDEN
 62
     3
 10
1271.5108185222971
 20
999.93133956169027
 30
0.0
 11
1281.5108185222971
 21
999.93133956169027
 31
0.0
  0
LINE
  5
8F3
  8
UMCL1
  6
HIDDEN
 62
     3
 10
1281.5108185222971
 20
999.93133956169027
 30
0.0
 11
1281.5108185222971
 21
998.53133956169017
 31
0.0
  0
LINE
  5
8F4
  8
UMCL1
  6
HIDDEN
 62
     3
 10
1279.0108185222971
 20
999.93133956169027
 30
0.0
 11
1279.0108185222971
 21
1048.5313395616899
 31
0.0
  0
LINE
  5
8F5
  8
UMCL1
  6
HIDDEN
 62
     3
 10
1274.0108185222971
 20
999.93133956169027
 30
0.0
 11
1274.0108185222971
 21
1048.5313395616899
 31
0.0
  0
LINE
  5
8F6
  8
UMCL1
  6
HIDDEN
 62
     3
 10
1289.5108185222971
 20
998.53133956169017
 30
0.0
 11
1289.5108185222971
 21
999.93133956169027
 31
0.0
  0
LINE
  5
8F7
  8
UMCL1
  6
HIDDEN
 62
     3
 10
1289.5108185222971
 20
999.93133956169027
 30
0.0
 11
1299.5108185222971
 21
999.93133956169015
 31
0.0
  0
LINE
  5
8F8
  8
UMCL1
  6
HIDDEN
 62
     3
 10
1299.5108185222971
 20
999.93133956169015
 30
0.0
 11
1299.5108185222971
 21
998.53133956169017
 31
0.0
  0
LINE
  5
8F9
  8
UMCL1
  6
HIDDEN
 62
     3
 10
1297.0108185222971
 20
999.93133956169015
 30
0.0
 11
1297.0108185222971
 21
1015.5313395616899
 31
0.0
  0
LINE
  5
8FA
  8
UMCL1
  6
HIDDEN
 62
     3
 10
1292.0108185222971
 20
999.93133956169015
 30
0.0
 11
1292.0108185222971
 21
1015.5313395616899
 31
0.0
  0
POLYLINE
  5
8FB
  8
UMCL1
  6
CONTINUOUS
 66
     1
 10
0.0
 20
0.0
 30
0.0
 70
     1
  0
VERTEX
  5
AE4
  8
UMCL1
  6
CONTINUOUS
 10
1295.3768439260821
 20
1017.0313395616899
 30
0.0
  0
VERTEX
  5
AE5
  8
UMCL1
  6
CONTINUOUS
 10
1293.644793118513
 20
1017.0313395616899
 30
0.0
  0
VERTEX
  5
AE6
  8
UMCL1
  6
CONTINUOUS
 10
1292.7787677147289
 20
1015.5313395616899
 30
0.0
  0
VERTEX
  5
AE7
  8
UMCL1
  6
CONTINUOUS
 10
1293.644793118513
 20
1014.0313395616899
 30
0.0
  0
VERTEX
  5
AE8
  8
UMCL1
  6
CONTINUOUS
 10
1295.3768439260821
 20
1014.0313395616899
 30
0.0
  0
VERTEX
  5
AE9
  8
UMCL1
  6
CONTINUOUS
 10
1296.2428693298659
 20
1015.5313395616899
 30
0.0
  0
SEQEND
  5
AEA
  8
UMCL1
  6
CONTINUOUS
  0
POLYLINE
  5
8FC
  8
UMCL1
  6
CONTINUOUS
 66
     1
 10
0.0
 20
0.0
 30
0.0
 70
     1
  0
VERTEX
  5
AEB
  8
UMCL1
  6
CONTINUOUS
 10
1277.3768439260821
 20
1050.0313395616899
 30
0.0
  0
VERTEX
  5
AEC
  8
UMCL1
  6
CONTINUOUS
 10
1275.644793118513
 20
1050.0313395616899
 30
0.0
  0
VERTEX
  5
AED
  8
UMCL1
  6
CONTINUOUS
 10
1274.778767714728
 20
1048.5313395616899
 30
0.0
  0
VERTEX
  5
AEE
  8
UMCL1
  6
CONTINUOUS
 10
1275.644793118513
 20
1047.0313395616899
 30
0.0
  0
VERTEX
  5
AEF
  8
UMCL1
  6
CONTINUOUS
 10
1277.3768439260821
 20
1047.0313395616899
 30
0.0
  0
VERTEX
  5
AF0
  8
UMCL1
  6
CONTINUOUS
 10
1278.2428693298659
 20
1048.5313395616899
 30
0.0
  0
SEQEND
  5
AF1
  8
UMCL1
  6
CONTINUOUS
  0
LINE
  5
8FD
  8
UMCL2
 10
1255.5108185222971
 20
1191.8724939525309
 30
0.0
 11
1254.508901675501
 21
1191.8724939525309
 31
0.0
  0
LINE
  5
8FE
  8
UMCL2
 10
1248.149791616929
 20
1191.8724939525309
 30
0.0
 11
1243.659366397254
 21
1191.8724939525309
 31
0.0
  0
LINE
  5
8FF
  8
UMCL2
 10
1269.7108185222969
 20
1171.87249395253
 30
0.0
 11
1243.659366397254
 21
1171.87249395253
 31
0.0
  0
LINE
  5
900
  8
UMCL2
 10
1244.659366397254
 20
1189.3724939525309
 30
0.0
 11
1244.659366397254
 21
1174.37249395253
 31
0.0
  0
SOLID
  5
901
  8
UMCL2
 10
1244.2426997305879
 20
1189.3724939525309
 30
0.0
 11
1245.0760330639209
 21
1189.3724939525309
 31
0.0
 12
1244.659366397254
 22
1191.8724939525309
 32
0.0
 13
1244.659366397254
 23
1191.8724939525309
 33
0.0
  0
SOLID
  5
902
  8
UMCL2
 10
1244.2426997305879
 20
1174.37249395253
 30
0.0
 11
1245.0760330639209
 21
1174.37249395253
 31
0.0
 12
1244.659366397254
 22
1171.87249395253
 32
0.0
 13
1244.659366397254
 23
1171.87249395253
 33
0.0
  0
INSERT
  5
903
  8
0
  2
*U41
 10
0.0
 20
0.0
 30
0.0
  0
TEXT
  5
904
  8
UMCL1
  6
CONTINUOUS
 10
1212.194456974383
 20
1228.926419388323
 30
0.0
 40
5.0
  1
MHCK-25-F
  0
TEXT
  5
905
  8
UMCL1
  6
CONTINUOUS
 10
1431.8351878619251
 20
1229.2028555627071
 30
0.0
 40
5.0
  1
MHCK-25
  0
TEXT
  5
906
  8
LOGO
 62
     7
 10
1263.6306010508431
 20
974.83485442959295
 30
0.0
 40
4.2643185611669976
  1
Order example:
 41
0.8
  7
CHINESET
  0
TEXT
  5
907
  8
LOGO
 62
     7
 10
1264.395655065196
 20
980.83813202529188
 30
0.0
 40
6.3964778417504968
  1
訂購代號：
  7
CHINESET
  0
LINE
  5
908
  8
LOGO
 62
     4
 10
1261.777740172279
 20
956.8634057063382
 30
0.0
 11
1261.777740172279
 21
988.84579491509089
 31
0.0
  0
TEXT
  5
909
  8
LOGO
  6
CONTINUOUS
 10
1202.9047018804281
 20
963.14629780076405
 30
0.0
 40
4.7973583813128737
  1
金器工業股份有限公司
  7
CHINESET
  0
TEXT
  5
90A
  8
LOGO
  6
CONTINUOUS
 10
1194.092903644507
 20
958.34799951333594
 30
0.0
 40
3.198238920875248
  1
MINDMAN INDUSTRIAL CO., LTD.
 41
0.85
  7
CHINESET
  0
LINE
  5
90B
  8
LOGO
 62
     4
 10
1261.777740172279
 20
982.44931707334024
 30
0.0
 11
1214.8702359994411
 21
982.44931707334024
 31
0.0
  0
LINE
  5
90C
  8
LOGO
 62
     4
 10
1261.777740172279
 20
976.0528392315897
 30
0.0
 11
1214.8702359994411
 21
976.0528392315897
 31
0.0
  0
LINE
  5
90D
  8
LOGO
 62
     4
 10
1261.777740172279
 20
969.65636138983962
 30
0.0
 11
1191.4164839130231
 21
969.65636138983962
 31
0.0
  0
LINE
  5
90E
  8
LOGO
 62
     4
 10
1214.8702359994411
 20
969.65636138983962
 30
0.0
 11
1214.8702359994411
 21
988.84579491509089
 31
0.0
  0
TEXT
  5
90F
  8
LOGO
 10
1246.9293011011021
 20
971.25548085027685
 30
0.0
 40
3.198238920875248
  1
mm
  7
CHINESET
 72
     1
 11
1250.8890254793289
 21
972.85460031071443
 31
0.0
 73
     2
  0
TEXT
  5
910
  8
LOGO
 10
1245.25403309493
 20
984.04843653377793
 30
0.0
 40
3.198238920875248
  1
1 : 1
  7
CHINESET
 72
     1
 11
1250.8890254793289
 21
985.6475559942154
 31
0.0
 73
     2
  0
LINE
  5
911
  8
LOGO
 62
     4
 10
1240.456147366443
 20
969.65636138983962
 30
0.0
 11
1240.456147366443
 21
988.84579491509089
 31
0.0
  0
TEXT
  5
912
  8
LOGO
 10
1217.5073553239311
 20
984.05001047025473
 30
209.60731008333369
 40
3.198238920875248
  1
比例 Scale:
 41
0.9
  7
CHINESET
 72
     4
 11
1227.6631916829431
 21
985.6475559942154
 31
209.60731008333369
  0
TEXT
  5
913
  8
LOGO
 10
1217.323171028934
 20
977.69694704298945
 30
209.60731008333369
 40
3.198238920875248
  1
投影  View:
 41
0.9
  7
CHINESET
 72
     4
 11
1227.6631916829431
 21
979.25107815246486
 31
209.60731008333369
  0
TEXT
  5
914
  8
LOGO
 10
1217.635855994859
 20
971.25548085027685
 30
209.60731008333369
 40
3.198238920875248
  1
單位  Unit:
 41
0.9
  7
CHINESET
 72
     4
 11
1227.6631916829431
 21
972.85460031071443
 31
209.60731008333369
  0
POLYLINE
  5
915
  8
LOGO
 62
     4
 66
     1
 10
0.0
 20
0.0
 30
0.0
 70
     1
1001
GENIUS_GENREC_14
1002
{
1000
PYDIR
1011
1191.4164839130231
1021
-1048576.0009918213
1031
0.0
1021
1249.054534243201
1031
0.0
1002
}
1002
{
1000
PXDIR
1011
1660.5018576237169
1021
-1048576.0009918213
1031
0.0
1021
988.84579491509089
1031
0.0
1002
}
1002
{
1000
PORI
1011
1191.4164839130231
1021
-1048576.0009918213
1031
0.0
1021
988.84579491509089
1031
0.0
1002
}
1002
{
1000
PINS
1011
1191.4164839130231
1021
-1048576.0009918213
1031
0.0
1021
988.84579491509089
1031
0.0
1002
}
1002
{
1000
PINS2
1011
1660.5018576237169
1021
-1048576.0009918213
1031
0.0
1021
1249.054534243201
1031
0.0
1002
}
1002
{
1000
C
1070
     1
1002
}
1001
GENIUS_GENODEF_13
1002
{
1000
HIER
1070
     0
1002
}
1002
{
1000
MANEDIT
1070
     0
1002
}
1002
{
1000
NOSEL
1070
     0
1002
}
1002
{
1000
BEHIND
1070
     0
1002
}
1002
{
1000
OTHER
1070
     0
1002
}
1002
{
1000
REACTOR
1002
}
1001
GENIUS_GENOBJ-N-REC_13
1002
{
1000
OWNER
1000
GEN
1002
}
  0
VERTEX
  5
AF6
  8
LOGO
 62
     4
 10
1191.4164839130231
 20
988.84579491509089
 30
0.0
  0
VERTEX
  5
AF7
  8
LOGO
 62
     4
 10
1660.5018576237169
 20
988.84579491509089
 30
0.0
  0
VERTEX
  5
AF8
  8
LOGO
 62
     4
 10
1660.5018576237169
 20
1249.054534243201
 30
0.0
  0
VERTEX
  5
AF9
  8
LOGO
 62
     4
 10
1191.4164839130231
 20
1249.054534243201
 30
0.0
  0
SEQEND
  5
AFA
  8
LOGO
 62
     4
  0
SOLID
  5
916
  8
LOGO
 62
     5
 10
1194.734708121262
 20
974.97297836233167
 30
0.0
 11
1196.117542708859
 21
974.97297836233145
 31
0.0
 12
1201.88730081573
 22
988.08606496885704
 32
0.0
 13
1203.2701354033279
 23
988.08606496885625
 33
0.0
  0
SOLID
  5
917
  8
LOGO
 62
     5
 10
1196.689750124418
 20
974.97297836233167
 30
0.0
 11
1198.072584712015
 21
974.97297836233167
 31
0.0
 12
1203.2701354033279
 22
987.03701804033426
 32
0.0
 13
1201.88730081573
 23
981.96662455247781
 33
0.0
  0
SOLID
  5
918
  8
LOGO
 62
     2
 10
1196.117542708859
 20
974.97297836233145
 30
0.0
 11
1196.689750124418
 21
974.97297836233167
 31
0.0
 12
1203.2701354033279
 22
988.08606496885625
 32
0.0
 13
1203.842342818886
 23
988.08606496885625
 33
0.0
  0
SOLID
  5
919
  8
LOGO
 62
     5
 10
1192.5176851647641
 20
970.20458323268667
 30
0.0
 11
1192.994524677729
 21
970.20458323268667
 31
0.0
 12
1194.337341860459
 22
972.58878079750912
 32
0.0
 13
1194.8141813734219
 23
972.58878079750912
 33
0.0
  0
SOLID
  5
91A
  8
LOGO
 62
     5
 10
1194.337341860459
 20
972.58878079750912
 30
0.0
 11
1194.8141813734219
 21
972.58878079750912
 31
0.0
 12
1194.337341860459
 22
970.20458323268667
 32
0.0
 13
1194.8141813734219
 23
970.20458323268667
 33
0.0
  0
SOLID
  5
91B
  8
LOGO
 62
     5
 10
1194.337341860459
 20
970.20458323268667
 30
0.0
 11
1194.8141813734219
 21
970.20458323268667
 31
0.0
 12
1196.156998556153
 22
972.58878079750912
 32
0.0
 13
1196.6338380691179
 23
972.58878079750912
 33
0.0
  0
SOLID
  5
91C
  8
LOGO
 62
     5
 10
1196.156998556153
 20
972.58878079750912
 30
0.0
 11
1196.6338380691179
 21
972.58878079750912
 31
0.0
 12
1196.156998556153
 22
970.20458323268667
 32
0.0
 13
1196.6338380691179
 23
970.20458323268667
 33
0.0
  0
POLYLINE
  5
91D
  8
LOGO
 62
     5
 66
     1
 10
0.0
 20
0.0
 30
0.0
 40
0.477603678850704
 41
0.477603678850704
  0
VERTEX
  5
91E
  8
LOGO
 62
     5
 10
1212.1404965932979
 20
971.63510177158014
 30
0.0
 42
1.0
  0
VERTEX
  5
91F
  8
LOGO
 62
     5
 10
1210.7076855567459
 20
971.63510177158014
 30
0.0
 42
1.0
  0
SEQEND
  5
920
  8
LOGO
 62
     5
  0
POLYLINE
  5
921
  8
LOGO
 62
     5
 66
     1
 10
0.0
 20
0.0
 30
0.0
 70
     1
  0
VERTEX
  5
922
  8
LOGO
 62
     5
 10
1208.0067730214089
 20
971.39668201509733
 30
0.0
 42
1.0000000573306349
  0
VERTEX
  5
923
  8
LOGO
 62
     5
 10
1209.437291560303
 20
971.39668201509733
 30
0.0
 42
1.0000000573306349
  0
SEQEND
  5
924
  8
LOGO
 62
     5
  0
CIRCLE
  5
925
  8
LOGO
 62
     5
 10
1208.722032290857
 20
971.39668201509733
 30
0.0
 40
0.7152592694468146
  0
POLYLINE
  5
926
  8
LOGO
 62
     5
 66
     1
 10
0.0
 20
0.0
 30
0.0
 70
     1
 40
0.477603678850704
 41
0.477603678850704
  0
VERTEX
  5
927
  8
LOGO
 62
     5
 10
1207.766824933155
 20
971.39668201509733
 30
0.0
 42
1.0
  0
VERTEX
  5
928
  8
LOGO
 62
     5
 10
1209.677239648558
 20
971.39668201509733
 30
0.0
 42
1.0
  0
SEQEND
  5
929
  8
LOGO
 62
     5
  0
LINE
  5
92A
  8
LOGO
 10
1212.3777701009501
 20
970.20458323268667
 30
0.0
 11
1212.3777701009501
 21
971.63510177158014
 31
0.0
  0
SOLID
  5
92B
  8
LOGO
 62
     5
 10
1209.4372438763539
 20
972.58878079750912
 30
0.0
 11
1209.9140833893171
 21
972.58878079750912
 31
0.0
 12
1209.4372438763539
 22
970.20458323268667
 32
0.0
 13
1209.9140833893171
 23
970.20458323268667
 33
0.0
  0
SOLID
  5
92C
  8
LOGO
 62
     5
 10
1210.4704120490919
 20
970.20458323268667
 30
0.0
 11
1210.9472515620571
 21
970.20458323268667
 31
0.0
 12
1210.4704120490919
 22
972.58878079750912
 32
0.0
 13
1210.9472515620571
 23
972.58878079750912
 33
0.0
  0
SOLID
  5
92D
  8
LOGO
 62
     5
 10
1211.9009305879861
 20
971.63510177158014
 30
0.0
 11
1212.3777701009501
 21
971.63510177158014
 31
0.0
 12
1211.9009305879861
 22
970.20458323268667
 32
0.0
 13
1212.3777701009501
 23
970.20458323268667
 33
0.0
  0
SOLID
  5
92E
  8
LOGO
 62
     5
 10
1210.422728097795
 20
987.03701804033426
 30
0.0
 11
1209.0398935101989
 21
981.96662455247781
 31
0.0
 12
1210.422728097795
 22
974.97297836233145
 32
0.0
 13
1209.0398935101989
 23
974.97297836233145
 33
0.0
  0
SOLID
  5
92F
  8
LOGO
 62
     5
 10
1210.994935513354
 20
974.97297836233145
 30
0.0
 11
1212.3777701009501
 21
974.97297836233145
 31
0.0
 12
1210.994935513354
 22
988.08606496885625
 32
0.0
 13
1212.3777701009501
 23
988.08606496885704
 33
0.0
  0
SOLID
  5
930
  8
LOGO
 62
     2
 10
1210.422728097795
 20
988.08606496885704
 30
0.0
 11
1210.994935513354
 21
988.08606496885625
 31
0.0
 12
1210.422728097795
 22
974.97297836233145
 32
0.0
 13
1210.994935513354
 23
974.97297836233145
 33
0.0
  0
POLYLINE
  5
931
  8
LOGO
 62
     5
 66
     1
 10
0.0
 20
0.0
 30
0.0
 40
0.477603678850704
 41
0.477603678850704
  0
VERTEX
  5
932
  8
LOGO
 62
     5
 10
1205.3057651181721
 20
971.63510177158014
 30
0.0
 42
1.0
  0
VERTEX
  5
933
  8
LOGO
 62
     5
 10
1203.87295408162
 20
971.63510177158014
 30
0.0
 42
1.0
  0
SEQEND
  5
934
  8
LOGO
 62
     5
  0
POLYLINE
  5
935
  8
LOGO
 62
     5
 66
     1
 10
0.0
 20
0.0
 30
0.0
 40
0.477603678850704
 41
0.477603678850704
  0
VERTEX
  5
936
  8
LOGO
 62
     5
 10
1206.736283657064
 20
971.63510177158014
 30
0.0
 42
1.0
  0
VERTEX
  5
937
  8
LOGO
 62
     5
 10
1205.303472620513
 20
971.63510177158014
 30
0.0
 42
1.0
  0
SEQEND
  5
938
  8
LOGO
 62
     5
  0
POLYLINE
  5
939
  8
LOGO
 62
     5
 66
     1
 10
0.0
 20
0.0
 30
0.0
 40
0.477603678850704
 41
0.477603678850704
  0
VERTEX
  5
93A
  8
LOGO
 62
     5
 10
1199.9015521819381
 20
971.63510177158014
 30
0.0
 42
1.0
  0
VERTEX
  5
93B
  8
LOGO
 62
     5
 10
1198.468741145387
 20
971.63510177158014
 30
0.0
 42
1.0
  0
SEQEND
  5
93C
  8
LOGO
 62
     5
  0
SOLID
  5
93D
  8
LOGO
 62
     5
 10
1198.2314676377341
 20
972.58878079750912
 30
0.0
 11
1198.708307150697
 21
972.58878079750912
 31
0.0
 12
1198.2314676377341
 22
970.20458323268667
 32
0.0
 13
1198.708307150697
 23
970.20458323268667
 33
0.0
  0
SOLID
  5
93E
  8
LOGO
 62
     5
 10
1199.661986176628
 20
971.63510177158014
 30
0.0
 11
1200.138825689593
 21
971.63510177158014
 31
0.0
 12
1199.661986176628
 22
970.20458323268667
 32
0.0
 13
1200.138825689593
 23
970.20458323268667
 33
0.0
  0
POLYLINE
  5
93F
  8
LOGO
 62
     5
 66
     1
 10
0.0
 20
0.0
 30
0.0
 70
     1
 40
0.477603678850704
 41
0.477603678850704
  0
VERTEX
  5
940
  8
LOGO
 62
     5
 10
1200.932093458028
 20
971.39668201509733
 30
0.0
 42
1.0
  0
VERTEX
  5
941
  8
LOGO
 62
     5
 10
1202.842508173432
 20
971.39668201509733
 30
0.0
 42
1.0
  0
SEQEND
  5
942
  8
LOGO
 62
     5
  0
SOLID
  5
943
  8
LOGO
 62
     5
 10
1202.6025124012269
 20
973.30404006695619
 30
0.0
 11
1203.079351914191
 21
973.30404006695619
 31
0.0
 12
1202.6025124012269
 22
970.20458323268667
 32
0.0
 13
1203.079351914191
 23
970.20458323268667
 33
0.0
  0
SOLID
  5
944
  8
LOGO
 62
     5
 10
1203.6356805739681
 20
972.58878079750912
 30
0.0
 11
1204.112520086931
 21
972.58878079750912
 31
0.0
 12
1203.6356805739681
 22
970.20458323268667
 32
0.0
 13
1204.112520086931
 23
970.20458323268667
 33
0.0
  0
SOLID
  5
945
  8
LOGO
 62
     5
 10
1205.0661991128591
 20
971.63510177158014
 30
0.0
 11
1205.5430386258249
 21
971.63510177158014
 31
0.0
 12
1205.0661991128591
 22
970.20458323268667
 32
0.0
 13
1205.5430386258249
 23
970.20458323268667
 33
0.0
  0
SOLID
  5
946
  8
LOGO
 62
     5
 10
1206.4967176517539
 20
971.63510177158014
 30
0.0
 11
1206.9735571647179
 21
971.63510177158014
 31
0.0
 12
1206.4967176517539
 22
970.20458323268588
 32
0.0
 13
1206.9735571647179
 23
970.20458323268588
 33
0.0
  0
SOLID
  5
947
  8
LOGO
 62
     5
 10
1197.1982994649929
 20
972.92256845658449
 30
0.0
 11
1197.675138977959
 21
972.92256845658449
 31
0.0
 12
1197.1982994649929
 22
973.30404006695619
 32
0.0
 13
1197.675138977959
 23
973.30404006695619
 33
0.0
  0
SOLID
  5
948
  8
LOGO
 62
     5
 10
1197.1982994649929
 20
972.58878079750912
 30
0.0
 11
1197.675138977959
 21
972.58878079750912
 31
0.0
 12
1197.1982994649929
 22
970.20458323268588
 32
0.0
 13
1197.675138977959
 23
970.20458323268667
 33
0.0
  0
SOLID
  5
949
  8
LOGO
 62
     5
 10
1201.88730081573
 20
974.97297836233167
 30
0.0
 11
1203.2701354033279
 21
974.97297836233167
 31
0.0
 12
1201.88730081573
 22
981.96662455247781
 32
0.0
 13
1203.2701354033279
 23
987.03701804033426
 33
0.0
  0
SOLID
  5
94A
  8
LOGO
 62
     5
 10
1203.842342818886
 20
988.08606496885625
 30
0.0
 11
1205.225177406483
 21
988.08606496885704
 31
0.0
 12
1203.842342818886
 22
976.02202529085366
 32
0.0
 13
1205.225177406483
 23
981.09241877871034
 33
0.0
  0
SOLID
  5
94B
  8
LOGO
 62
     2
 10
1203.2701354033279
 20
988.08606496885625
 30
0.0
 11
1203.842342818886
 21
988.08606496885625
 31
0.0
 12
1203.2701354033279
 22
974.97297836233167
 32
0.0
 13
1203.842342818886
 23
974.97297836233167
 33
0.0
  0
SOLID
  5
94C
  8
LOGO
 62
     5
 10
1203.842342818886
 20
976.02202529085366
 30
0.0
 11
1205.225177406483
 21
981.09241877871034
 31
0.0
 12
1210.422728097795
 22
988.08606496885704
 32
0.0
 13
1209.0398935101989
 23
988.08606496885704
 33
0.0
  0
SOLID
  5
94D
  8
LOGO
 62
     5
 10
1203.842342818886
 20
974.97297836233167
 30
0.0
 11
1205.225177406483
 21
974.97297836233167
 31
0.0
 12
1210.422728097795
 22
987.03701804033426
 32
0.0
 13
1209.0398935101989
 23
981.96662455247781
 33
0.0
  0
SOLID
  5
94E
  8
LOGO
 62
     2
 10
1203.2701354033279
 20
974.97297836233167
 30
0.0
 11
1203.842342818886
 21
974.97297836233167
 31
0.0
 12
1210.422728097795
 22
988.08606496885704
 32
0.0
 13
1210.994935513354
 23
988.08606496885625
 33
0.0
  0
POLYLINE
  5
94F
  8
LOGO
 62
     4
 66
     1
 10
0.0
 20
0.0
 30
0.0
 70
     1
1001
GENIUS_GENREC_14
1002
{
1000
PYDIR
1011
1191.4164839130231
1021
-1048576.0009918213
1031
0.0
1021
956.86340570633786
1031
0.0
1002
}
1002
{
1000
PXDIR
1011
1660.5018576237169
1021
-1048576.0009918213
1031
0.0
1021
988.84579491509089
1031
0.0
1002
}
1002
{
1000
PORI
1011
1191.4164839130231
1021
-1048576.0009918213
1031
0.0
1021
988.84579491509089
1031
0.0
1002
}
1002
{
1000
PINS
1011
1191.4164839130231
1021
-1048576.0009918213
1031
0.0
1021
988.84579491509089
1031
0.0
1002
}
1002
{
1000
PINS2
1011
1660.5018576237169
1021
-1048576.0009918213
1031
0.0
1021
956.86340570633786
1031
0.0
1002
}
1002
{
1000
C
1070
     1
1002
}
1001
GENIUS_GENOBJ-N-REC_13
1002
{
1000
OWNER
1000
GEN
1002
}
1001
GENIUS_GENODEF_13
1002
{
1000
HIER
1070
     0
1002
}
1002
{
1000
MANEDIT
1070
     0
1002
}
1002
{
1000
NOSEL
1070
     0
1002
}
1002
{
1000
BEHIND
1070
     0
1002
}
1002
{
1000
OTHER
1070
     0
1002
}
1002
{
1000
REACTOR
1002
}
  0
VERTEX
  5
AFB
  8
LOGO
 62
     4
 10
1191.4164839130231
 20
988.84579491509089
 30
0.0
  0
VERTEX
  5
AFC
  8
LOGO
 62
     4
 10
1660.5018576237169
 20
988.84579491509089
 30
0.0
  0
VERTEX
  5
AFD
  8
LOGO
 62
     4
 10
1660.5018576237169
 20
956.86340570633786
 30
0.0
  0
VERTEX
  5
AFE
  8
LOGO
 62
     4
 10
1191.4164839130231
 20
956.86340570633786
 30
0.0
  0
SEQEND
  5
AFF
  8
LOGO
 62
     4
  0
LINE
  5
950
  8
LOGO
 62
     4
 10
1327.0896898842609
 20
971.25548085027742
 30
0.0
 11
1327.0896898842609
 21
959.52860480706772
 31
0.0
  0
LINE
  5
951
  8
LOGO
 62
     4
 10
1305.7680970784261
 20
971.25548085027742
 30
0.0
 11
1305.7680970784261
 21
959.52860480706772
 31
0.0
  0
LINE
  5
952
  8
LOGO
 62
     4
 10
1327.0896898842609
 20
959.52860480706772
 30
0.0
 11
1305.7680970784261
 21
959.52860480706772
 31
0.0
  0
LINE
  5
953
  8
LOGO
 62
     4
 10
1330.9139441493239
 20
985.6475559942154
 30
0.0
 11
1305.7680970784261
 21
985.6475559942154
 31
0.0
  0
LINE
  5
954
  8
LOGO
 62
     4
 10
1330.9139441493239
 20
976.0528392315897
 30
0.0
 11
1305.7680970784261
 21
976.0528392315897
 31
0.0
  0
LINE
  5
955
  8
LOGO
 62
     4
 10
1305.7680970784261
 20
985.6475559942154
 30
0.0
 11
1305.7680970784261
 21
976.0528392315897
 31
0.0
  0
LINE
  5
956
  8
LOGO
 62
     4
 10
1330.9139441493239
 20
985.6475559942154
 30
0.0
 11
1330.9139441493239
 21
976.0528392315897
 31
0.0
  0
LINE
  5
957
  8
LOGO
 62
     4
 10
1317.5413450935359
 20
976.0528392315897
 30
0.0
 11
1317.5413450935359
 21
971.25548085027742
 31
0.0
  0
TEXT
  5
958
  8
LOGO
  6
CONTINUOUS
 10
1307.4729279804069
 20
978.05572232831355
 30
0.0
 40
5.5977286423758299
  1
MHCK
  7
CHINESET
  0
LINE
  5
959
  8
LOGO
 62
     4
 10
1327.0896898842609
 20
971.25548085027742
 30
0.0
 11
1305.7680970784261
 21
971.25548085027742
 31
0.0
  0
TEXT
  5
95A
  8
LOGO
  6
CONTINUOUS
 10
1312.6101287066831
 20
961.1838284931481
 30
209.60731008333369
 40
2.3990265610182129
  1
Model
 41
0.8
  7
CHINESET
  0
TEXT
  5
95B
  8
LOGO
 10
1311.9715858236971
 20
965.63110671015079
 30
209.60731008333369
 40
3.9983776016970221
  1
型號
  7
CHINESET
  0
LINE
  5
95C
  8
LOGO
  6
CONTINUOUS
 10
1333.3179521812619
 20
980.81621160980603
 30
0.0
 11
1337.554629007979
 21
980.81621160980603
 31
0.0
  0
LINE
  5
95D
  8
LOGO
 62
     4
 10
1354.7361717356191
 20
971.25548085027742
 30
0.0
 11
1354.7361717356191
 21
959.52860480706772
 31
0.0
  0
LINE
  5
95E
  8
LOGO
 62
     4
 10
1333.4145789297841
 20
971.25548085027742
 30
0.0
 11
1333.4145789297841
 21
959.52860480706772
 31
0.0
  0
LINE
  5
95F
  8
LOGO
 62
     4
 10
1354.7361717356191
 20
959.52860480706772
 30
0.0
 11
1333.4145789297841
 21
959.52860480706772
 31
0.0
  0
LINE
  5
960
  8
LOGO
 62
     4
 10
1355.2860160730061
 20
985.6475559942154
 30
0.0
 11
1338.8910772182439
 21
985.6475559942154
 31
0.0
  0
LINE
  5
961
  8
LOGO
 62
     4
 10
1355.2860160730061
 20
976.0528392315897
 30
0.0
 11
1338.8910772182439
 21
976.0528392315897
 31
0.0
  0
LINE
  5
962
  8
LOGO
 62
     4
 10
1338.8910772182439
 20
985.6475559942154
 30
0.0
 11
1338.8910772182439
 21
976.0528392315897
 31
0.0
  0
LINE
  5
963
  8
LOGO
 62
     4
 10
1355.2860160730061
 20
985.6475559942154
 30
0.0
 11
1355.2860160730061
 21
976.0528392315897
 31
0.0
  0
LINE
  5
964
  8
LOGO
 62
     4
 10
1347.0885466456259
 20
976.0528392315897
 30
0.0
 11
1347.0885466456259
 21
971.25548085027742
 31
0.0
  0
TEXT
  5
965
  8
LOGO
  6
CONTINUOUS
 10
1342.4100213982981
 20
977.86636493217065
 30
0.0
 40
5.5977286423758299
  1
25
  7
CHINESET
  0
LINE
  5
966
  8
LOGO
 62
     4
 10
1354.7361717356191
 20
971.25548085027742
 30
0.0
 11
1333.4145789297841
 21
971.25548085027742
 31
0.0
  0
LINE
  5
967
  8
LOGO
  6
CONTINUOUS
 10
1356.6508073083189
 20
980.81621160980603
 30
0.0
 11
1360.8874841350371
 21
980.81621160980603
 31
0.0
  0
LINE
  5
968
  8
LOGO
 62
     4
 10
1382.1361148335311
 20
971.25548085027742
 30
0.0
 11
1382.1361148335311
 21
959.52860480706772
 31
0.0
  0
LINE
  5
969
  8
LOGO
 62
     4
 10
1357.292378357118
 20
971.25548085027742
 30
0.0
 11
1357.292378357118
 21
959.52860480706772
 31
0.0
  0
LINE
  5
96A
  8
LOGO
 62
     4
 10
1382.1361148335311
 20
959.52860480706772
 30
0.0
 11
1357.292378357118
 21
959.52860480706772
 31
0.0
  0
LINE
  5
96B
  8
LOGO
 62
     4
 10
1372.432444537352
 20
985.6475559942154
 30
0.0
 11
1362.223932345303
 21
985.6475559942154
 31
0.0
  0
LINE
  5
96C
  8
LOGO
 62
     4
 10
1372.432444537352
 20
976.0528392315897
 30
0.0
 11
1362.223932345303
 21
976.0528392315897
 31
0.0
  0
LINE
  5
96D
  8
LOGO
 62
     4
 10
1362.223932345303
 20
985.6475559942154
 30
0.0
 11
1362.223932345303
 21
976.0528392315897
 31
0.0
  0
LINE
  5
96E
  8
LOGO
 62
     4
 10
1372.432444537352
 20
985.6475559942154
 30
0.0
 11
1372.432444537352
 21
976.0528392315897
 31
0.0
  0
LINE
  5
96F
  8
LOGO
 62
     4
 10
1367.398589905353
 20
976.0528392315897
 30
0.0
 11
1367.398589905353
 21
971.25548085027742
 31
0.0
  0
TEXT
  5
970
  8
LOGO
  6
CONTINUOUS
 10
1365.6646881882909
 20
978.05572232831355
 30
0.0
 40
5.5977286423758299
  1
*
  7
CHINESET
  0
LINE
  5
971
  8
LOGO
 62
     4
 10
1382.1361148335311
 20
971.25548085027742
 30
0.0
 11
1357.292378357118
 21
971.25548085027742
 31
0.0
  0
TEXT
  5
972
  8
LOGO
  6
CONTINUOUS
 10
1337.8805811859329
 20
961.1838284931481
 30
209.60731008333369
 40
2.3990265610182129
  1
Tube I.D.
 41
0.8
  7
CHINESET
  0
TEXT
  5
973
  8
LOGO
 10
1339.4587330512029
 20
965.63110671015079
 30
209.60731008333369
 40
3.9983776016970221
  1
內徑
  7
CHINESET
  0
TEXT
  5
974
  8
LOGO
  6
CONTINUOUS
 10
1359.7969818763379
 20
961.1838284931481
 30
209.60731008333369
 40
2.3990265610182129
  1
Manifold type
 41
0.8
  7
CHINESET
  0
TEXT
  5
975
  8
LOGO
 10
1361.703871743287
 20
965.63110671015079
 30
209.60731008333369
 40
3.9983776016970221
  1
油口型式
  7
CHINESET
  0
TEXT
  5
976
  8
LOGO
 10
1262.8331022235029
 20
958.56485618899751
 30
0.0
 40
3.1987020813576179
  1
00904070
 41
0.7
  7
CHINESET
 72
     1
 11
1271.043104232321
 21
958.56485618899751
 31
0.0
  0
LINE
  5
977
  8
LOGO
 62
     4
 10
1280.9699526604229
 20
963.25988354808965
 30
0.0
 11
1280.969952660425
 21
956.86340570633888
 31
0.0
  0
LINE
  5
978
  8
LOGO
 62
     4
 10
1280.9699526604229
 20
963.25988354808965
 30
0.0
 11
1261.777740172279
 21
963.25988354808965
 31
0.0
  0
CIRCLE
  5
979
  8
LOGO
  6
CONTINUOUS
 10
1246.378086757845
 20
979.25791920892118
 30
0.0
 40
1.85697279551854
  0
CIRCLE
  5
97A
  8
LOGO
  6
CONTINUOUS
 10
1246.378086757845
 20
979.25791920892118
 30
0.0
 40
1.0880216696731571
  0
LINE
  5
97B
  8
LOGO
 10
1258.047519278894
 20
977.40094641340227
 30
0.0
 11
1258.047519278894
 21
981.11489200443998
 31
0.0
  0
LINE
  5
97C
  8
LOGO
 10
1252.226016160269
 20
978.16989753924827
 30
0.0
 11
1252.226016160269
 21
980.34594087859455
 31
0.0
  0
LINE
  5
97D
  8
LOGO
  6
CONTINUOUS
 10
1252.226016160269
 20
980.34594087859455
 30
0.0
 11
1258.047519278894
 21
981.11489200443998
 31
0.0
  0
LINE
  5
97E
  8
LOGO
  6
CONTINUOUS
 10
1252.226016160269
 20
978.16989753924827
 30
0.0
 11
1258.047519278894
 21
977.40094641340227
 31
0.0
  0
LINE
  5
97F
  8
LOGO
  6
AM_ISO08W050X2
 10
1243.8182219532439
 20
979.25791920892118
 30
0.0
 11
1248.9379515624451
 21
979.25791920892118
 31
0.0
1001
GENIUS_GENOREF_13
1005
985
  0
LINE
  5
980
  8
LOGO
  6
AM_ISO08W050X2
 10
1246.378086757845
 20
976.69805440432083
 30
0.0
 11
1246.378086757845
 21
981.81778401352153
 31
0.0
1001
GENIUS_GENOREF_13
1005
984
  0
LINE
  5
981
  8
LOGO
  6
CENTER
 10
1251.760457718701
 20
979.25791920892118
 30
0.0
 11
1258.633725797763
 21
979.25791920892118
 31
0.0
1001
GENIUS_GENOREF_13
1005
983
  0
LINE
  5
982
  8
LOGO
 62
     4
 10
1425.9591707683701
 20
1249.054534243201
 30
0.0
 11
1425.9591707683701
 21
988.84579491509089
 31
0.0
  0
POINT
  5
983
  8
0
 10
6393.8387618973129
 20
-586.3087906785222
 30
-179.8317238765535
1001
GENIUS_GENOBJ-N-CRS_13
1002
{
1000
OWNER
1000
GEN
1002
}
1001
GENIUS_GENOLIS_13
1002
{
1000
ENT
1005
0
1005
0
1005
0
1005
981
1002
}
1001
GENIUS_GENOENT_13
1002
{
1000
MYREF
1005
983
1002
}
1002
{
1000
GRP
1005
0
1002
}
1001
GENIUS_GENODEF_13
1002
{
1000
HIER
1070
    10
1002
}
1002
{
1000
MANEDIT
1070
     1
1002
}
1002
{
1000
NOSEL
1070
     0
1002
}
1002
{
1000
BEHIND
1070
     0
1002
}
1002
{
1000
OTHER
1070
     0
1002
}
1002
{
1000
REACTOR
1002
}
  0
POINT
  5
984
  8
0
 10
6382.5141766744573
 20
-577.43320419988595
 30
-179.8317238765535
1001
GENIUS_GENOBJ-N-CRS_13
1002
{
1000
OWNER
1000
GEN
1002
}
1001
GENIUS_GENOLIS_13
1002
{
1000
ENT
1005
0
1005
0
1005
0
1005
980
1002
}
1001
GENIUS_GENOENT_13
1002
{
1000
MYREF
1005
984
1002
}
1002
{
1000
GRP
1005
0
1002
}
1001
GENIUS_GENODEF_13
1002
{
1000
HIER
1070
    10
1002
}
1002
{
1000
MANEDIT
1070
     1
1002
}
1002
{
1000
NOSEL
1070
     0
1002
}
1002
{
1000
BEHIND
1070
     0
1002
}
1002
{
1000
OTHER
1070
     0
1002
}
1002
{
1000
REACTOR
1002
}
  0
POINT
  5
985
  8
0
 10
6388.872850372295
 20
-586.3087906785222
 30
-179.8317238765535
1001
GENIUS_GENOBJ-N-CRS_13
1002
{
1000
OWNER
1000
GEN
1002
}
1001
GENIUS_GENOLIS_13
1002
{
1000
ENT
1005
0
1005
0
1005
0
1005
97F
1002
}
1001
GENIUS_GENOENT_13
1002
{
1000
MYREF
1005
985
1002
}
1002
{
1000
GRP
1005
0
1002
}
1001
GENIUS_GENODEF_13
1002
{
1000
HIER
1070
    10
1002
}
1002
{
1000
MANEDIT
1070
     1
1002
}
1002
{
1000
NOSEL
1070
     0
1002
}
1002
{
1000
BEHIND
1070
     0
1002
}
1002
{
1000
OTHER
1070
     0
1002
}
1002
{
1000
REACTOR
1002
}
  0
ENDSEC
  0
EOF
