  0
SECTION
  2
HEADER
  9
$ACADVER
  1
AC1015
  9
$ACADMAINTVER
 70
    20
  9
$DWGCODEPAGE
  3
ANSI_950
  9
$INSBASE
 10
0.0
 20
0.0
 30
0.0
  9
$EXTMIN
 10
-271.4488491595807
 20
61.21284468279395
 30
-0.0664155319500424
  9
$EXTMAX
 10
951.8652675066141
 20
890.9099008547778
 30
1088.268316332634
  9
$LIMMIN
 10
0.0
 20
0.0
  9
$LIMMAX
 10
396.0
 20
273.0
  9
$ORTHOMODE
 70
     1
  9
$REGENMODE
 70
     1
  9
$FILLMODE
 70
     1
  9
$QTEXTMODE
 70
     0
  9
$MIRRTEXT
 70
     1
  9
$LTSCALE
 40
30.0
  9
$ATTMODE
 70
     1
  9
$TEXTSIZE
 40
3.0
  9
$TRACEWID
 40
0.05
  9
$TEXTSTYLE
  7
DAYUS
  9
$CLAYER
  8
0
  9
$CELTYPE
  6
BYLAYER
  9
$CECOLOR
 62
   256
  9
$CELTSCALE
 40
1.0
  9
$DISPSILH
 70
     0
  9
$DIMSCALE
 40
1.0
  9
$DIMASZ
 40
2.0
  9
$DIMEXO
 40
1.0
  9
$DIMDLI
 40
5.0
  9
$DIMRND
 40
0.0
  9
$DIMDLE
 40
0.0
  9
$DIMEXE
 40
1.5
  9
$DIMTP
 40
0.1
  9
$DIMTM
 40
0.1
  9
$DIMTXT
 40
2.0
  9
$DIMCEN
 40
3.0
  9
$DIMTSZ
 40
0.0
  9
$DIMTOL
 70
     0
  9
$DIMLIM
 70
     0
  9
$DIMTIH
 70
     0
  9
$DIMTOH
 70
     0
  9
$DIMSE1
 70
     0
  9
$DIMSE2
 70
     0
  9
$DIMTAD
 70
     1
  9
$DIMZIN
 70
     8
  9
$DIMBLK
  1

  9
$DIMASO
 70
     1
  9
$DIMSHO
 70
     0
  9
$DIMPOST
  1

  9
$DIMAPOST
  1
"
  9
$DIMALT
 70
     0
  9
$DIMALTD
 70
     2
  9
$DIMALTF
 40
0.0393701
  9
$DIMLFAC
 40
1.0
  9
$DIMTOFL
 70
     1
  9
$DIMTVP
 40
0.0
  9
$DIMTIX
 70
     0
  9
$DIMSOXD
 70
     0
  9
$DIMSAH
 70
     0
  9
$DIMBLK1
  1

  9
$DIMBLK2
  1

  9
$DIMSTYLE
  2
AM_ISO
  9
$DIMCLRD
 70
   256
  9
$DIMCLRE
 70
   256
  9
$DIMCLRT
 70
   256
  9
$DIMTFAC
 40
0.71
  9
$DIMGAP
 40
0.6
  9
$DIMJUST
 70
     0
  9
$DIMSD1
 70
     0
  9
$DIMSD2
 70
     0
  9
$DIMTOLJ
 70
     0
  9
$DIMTZIN
 70
     8
  9
$DIMALTZ
 70
     0
  9
$DIMALTTZ
 70
     0
  9
$DIMUPT
 70
     0
  9
$DIMDEC
 70
     2
  9
$DIMTDEC
 70
     8
  9
$DIMALTU
 70
     2
  9
$DIMALTTD
 70
     2
  9
$DIMTXSTY
  7
STANDARD
  9
$DIMAUNIT
 70
     0
  9
$DIMADEC
 70
     0
  9
$DIMALTRND
 40
0.0
  9
$DIMAZIN
 70
     2
  9
$DIMDSEP
 70
    46
  9
$DIMATFIT
 70
     3
  9
$DIMFRAC
 70
     0
  9
$DIMLDRBLK
  1

  9
$DIMLUNIT
 70
     2
  9
$DIMLWD
 70
    -1
  9
$DIMLWE
 70
    -1
  9
$DIMTMOVE
 70
     0
  9
$LUNITS
 70
     2
  9
$LUPREC
 70
     2
  9
$SKETCHINC
 40
0.1
  9
$FILLETRAD
 40
2.5
  9
$AUNITS
 70
     0
  9
$AUPREC
 70
     0
  9
$MENU
  1
C:\CACAD\ACAD
  9
$ELEVATION
 40
0.0
  9
$PELEVATION
 40
0.0
  9
$THICKNESS
 40
0.0
  9
$LIMCHECK
 70
     0
  9
$CHAMFERA
 40
3.0
  9
$CHAMFERB
 40
3.0
  9
$CHAMFERC
 40
0.0
  9
$CHAMFERD
 40
0.0
  9
$SKPOLY
 70
     0
  9
$TDCREATE
 40
2450294.602131481
  9
$TDUCREATE
 40
2450294.268798149
  9
$TDUPDATE
 40
2453388.431963044
  9
$TDUUPDATE
 40
2453388.098629711
  9
$TDINDWG
 40
0.4556389699
  9
$TDUSRTIMER
 40
0.4556357176
  9
$USRTIMER
 70
     1
  9
$ANGBASE
 50
0.0
  9
$ANGDIR
 70
     0
  9
$PDMODE
 70
    65
  9
$PDSIZE
 40
8.3
  9
$PLINEWID
 40
0.0
  9
$SPLFRAME
 70
     0
  9
$SPLINETYPE
 70
     6
  9
$SPLINESEGS
 70
     8
  9
$HANDSEED
  5
7AAF
  9
$SURFTAB1
 70
     6
  9
$SURFTAB2
 70
     6
  9
$SURFTYPE
 70
     6
  9
$SURFU
 70
     6
  9
$SURFV
 70
     6
  9
$UCSBASE
  2

  9
$UCSNAME
  2

  9
$UCSORG
 10
0.0
 20
0.0
 30
0.0
  9
$UCSXDIR
 10
1.0
 20
0.0
 30
0.0
  9
$UCSYDIR
 10
0.0
 20
1.0
 30
0.0
  9
$UCSORTHOREF
  2

  9
$UCSORTHOVIEW
 70
     0
  9
$UCSORGTOP
 10
0.0
 20
0.0
 30
0.0
  9
$UCSORGBOTTOM
 10
0.0
 20
0.0
 30
0.0
  9
$UCSORGLEFT
 10
0.0
 20
0.0
 30
0.0
  9
$UCSORGRIGHT
 10
0.0
 20
0.0
 30
0.0
  9
$UCSORGFRONT
 10
0.0
 20
0.0
 30
0.0
  9
$UCSORGBACK
 10
0.0
 20
0.0
 30
0.0
  9
$PUCSBASE
  2

  9
$PUCSNAME
  2

  9
$PUCSORG
 10
0.0
 20
0.0
 30
0.0
  9
$PUCSXDIR
 10
1.0
 20
0.0
 30
0.0
  9
$PUCSYDIR
 10
0.0
 20
1.0
 30
0.0
  9
$PUCSORTHOREF
  2

  9
$PUCSORTHOVIEW
 70
     0
  9
$PUCSORGTOP
 10
0.0
 20
0.0
 30
0.0
  9
$PUCSORGBOTTOM
 10
0.0
 20
0.0
 30
0.0
  9
$PUCSORGLEFT
 10
0.0
 20
0.0
 30
0.0
  9
$PUCSORGRIGHT
 10
0.0
 20
0.0
 30
0.0
  9
$PUCSORGFRONT
 10
0.0
 20
0.0
 30
0.0
  9
$PUCSORGBACK
 10
0.0
 20
0.0
 30
0.0
  9
$USERI1
 70
     0
  9
$USERI2
 70
     0
  9
$USERI3
 70
     0
  9
$USERI4
 70
     0
  9
$USERI5
 70
     0
  9
$USERR1
 40
0.0
  9
$USERR2
 40
0.0
  9
$USERR3
 40
0.0
  9
$USERR4
 40
0.0
  9
$USERR5
 40
0.0
  9
$WORLDVIEW
 70
     1
  9
$SHADEDGE
 70
     3
  9
$SHADEDIF
 70
    70
  9
$TILEMODE
 70
     1
  9
$MAXACTVP
 70
    16
  9
$PINSBASE
 10
101.9887994410416
 20
50.0
 30
155.412184630939
  9
$PLIMCHECK
 70
     0
  9
$PEXTMIN
 10
1.000000000000000E+20
 20
1.000000000000000E+20
 30
1.000000000000000E+20
  9
$PEXTMAX
 10
-1.000000000000000E+20
 20
-1.000000000000000E+20
 30
-1.000000000000000E+20
  9
$PLIMMIN
 10
0.0
 20
0.0
  9
$PLIMMAX
 10
12.0
 20
9.0
  9
$UNITMODE
 70
     0
  9
$VISRETAIN
 70
     0
  9
$PLINEGEN
 70
     0
  9
$PSLTSCALE
 70
     0
  9
$TREEDEPTH
 70
  3020
  9
$CMLSTYLE
  2
STANDARD
  9
$CMLJUST
 70
     0
  9
$CMLSCALE
 40
1.0
  9
$PROXYGRAPHICS
 70
     1
  9
$MEASUREMENT
 70
     1
  9
$CELWEIGHT
370
    -1
  9
$ENDCAPS
280
     0
  9
$JOINSTYLE
280
     0
  9
$LWDISPLAY
290
     0
  9
$INSUNITS
 70
     4
  9
$HYPERLINKBASE
  1

  9
$STYLESHEET
  1
彩色出圖.ctb
  9
$XEDIT
290
     1
  9
$CEPSNTYPE
380
     0
  9
$PSTYLEMODE
290
     1
  9
$FINGERPRINTGUID
  2
{727C4F51-B094-446D-A919-594C4FA4BCB3}
  9
$VERSIONGUID
  2
{AA7778D4-E131-4BD7-B879-41EB9FDA8C30}
  9
$EXTNAMES
290
     1
  9
$PSVPSCALE
 40
0.0
  9
$OLESTARTUP
290
     0
  0
ENDSEC
  0
SECTION
  2
CLASSES
  0
CLASS
  1
ACDBDICTIONARYWDFLT
  2
AcDbDictionaryWithDefault
  3
ObjectDBX Classes
 90
        0
280
     0
281
     0
  0
CLASS
  1
ACDBPLACEHOLDER
  2
AcDbPlaceHolder
  3
ObjectDBX Classes
 90
        0
280
     0
281
     0
  0
CLASS
  1
LAYOUT
  2
AcDbLayout
  3
ObjectDBX Classes
 90
        0
280
     0
281
     0
  0
CLASS
  1
IMAGEDEF
  2
AcDbRasterImageDef
  3
ISM
 90
        0
280
     0
281
     0
  0
CLASS
  1
ACME_DOCUMENT
  2
AcMeDbDoc
  3
AcMeServices
 90
        0
280
     0
281
     0
  0
CLASS
  1
AMGSETTINGSOBJ
  2
AmgSettingsObj
  3
"AcadM|Product Description: AutoCAD Mechanical 2000|Company: Autodesk"
 90
        0
280
     0
281
     0
  0
CLASS
  1
ACMESCOPE
  2
AcMeScope
  3
AcMeServices
 90
        0
280
     0
281
     0
  0
CLASS
  1
ACMECOMMANDHISTORY
  2
AcMeCommandHistory
  3
AcMeServices
 90
        0
280
     0
281
     0
  0
CLASS
  1
ACIMSYSVARMAN
  2
AcImSysVarManager
  3
AcMeServices
 90
        0
280
     0
281
     0
  0
CLASS
  1
ACIMREALSYSVAR
  2
AcImRealSysVar
  3
AcMeServices
 90
        0
280
     0
281
     0
  0
CLASS
  1
ACIMINTSYSVAR
  2
AcImIntSysVar
  3
AcMeServices
 90
        0
280
     0
281
     0
  0
CLASS
  1
ACMEDRAWINGMAN
  2
AcMeDrawingMan
  3
AcMeServices
 90
        0
280
     0
281
     0
  0
CLASS
  1
ACMEVIEW
  2
AcMeView
  3
AcMeServices
 90
        0
280
     0
281
     0
  0
CLASS
  1
ACDBENTITYCACHE
  2
AcMeEntityCache
  3
AcMeServices
 90
        0
280
     0
281
     0
  0
CLASS
  1
GSMANAGER
  2
AcMeGSManager
  3
AcMeServices
 90
        0
280
     0
281
     0
  0
CLASS
  1
AMDTINTERNALREACTOR
  2
AmdtInternalReactor
  3
AcMeServices
 90
        0
280
     0
281
     0
  0
CLASS
  1
ACMESTATEMGR
  2
AcMeStateMgr
  3
AcMeServices
 90
        0
280
     0
281
     0
  0
CLASS
  1
ACGREFMASTER
  2
AcGrefMaster
  3
AcAttribServices
 90
        0
280
     0
281
     0
  0
CLASS
  1
ACME_DATABASE
  2
AcMeDbDatabase
  3
AcMeServices
 90
        0
280
     0
281
     0
  0
CLASS
  1
ACRFINSADJUSTERMGR
  2
AcRfInsAdjusterMgr
  3
AcMeServices
 90
        0
280
     0
281
     0
  0
CLASS
  1
ACGREFACADMASTER
  2
AcGrefacadMaster
  3
AcGrefServices
 90
        0
280
     0
281
     0
  0
CLASS
  1
AMIMASTER
  2
AmiMaster
  3
AmiServices
 90
        0
280
     0
281
     0
  0
CLASS
  1
ACMDATADICTIONARY
  2
AcmDataDictionary
  3
"AcmSymBB|Product Description: AutoCAD Mechanical 2004 DX|Company: Autodesk"
 90
        0
280
     0
281
     0
  0
CLASS
  1
ACMDATAENTRYBLOCK
  2
AcmDataEntryBlock
  3
"AcmSymBB|Product Description: AutoCAD Mechanical 2004 DX|Company: Autodesk"
 90
    32768
280
     0
281
     0
  0
CLASS
  1
ACIMSTRSYSVAR
  2
AcImStrSysVar
  3
AcMeServices
 90
        0
280
     0
281
     0
  0
CLASS
  1
ACMSTANDARDANSI
  2
AcmStandardANSI
  3
"Amdt_StdImp|Product Description: AutoCAD Mechanical 2004 DX|Company: Autodesk"
 90
    32768
280
     0
281
     0
  0
CLASS
  1
AMGOBJPROPCFG
  2
AmgObjPropCfg
  3
"AmgLay|Product Description: AutoCAD Mechanical 2000|Company: Autodesk"
 90
        1
280
     0
281
     0
  0
CLASS
  1
ACMSURFSTANDARDANSI
  2
AcmSurfTextStdANSI
  3
"Amdt_StdImp|Product Description: AutoCAD Mechanical 2004 DX|Company: Autodesk"
 90
    32768
280
     0
281
     0
  0
CLASS
  1
ACMFCFSTANDARDANSI
  2
AcmFCFStdANSI
  3
"Amdt_StdImp|Product Description: AutoCAD Mechanical 2004 DX|Company: Autodesk"
 90
    32768
280
     0
281
     0
  0
CLASS
  1
ACMWELDSTANDARDANSI
  2
AcmWeldingStdANSI
  3
"Amdt_StdImp|Product Description: AutoCAD Mechanical 2004 DX|Company: Autodesk"
 90
    32768
280
     0
281
     0
  0
CLASS
  1
ACMIDSTANDARDANSI
  2
AcmIdStdANSI
  3
"Amdt_StdImp|Product Description: AutoCAD Mechanical 2004 DX|Company: Autodesk"
 90
    32768
280
     0
281
     0
  0
CLASS
  1
ACMDATUMSTANDARDANSI
  2
AcmDatumStdANSI
  3
"Amdt_StdImp|Product Description: AutoCAD Mechanical 2004 DX|Company: Autodesk"
 90
    32768
280
     0
281
     0
  0
CLASS
  1
ACMBOMSTANDARDANSI
  2
AcmBOMStdANSI
  3
"Amdt_StdImp|Product Description: AutoCAD Mechanical 2004 DX|Company: Autodesk"
 90
    32768
280
     0
281
     0
  0
CLASS
  1
ACMDETAILSTANDARDANSI
  2
AmdtDetailSymStdANSI
  3
"Amdt_StdImp|Product Description: AutoCAD Mechanical 2004 DX|Company: Autodesk"
 90
    32768
280
     0
281
     0
  0
CLASS
  1
ACMSECTIONSTANDARDANSI
  2
AmdtSectionSymStdANSI
  3
"Amdt_StdImp|Product Description: AutoCAD Mechanical 2004 DX|Company: Autodesk"
 90
    32768
280
     0
281
     0
  0
CLASS
  1
ACMCENTERLINESTANDARDANSI
  2
AmdtCenterLineStdANSI
  3
"Amdt_StdImp|Product Description: AutoCAD Mechanical 2004 DX|Company: Autodesk"
 90
    32768
280
     0
281
     0
  0
CLASS
  1
ACMNOTESTANDARDANSI
  2
AmdtNoteStdANSI
  3
"Amdt_StdImp|Product Description: AutoCAD Mechanical 2004 DX|Company: Autodesk"
 90
    32768
280
     0
281
     0
  0
CLASS
  1
ACAMGLAYSTD
  2
AcAmgLayStd
  3
"AcAmgLayStd|Product Description: AutoCAD Mechanical 2000|Company: Autodesk"
 90
        0
280
     0
281
     0
  0
CLASS
  1
ACAMGDIMSTD
  2
AcAmgDimStd
  3
"AcAmgDimStd|Product Description: AutoCAD Mechanical 2000|Company: Autodesk"
 90
        0
280
     0
281
     0
  0
CLASS
  1
ACAMGHOLECHARTSTDANSI
  2
AcAmgHoleChartStdANSI
  3
ACMSYMBB_MODULE_NAME
 90
    32768
280
     0
281
     0
  0
CLASS
  1
ACAMGTITLESTD
  2
AcAmgTitleStd
  3
"TITLEAPP"
 90
        0
280
     0
281
     0
  0
CLASS
  1
ACAMGFILTERDAT
  2
AcAmgFilterDat
  3
"AcadM|Product Description: AutoCAD Mechanical 2000|Company: Autodesk"
 90
    32768
280
     0
281
     0
  0
CLASS
  1
AMDTFORMULAUPDATEDISPATCHER
  2
AmdtFormulaUpdateDispatcher
  3
AcMeServices
 90
    32768
280
     0
281
     0
  0
CLASS
  1
LAYER_INDEX
  2
AcDbLayerIndex
  3
ObjectDBX Classes
 90
    32768
280
     0
281
     0
  0
CLASS
  1
IDBUFFER
  2
AcDbIdBuffer
  3
ObjectDBX Classes
 90
    32768
280
     0
281
     0
  0
CLASS
  1
DICTIONARYVAR
  2
AcDbDictionaryVar
  3
ObjectDBX Classes
 90
        0
280
     0
281
     0
  0
CLASS
  1
ACMSTANDARDISO
  2
AcmStandardISO
  3
"Amdt_StdImp|Product Description: AutoCAD Mechanical 2004 DX|Company: Autodesk"
 90
        0
280
     0
281
     0
  0
CLASS
  1
AMDTEDGESTANDARDISO
  2
AmdtEdgeStdISO
  3
"Amdt_StdImp|Product Description: AutoCAD Mechanical 2004 DX|Company: Autodesk"
 90
    32768
280
     0
281
     0
  0
CLASS
  1
ACMSURFSTANDARDISO
  2
AcmSurfTextStdISO
  3
"Amdt_StdImp|Product Description: AutoCAD Mechanical 2004 DX|Company: Autodesk"
 90
        0
280
     0
281
     0
  0
CLASS
  1
ACMFCFSTANDARDISO
  2
AcmFCFStdISO
  3
"Amdt_StdImp|Product Description: AutoCAD Mechanical 2004 DX|Company: Autodesk"
 90
        0
280
     0
281
     0
  0
CLASS
  1
ACMWELDSTANDARDISO
  2
AcmWeldingStdISO
  3
"Amdt_StdImp|Product Description: AutoCAD Mechanical 2004 DX|Company: Autodesk"
 90
        0
280
     0
281
     0
  0
CLASS
  1
ACMIDSTANDARDISO
  2
AcmIdStdISO
  3
"Amdt_StdImp|Product Description: AutoCAD Mechanical 2004 DX|Company: Autodesk"
 90
        0
280
     0
281
     0
  0
CLASS
  1
ACMDATUMSTANDARDISO
  2
AcmDatumStdISO
  3
"Amdt_StdImp|Product Description: AutoCAD Mechanical 2004 DX|Company: Autodesk"
 90
        0
280
     0
281
     0
  0
CLASS
  1
ACMBOMSTANDARDISO
  2
AcmBOMStdISO
  3
"Amdt_StdImp|Product Description: AutoCAD Mechanical 2004 DX|Company: Autodesk"
 90
        0
280
     0
281
     0
  0
CLASS
  1
ACMDETAILSTANDARDISO
  2
AmdtDetailSymStdISO
  3
"Amdt_StdImp|Product Description: AutoCAD Mechanical 2004 DX|Company: Autodesk"
 90
        0
280
     0
281
     0
  0
CLASS
  1
ACMSECTIONSTANDARDISO
  2
AmdtSectionSymStdISO
  3
"Amdt_StdImp|Product Description: AutoCAD Mechanical 2004 DX|Company: Autodesk"
 90
        0
280
     0
281
     0
  0
CLASS
  1
ACMCENTERLINESTANDARDISO
  2
AmdtCenterLineStdISO
  3
"Amdt_StdImp|Product Description: AutoCAD Mechanical 2004 DX|Company: Autodesk"
 90
        0
280
     0
281
     0
  0
CLASS
  1
ACMNOTESTANDARDISO
  2
AmdtNoteStdISO
  3
"Amdt_StdImp|Product Description: AutoCAD Mechanical 2004 DX|Company: Autodesk"
 90
        0
280
     0
281
     0
  0
CLASS
  1
ACAMGHOLECHARTSTDISO
  2
AcAmgHoleChartStdISO
  3
ACMSYMBB_MODULE_NAME
 90
        0
280
     0
281
     0
  0
CLASS
  1
AMDTNOTE
  2
AmdtNote
  3
"AcmSymBB|Product Description: AutoCAD Mechanical 2004 DX|Company: Autodesk"
 90
    33791
280
     0
281
     1
  0
CLASS
  1
STDPART2D
  2
AmgStdPart
  3
"AmgStdPart|Product Description: AutoCAD Mechanical 2000|Company: Autodesk"
 90
    33791
280
     0
281
     1
  0
CLASS
  1
TABLESTYLE
  2
AcDbTableStyle
  3
ObjectDBX Classes
 90
     2047
280
     0
281
     0
  0
CLASS
  1
AM_DRAWING_MGR
  2
AcDmDwgMgr
  3
AcMechDwgViewMgmt
 90
        0
280
     0
281
     0
  0
CLASS
  1
AM_DWG_DOCUMENT
  2
AcDmDwgDocument
  3
AcMechDwgViewMgmt
 90
        0
280
     0
281
     0
  0
CLASS
  1
AM_DWG_SHEET
  2
AcDmSheet
  3
AcMechDwgViewMgmt
 90
        0
280
     0
281
     0
  0
CLASS
  1
AM_VIEWDIMPARMAP
  2
AcDmViewDimParMap
  3
AcMechDwgViewMgmt
 90
        0
280
     0
281
     0
  0
CLASS
  1
AM_DWGMGR_NAME
  2
AcDmDwgMgrName
  3
AcMechDwgViewMgmt
 90
        0
280
     0
281
     0
  0
CLASS
  1
AMDTMENUSTATEMGR
  2
AmdtMenuStateMgr
  3
McadcomServices
 90
        0
280
     0
281
     0
  0
CLASS
  1
AMDTMCOMMENUSTATE
  2
AmdtMcomMenuState
  3
McadcomServices
 90
        0
280
     0
281
     0
  0
CLASS
  1
MAPIAMMOUDLE
  2
MApiAmModule
  3
MApiAmServices
 90
        0
280
     0
281
     0
  0
CLASS
  1
AMDTADMENUSTATE
  2
AmdtAdMenuState
  3
DesignerServices
 90
        0
280
     0
281
     0
  0
CLASS
  1
ADAPPL
  2
AcAdAppl
  3
DesignerServices
 90
        0
280
     0
281
     0
  0
CLASS
  1
DEPMGR
  2
AcAdDepMgr
  3
DesignerServices
 90
        0
280
     0
281
     0
  0
CLASS
  1
PARAMMGR
  2
AcAdParamMgr
  3
DesignerServices
 90
        0
280
     0
281
     0
  0
CLASS
  1
PARAMSCOPE
  2
AcAdParamScope
  3
DesignerServices
 90
        0
280
     0
281
     0
  0
CLASS
  1
NAMEDAPPL
  2
AcAdNamedAppl
  3
DesignerServices
 90
        0
280
     0
281
     0
  0
CLASS
  1
AMDTDMMENUSTATE
  2
AmdtDmMenuState
  3
AcMechDwgViewMgmt
 90
        0
280
     0
281
     0
  0
CLASS
  1
AMDTAMMENUSTATE
  2
AmdtAmMenuState
  3
DesignerAssemblies
 90
        0
280
     0
281
     0
  0
CLASS
  1
ACAMPROJECT
  2
AcAmProject
  3
DesignerAssemblies
 90
        0
280
     0
281
     0
  0
CLASS
  1
ACAMGRCOMPDEF
  2
AcAmGrCompDef
  3
DesignerAssemblies
 90
        0
280
     0
281
     0
  0
CLASS
  1
ACCMCONTEXT
  2
AcCmContext
  3
DesignerAssemblies
 90
        0
280
     0
281
     0
  0
CLASS
  1
ACAMCOMPDEF
  2
AcAmCompDef
  3
DesignerAssemblies
 90
        0
280
     0
281
     0
  0
CLASS
  1
ACAMCOMPDEFMGR
  2
AcAmCompDefMgr
  3
DesignerAssemblies
 90
        0
280
     0
281
     0
  0
CLASS
  1
AMCONTEXTMGR
  2
AcAmContextMgr
  3
DesignerAssemblies
 90
        0
280
     0
281
     0
  0
CLASS
  1
ACAMCONTEXTMODELER
  2
AcAmContextModeler
  3
DesignerAssemblies
 90
        0
280
     0
281
     0
  0
CLASS
  1
ACMTHREADLINESTANDARDISO
  2
AmdtThreadLineStdISO
  3
"Amdt_StdImp|Product Description: AutoCAD Mechanical 2004 DX|Company: Autodesk"
 90
        0
280
     0
281
     0
  0
CLASS
  1
ACMTHREADLINESTANDARDANSI
  2
AmdtThreadLineStdANSI
  3
"Amdt_StdImp|Product Description: AutoCAD Mechanical 2004 DX|Company: Autodesk"
 90
    32768
280
     0
281
     0
  0
CLASS
  1
CATALOGSTATE
  2
AcAmCatalogState
  3
DesignerAssemblies
 90
        0
280
     0
281
     0
  0
CLASS
  1
ACAMGRCOMPDEFSET
  2
AcAmGrCompDefSet
  3
DesignerAssemblies
 90
        0
280
     0
281
     0
  0
CLASS
  1
AMDTBROWSERDBTAB
  2
AmdtBrowserDbTab
  3
McadcomServices
 90
        0
280
     0
281
     0
  0
CLASS
  1
CBROWSERAPPOBJECT
  2
CBrowserAppObject
  3
McadcomServices
 90
        0
280
     0
281
     0
  0
CLASS
  1
DM_PLACEHOLDER
  2
AcDmSelsetPlaceholder
  3
AcMechDwgViewMgmt
 90
        0
280
     0
281
     0
  0
CLASS
  1
VAACXREFPANELOBJECT
  2
VaAcXREFPanelObject
  3
VAAC_ADDIN
 90
        0
280
     0
281
     0
  0
CLASS
  1
VAACIMAGEINVENTORY
  2
VaAcImageInventory
  3
VAAC_ADDIN
 90
        0
280
     0
281
     0
  0
CLASS
  1
SORTENTSTABLE
  2
AcDbSortentsTable
  3
ObjectDBX Classes
 90
    32768
280
     0
281
     0
  0
CLASS
  1
ACRFATTGENMGR
  2
AcRfAttGeneralMgr
  3
AcAttribServices
 90
        0
280
     0
281
     0
  0
CLASS
  1
AMDTEDGESTANDARDISO13715
  2
AmdtEdgeStdISO13715
  3
"Amdt_StdImp|Product Description: AutoCAD Mechanical 2004 DX|Company: Autodesk"
 90
        0
280
     0
281
     0
  0
CLASS
  1
AMDTNOTETEMPLATEDB
  2
AmdtNoteTemplateDB
  3
AMDT_STDIMP_MODULE_NAME
 90
        0
280
     0
281
     0
  0
ENDSEC
  0
SECTION
  2
TABLES
  0
TABLE
  2
VPORT
  5
8
330
0
100
AcDbSymbolTable
 70
     3
  0
VPORT
  5
7AA8
330
8
100
AcDbSymbolTableRecord
100
AcDbViewportTableRecord
  2
*Active
 70
     0
 10
0.0
 20
0.0
 11
1.0
 21
1.0
 12
340.2082063254409
 22
476.0468438636374
 13
0.0
 23
0.0
 14
2.5
 24
2.5
 15
10.0
 25
10.0
 16
0.0
 26
0.0
 36
1.0
 17
0.0
 27
0.0
 37
0.0
 40
839.1317198130936
 41
1.81766917293233
 42
50.0
 43
0.0
 44
0.0
 50
0.0
 51
0.0
 71
     0
 72
   100
 73
     1
 74
     1
 75
     0
 76
     0
 77
     0
 78
     0
281
     0
 65
     1
110
0.0
120
0.0
130
0.0
111
1.0
121
0.0
131
0.0
112
0.0
122
1.0
132
0.0
 79
     0
146
0.0
  0
ENDTAB
  0
TABLE
  2
LTYPE
  5
5
330
0
100
AcDbSymbolTable
 70
    16
  0
LTYPE
  5
13
330
5
100
AcDbSymbolTableRecord
100
AcDbLinetypeTableRecord
  2
BYBLOCK
 70
     0
  3

 72
    65
 73
     0
 40
0.0
  0
LTYPE
  5
14
330
5
100
AcDbSymbolTableRecord
100
AcDbLinetypeTableRecord
  2
BYLAYER
 70
     0
  3

 72
    65
 73
     0
 40
0.0
  0
LTYPE
  5
15
330
5
100
AcDbSymbolTableRecord
100
AcDbLinetypeTableRecord
  2
CONTINUOUS
 70
     0
  3
Solid line
 72
    65
 73
     0
 40
0.0
  0
LTYPE
  5
23
330
5
100
AcDbSymbolTableRecord
100
AcDbLinetypeTableRecord
  2
HIDDEN
 70
     0
  3
_ _ _ _ _ _ _ _ _ _ _ _ _ _ _ _ _ _ _ _ _ _ _
 72
    65
 73
     2
 40
0.375
 49
0.25
 74
     0
 49
-0.125
 74
     0
  0
LTYPE
  5
24
330
5
100
AcDbSymbolTableRecord
100
AcDbLinetypeTableRecord
  2
CENTER
 70
     0
  3
____ _ ____ _ ____ _ ____ _ ____ _ ____ _ ____
 72
    65
 73
     4
 40
2.0
 49
1.25
 74
     0
 49
-0.25
 74
     0
 49
0.25
 74
     0
 49
-0.25
 74
     0
  0
LTYPE
  5
7CE
330
5
100
AcDbSymbolTableRecord
100
AcDbLinetypeTableRecord
  2
AMCONSTR
 70
     0
  3
_______________________
 72
    65
 73
     2
 40
9999.0
 49
9999.0
 74
     0
 49
0.0
 74
     0
  0
LTYPE
  5
7CF
330
5
100
AcDbSymbolTableRecord
100
AcDbLinetypeTableRecord
  2
AM_ISO08W050X2
 70
     0
  3
__ . __ . __ . __ . __ . __
 72
    65
 73
     4
 40
9.0
 49
6.0
 74
     0
 49
-0.75
 74
     0
 49
1.5
 74
     0
 49
-0.75
 74
     0
  0
LTYPE
  5
7D4
330
5
100
AcDbSymbolTableRecord
100
AcDbLinetypeTableRecord
  2
PHANTOM2
 70
     0
  3
Phantom (.5x) ___ _ _ ___ _ _ ___ _ _ ___ _ _
 72
    65
 73
     6
 40
1.25
 49
0.625
 74
     0
 49
-0.125
 74
     0
 49
0.125
 74
     0
 49
-0.125
 74
     0
 49
0.125
 74
     0
 49
-0.125
 74
     0
  0
LTYPE
  5
7E3
330
5
100
AcDbSymbolTableRecord
100
AcDbLinetypeTableRecord
  2
ACANSTGB
 70
     0
  3
__ . . __ . .
 72
    65
 73
     6
 40
0.35433070866
 49
0.15748031496
 74
     0
 49
-0.03937007874
 74
     0
 49
0.03937007874
 74
     0
 49
-0.03937007874
 74
     0
 49
0.03937007874
 74
     0
 49
-0.03937007874
 74
     0
  0
LTYPE
  5
7E4
330
5
100
AcDbSymbolTableRecord
100
AcDbLinetypeTableRecord
  2
ACANSTGL
 70
     0
  3
_ _ _ _ _
 72
    65
 73
     2
 40
0.11811023622
 49
0.07874015748
 74
     0
 49
-0.03937007874
 74
     0
  0
LTYPE
  5
C13
330
5
100
AcDbSymbolTableRecord
100
AcDbLinetypeTableRecord
  2
ACISOWELD
 70
     0
  3
_ _ _ _ _
 72
    65
 73
     2
 40
2.0
 49
2.0
 74
     0
 49
-1.0
 74
     0
  0
LTYPE
  5
C14
330
5
100
AcDbSymbolTableRecord
100
AcDbLinetypeTableRecord
  2
ACISOTGB
 70
     0
  3
__ . . __ . .
 72
    65
 73
     6
 40
9.0
 49
4.0
 74
     0
 49
-1.0
 74
     0
 49
1.0
 74
     0
 49
-1.0
 74
     0
 49
1.0
 74
     0
 49
-1.0
 74
     0
  0
LTYPE
  5
C15
330
5
100
AcDbSymbolTableRecord
100
AcDbLinetypeTableRecord
  2
ACISOTGL
 70
     0
  3
_ _ _ _ _
 72
    65
 73
     2
 40
3.0
 49
2.0
 74
     0
 49
-1.0
 74
     0
  0
LTYPE
  5
16FD
330
5
100
AcDbSymbolTableRecord
100
AcDbLinetypeTableRecord
  2
AM_ISO02W050
 70
     0
  3
__ __ __ __ __ __ __ __ __ __ __ __ __ __ __
 72
    65
 73
     2
 40
7.5
 49
6.0
 74
     0
 49
-1.5
 74
     0
  0
LTYPE
  5
16FE
330
5
100
AcDbSymbolTableRecord
100
AcDbLinetypeTableRecord
  2
AM_ISO08W050
 70
     0
  3
____ . ____ . ____ . ____ . ____ . ____ . ____
 72
    65
 73
     4
 40
18.0
 49
12.0
 74
     0
 49
-1.5
 74
     0
 49
3.0
 74
     0
 49
-1.5
 74
     0
  0
LTYPE
  5
16FF
330
5
100
AcDbSymbolTableRecord
100
AcDbLinetypeTableRecord
  2
AM_ISO09W050
 70
     0
  3
_____ . . _____ . . _____ . . ____ .. ____
 72
    65
 73
     6
 40
22.5
 49
12.0
 74
     0
 49
-1.5
 74
     0
 49
3.0
 74
     0
 49
-1.5
 74
     0
 49
3.0
 74
     0
 49
-1.5
 74
     0
  0
LTYPE
  5
1700
330
5
100
AcDbSymbolTableRecord
100
AcDbLinetypeTableRecord
  2
AM_ISO02W050x2
 70
     0
  3
 _ _ _ _ _ _ _ _ _ _ _ _
 72
    65
 73
     2
 40
3.75
 49
3.0
 74
     0
 49
-0.75
 74
     0
  0
LTYPE
  5
1701
330
5
100
AcDbSymbolTableRecord
100
AcDbLinetypeTableRecord
  2
Amzigzag
 70
     0
  3
/\/-/\/-/\/-/\/-/\/-/\/
 72
    65
 73
     2
 40
11.0001
 49
0.0001
 74
     4
 75
   135
340
7D2
 46
0.04
 50
0.0
 44
0.0
 45
0.0
 49
-11.0
 74
     0
  0
ENDTAB
  0
TABLE
  2
LAYER
  5
2
102
{ACAD_XDICTIONARY
360
6C50
102
}
330
0
100
AcDbSymbolTable
 70
     7
  0
LAYER
  5
10
330
2
100
AcDbSymbolTableRecord
100
AcDbLayerTableRecord
  2
0
 70
     0
 62
     7
  6
CONTINUOUS
370
    -3
390
B32
  0
LAYER
  5
26
330
2
100
AcDbSymbolTableRecord
100
AcDbLayerTableRecord
  2
DEFPOINTS
 70
     0
 62
     7
  6
CONTINUOUS
290
     0
370
    -3
390
B32
  0
LAYER
  5
516
330
2
100
AcDbSymbolTableRecord
100
AcDbLayerTableRecord
  2
ASHADE
 70
     0
 62
     7
  6
CONTINUOUS
370
    -3
390
B32
  0
LAYER
  5
7F7
330
2
100
AcDbSymbolTableRecord
100
AcDbLayerTableRecord
  2
LOGO
 70
     0
 62
     7
  6
CONTINUOUS
370
    -3
390
B32
  0
LAYER
  5
2E05
330
2
100
AcDbSymbolTableRecord
100
AcDbLayerTableRecord
  2
CENTER
 70
     0
 62
     1
  6
CENTER
370
    -3
390
B32
  0
LAYER
  5
62F0
330
2
100
AcDbSymbolTableRecord
100
AcDbLayerTableRecord
  2
UMCL2
 70
     0
 62
     5
  6
CONTINUOUS
370
    -3
390
B32
  0
LAYER
  5
62F1
330
2
100
AcDbSymbolTableRecord
100
AcDbLayerTableRecord
  2
UMCL1
 70
     0
 62
     7
  6
CONTINUOUS
370
    -3
390
B32
  0
ENDTAB
  0
TABLE
  2
STYLE
  5
3
330
0
100
AcDbSymbolTable
 70
    10
  0
STYLE
  5
11
330
3
100
AcDbSymbolTableRecord
100
AcDbTextStyleTableRecord
  2
STANDARD
 70
     0
 40
0.0
 41
1.0
 50
0.0
 71
     0
 42
3.5
  3
ISOCP.SHX
  4

  0
STYLE
  5
22
330
3
100
AcDbSymbolTableRecord
100
AcDbTextStyleTableRecord
  2
DAYUS
 70
     0
 40
0.0
 41
1.0
 50
0.0
 71
     0
 42
3.0
  3
simplex
  4
dayus
  0
STYLE
  5
27B
330
3
100
AcDbSymbolTableRecord
100
AcDbTextStyleTableRecord
  2
CHINESET
 70
     0
 40
0.0
 41
1.0
 50
0.0
 71
     0
 42
4.0
  3
simplex.shx
  4
chineset.shx
  0
STYLE
  5
7D2
330
3
100
AcDbSymbolTableRecord
100
AcDbTextStyleTableRecord
  2

 70
     1
 40
0.0
 41
1.0
 50
0.0
 71
     0
 42
4.0
  3
ltypeshp.shx
  4

  0
STYLE
  5
7D7
330
3
100
AcDbSymbolTableRecord
100
AcDbTextStyleTableRecord
  2
ACANSTS
 70
     0
 40
1.0
 41
1.0
 50
0.0
 71
     0
 42
4.0
  3
romans.shx
  4
chineset.shx
  0
STYLE
  5
7E2
330
3
100
AcDbSymbolTableRecord
100
AcDbTextStyleTableRecord
  2
ACANSGDT
 70
     0
 40
0.0
 41
1.0
 50
0.0
 71
     0
 42
4.0
  3
amgdtans.shx
  4

  0
STYLE
  5
C19
330
3
100
AcDbSymbolTableRecord
100
AcDbTextStyleTableRecord
  2
ACISOTS
 70
     0
 40
1.0
 41
1.0
 50
0.0
 71
     0
 42
2.5
  3
isocp.shx
  4
chineset.shx
  0
STYLE
  5
C1A
330
3
100
AcDbSymbolTableRecord
100
AcDbTextStyleTableRecord
  2
ACISOGDT
 70
     0
 40
0.0
 41
1.0
 50
0.0
 71
     0
 42
2.5
  3
amgdt.shx
  4

  0
STYLE
  5
7336
330
3
100
AcDbSymbolTableRecord
100
AcDbTextStyleTableRecord
  2
ROMANS
 70
     0
 40
0.0
 41
1.0
 50
0.0
 71
     0
 42
3.0
  3
ROMANS.SHX
  4
OBK
  0
ENDTAB
  0
TABLE
  2
VIEW
  5
6
330
0
100
AcDbSymbolTable
 70
     0
  0
ENDTAB
  0
TABLE
  2
UCS
  5
7
330
0
100
AcDbSymbolTable
 70
     0
  0
ENDTAB
  0
TABLE
  2
APPID
  5
9
330
0
100
AcDbSymbolTable
 70
    29
  0
APPID
  5
12
330
9
100
AcDbSymbolTableRecord
100
AcDbRegAppTableRecord
  2
ACAD
 70
     0
  0
APPID
  5
514
330
9
100
AcDbSymbolTableRecord
100
AcDbRegAppTableRecord
  2
AVE_RENDER
 70
     0
  0
APPID
  5
515
330
9
100
AcDbSymbolTableRecord
100
AcDbRegAppTableRecord
  2
AVE_ENTITY_MATERIAL
 70
     0
  0
APPID
  5
522
330
9
100
AcDbSymbolTableRecord
100
AcDbRegAppTableRecord
  2
AVE_FINISH
 70
     0
  0
APPID
  5
523
330
9
100
AcDbSymbolTableRecord
100
AcDbRegAppTableRecord
  2
AVE_MATERIAL
 70
     0
  0
APPID
  5
524
330
9
100
AcDbSymbolTableRecord
100
AcDbRegAppTableRecord
  2
AVE_GLOBAL
 70
     0
  0
APPID
  5
7AD
330
9
100
AcDbSymbolTableRecord
100
AcDbRegAppTableRecord
  2
MCAD_NO_VIS
 70
     0
  0
APPID
  5
7AE
330
9
100
AcDbSymbolTableRecord
100
AcDbRegAppTableRecord
  2
ACAD_TEMP_GRAPHIC
 70
     0
  0
APPID
  5
7BF
330
9
100
AcDbSymbolTableRecord
100
AcDbRegAppTableRecord
  2
ACATTRIBSERVICES
 70
     0
  0
APPID
  5
C22
330
9
100
AcDbSymbolTableRecord
100
AcDbRegAppTableRecord
  2
GENIUS_GENODEF_13
 70
     0
  0
APPID
  5
C23
330
9
100
AcDbSymbolTableRecord
100
AcDbRegAppTableRecord
  2
GENIUS_GENOREF_13
 70
     0
  0
APPID
  5
C24
330
9
100
AcDbSymbolTableRecord
100
AcDbRegAppTableRecord
  2
GENIUS_GENOBJ-N-CEN_13
 70
     0
  0
APPID
  5
16D2
330
9
100
AcDbSymbolTableRecord
100
AcDbRegAppTableRecord
  2
GENIUS_GENDTOL_13
 70
     0
  0
APPID
  5
353F
330
9
100
AcDbSymbolTableRecord
100
AcDbRegAppTableRecord
  2
GENIUS_GENDIMSH_14
 70
     0
  0
APPID
  5
4D84
330
9
100
AcDbSymbolTableRecord
100
AcDbRegAppTableRecord
  2
GEVID1082602174
 70
     0
  0
APPID
  5
4D85
330
9
100
AcDbSymbolTableRecord
100
AcDbRegAppTableRecord
  2
GEVDC
 70
     0
  0
APPID
  5
4D88
330
9
100
AcDbSymbolTableRecord
100
AcDbRegAppTableRecord
  2
GENIUS_GENBH_13
 70
     0
  0
APPID
  5
4D8E
330
9
100
AcDbSymbolTableRecord
100
AcDbRegAppTableRecord
  2
GENIUS_GENOLIS_13
 70
     0
  0
APPID
  5
4D8F
330
9
100
AcDbSymbolTableRecord
100
AcDbRegAppTableRecord
  2
GENIUS_GENOENT_13
 70
     0
  0
APPID
  5
4D90
330
9
100
AcDbSymbolTableRecord
100
AcDbRegAppTableRecord
  2
GENIUS_GENOBJ-NBEHI-BHF_13
 70
     0
  0
APPID
  5
4D92
330
9
100
AcDbSymbolTableRecord
100
AcDbRegAppTableRecord
  2
GENIUS_GENOBJ-NBEHI-BHB_13
 70
     0
  0
APPID
  5
5F39
330
9
100
AcDbSymbolTableRecord
100
AcDbRegAppTableRecord
  2
GEVID1082701535
 70
     0
  0
APPID
  5
5F3B
330
9
100
AcDbSymbolTableRecord
100
AcDbRegAppTableRecord
  2
GEVRADREF
 70
     0
  0
APPID
  5
62C2
330
9
100
AcDbSymbolTableRecord
100
AcDbRegAppTableRecord
  2
AD_DRAW
 70
     0
  0
APPID
  5
62E0
330
9
100
AcDbSymbolTableRecord
100
AcDbRegAppTableRecord
  2
DESIGNERASSEMBLIES
 70
     0
  0
APPID
  5
62E6
330
9
100
AcDbSymbolTableRecord
100
AcDbRegAppTableRecord
  2
ACADM_DIM_EDIT
 70
     0
  0
APPID
  5
62E7
330
9
100
AcDbSymbolTableRecord
100
AcDbRegAppTableRecord
  2
AMDT_DM_ADJ
 70
     0
  0
APPID
  5
67CA
330
9
100
AcDbSymbolTableRecord
100
AcDbRegAppTableRecord
  2
GENIUS_GENREC_14
 70
     0
  0
APPID
  5
67CB
330
9
100
AcDbSymbolTableRecord
100
AcDbRegAppTableRecord
  2
GENIUS_GENOBJ-N-REC_13
 70
     0
  0
ENDTAB
  0
TABLE
  2
DIMSTYLE
  5
A
330
0
100
AcDbSymbolTable
 70
    15
100
AcDbDimStyleTable
 71
     1
340
C1B
  0
DIMSTYLE
105
7E8
330
A
100
AcDbSymbolTableRecord
100
AcDbDimStyleTableRecord
  2
AM_ANSI
 70
     0
  4
mm
 41
0.1
 42
0.05
 43
0.5
 44
0.1
 47
0.1
 48
0.1
 78
     7
140
0.12
141
0.0
146
0.71
147
0.06
176
   256
177
   256
178
     2
274
     4
284
     7
340
11
  0
DIMSTYLE
105
7E9
330
A
100
AcDbSymbolTableRecord
100
AcDbDimStyleTableRecord
  2
AM_ANSI$3
 70
     0
  4
mm
 41
0.1
 42
0.05
 43
0.5
 44
0.1
 47
0.1
 48
0.1
 78
     7
140
0.12
141
0.0
146
0.71
147
0.06
176
   256
177
   256
178
     2
274
     4
284
     7
288
     1
340
11
  0
DIMSTYLE
105
7EA
330
A
100
AcDbSymbolTableRecord
100
AcDbDimStyleTableRecord
  2
AM_ANSI$4
 70
     0
  4
mm
 41
0.1
 42
0.05
 43
0.5
 44
0.1
 47
0.1
 48
0.1
 78
     7
140
0.12
141
0.0
146
0.71
147
0.06
176
   256
177
   256
178
     2
274
     4
284
     7
288
     1
340
11
  0
DIMSTYLE
105
7EB
330
A
100
AcDbSymbolTableRecord
100
AcDbDimStyleTableRecord
  2
AM_ANSI$7
 70
     0
  4
mm
 41
0.1
 42
0.05
 43
0.5
 44
0.1
 47
0.1
 48
0.1
 78
     7
140
0.24
141
0.0
146
0.71
147
0.06
176
   256
177
   256
178
     2
274
     4
284
     7
340
11
  0
DIMSTYLE
105
7EC
330
A
100
AcDbSymbolTableRecord
100
AcDbDimStyleTableRecord
  2
AM_ANSI$SF
 70
     0
  4
mm
 41
0.1
 42
0.05
 43
0.5
 44
0.1
 47
0.1
 48
0.1
 75
     1
 76
     1
 78
     7
140
0.12
141
0.0
146
0.71
147
0.06
176
   256
177
   256
178
     2
274
     4
284
     7
340
11
  0
DIMSTYLE
105
7F1
330
A
100
AcDbSymbolTableRecord
100
AcDbDimStyleTableRecord
  2
AM_ANSI$SH
 70
     0
  4
mm
 41
0.1
 42
0.05
 43
0.5
 44
0.1
 47
0.1
 48
0.1
 75
     1
 76
     1
 78
     7
140
0.12
141
0.0
146
0.71
147
0.06
173
     1
176
   256
177
   256
178
     2
274
     4
284
     7
340
11
341
7ED
343
7ED
  0
DIMSTYLE
105
C1B
330
A
100
AcDbSymbolTableRecord
100
AcDbDimStyleTableRecord
  2
AM_ISO
 70
     0
  4
"
 41
2.0
 42
1.0
 43
5.0
 44
1.5
 47
0.1
 48
0.1
 73
     0
 74
     0
 77
     1
 78
     8
 79
     2
140
2.0
141
3.0
143
0.0393701
146
0.71
147
0.6
172
     1
176
   256
177
   256
178
   256
271
     2
272
     2
283
     0
284
     8
340
11
371
    -1
372
    -1
  0
DIMSTYLE
105
C1C
330
A
100
AcDbSymbolTableRecord
100
AcDbDimStyleTableRecord
  2
AM_ISO$3
 70
     0
  4
"
 41
2.0
 42
1.0
 43
5.0
 44
1.5
 47
0.1
 48
0.1
 73
     0
 77
     1
 78
     8
 79
     2
140
2.0
141
3.0
143
0.0393701
146
0.71
147
0.6
176
   256
177
   256
178
   256
271
     2
272
     2
283
     0
284
     8
288
     1
289
     0
340
11
371
    -1
372
    -1
  0
DIMSTYLE
105
C1D
330
A
100
AcDbSymbolTableRecord
100
AcDbDimStyleTableRecord
  2
AM_ISO$4
 70
     0
  4
"
 41
2.0
 42
1.0
 43
5.0
 44
1.5
 47
0.1
 48
0.1
 73
     0
 77
     1
 78
     8
 79
     2
140
2.0
141
3.0
143
0.0393701
146
0.71
147
0.6
176
   256
177
   256
178
   256
271
     2
272
     2
283
     0
284
     8
288
     1
289
     0
340
11
371
    -1
372
    -1
  0
DIMSTYLE
105
C1E
330
A
100
AcDbSymbolTableRecord
100
AcDbDimStyleTableRecord
  2
AM_ISO$6
 70
     0
  4
"
 41
2.0
 42
1.0
 43
5.0
 44
1.5
 47
0.1
 48
0.1
 73
     0
 74
     0
 78
     8
 79
     2
140
2.0
141
3.0
143
0.0393701
146
0.71
147
0.6
172
     1
176
   256
177
   256
178
   256
271
     2
272
     2
283
     0
284
     8
340
11
371
    -1
372
    -1
  0
DIMSTYLE
105
C1F
330
A
100
AcDbSymbolTableRecord
100
AcDbDimStyleTableRecord
  2
AM_ISO$7
 70
     0
  4
"
 41
2.0
 42
1.0
 43
5.0
 44
1.5
 47
0.1
 48
0.1
 73
     0
 74
     0
 77
     1
 78
     8
 79
     2
140
5.0
141
3.0
143
0.0393701
146
0.71
147
0.6
172
     1
176
   256
177
   256
178
   256
271
     2
272
     2
283
     0
284
     8
340
11
371
    -1
372
    -1
  0
DIMSTYLE
105
C20
330
A
100
AcDbSymbolTableRecord
100
AcDbDimStyleTableRecord
  2
AM_ISO$SF
 70
     0
  4
"
 41
2.5
 42
1.0
 43
10.0
 44
1.0
 47
0.1
 48
0.1
 73
     0
 74
     0
 75
     1
 76
     1
 77
     1
 78
     8
 79
     2
140
3.5
141
0.0
143
0.0393701
146
0.71
147
1.5
172
     1
176
   256
177
   256
178
     2
271
     2
272
     3
274
     4
283
     0
284
     8
340
11
371
    -1
372
    -1
  0
DIMSTYLE
105
C21
330
A
100
AcDbSymbolTableRecord
100
AcDbDimStyleTableRecord
  2
AM_ISO$SH
 70
     0
  4
"
 41
2.5
 42
1.0
 43
10.0
 44
1.0
 47
0.1
 48
0.1
 73
     0
 74
     0
 75
     1
 76
     1
 77
     1
 78
     8
 79
     2
140
3.5
141
0.0
143
0.0393701
144
2.0
146
0.71
147
1.5
172
     1
173
     1
176
   256
177
   256
178
     2
271
     2
272
     3
274
     4
283
     0
284
     8
340
11
341
7ED
343
7ED
371
    -1
372
    -1
  0
DIMSTYLE
105
62F4
330
A
100
AcDbSymbolTableRecord
100
AcDbDimStyleTableRecord
  2
Standard
 70
     0
340
11
  0
ENDTAB
  0
TABLE
  2
BLOCK_RECORD
  5
1
330
0
100
AcDbSymbolTable
 70
     6
  0
BLOCK_RECORD
  5
1E
102
{ACAD_XDICTIONARY
360
708
102
}
330
1
100
AcDbSymbolTableRecord
100
AcDbBlockTableRecord
  2
*MODEL_SPACE
340
B33
  0
BLOCK_RECORD
  5
1A
102
{ACAD_XDICTIONARY
360
70A
102
}
330
1
100
AcDbSymbolTableRecord
100
AcDbBlockTableRecord
  2
*PAPER_SPACE
340
B34
  0
BLOCK_RECORD
  5
517
330
1
100
AcDbSymbolTableRecord
100
AcDbBlockTableRecord
  2
AVE_RENDER
340
0
102
{BLKREFS
331
51A
331
51B
331
51C
331
51D
331
51E
331
51F
331
520
331
521
102
}
  0
BLOCK_RECORD
  5
525
330
1
100
AcDbSymbolTableRecord
100
AcDbBlockTableRecord
  2
AVE_GLOBAL
340
0
102
{BLKREFS
331
528
102
}
  0
BLOCK_RECORD
  5
7ED
330
1
100
AcDbSymbolTableRecord
100
AcDbBlockTableRecord
  2
GENAXEH
340
0
  0
BLOCK_RECORD
  5
7312
330
1
100
AcDbSymbolTableRecord
100
AcDbBlockTableRecord
  2
11110_10
340
0
102
{BLKREFS
331
79F2
102
}
  0
ENDTAB
  0
ENDSEC
  0
SECTION
  2
BLOCKS
  0
BLOCK
  5
29
330
1E
100
AcDbEntity
  8
0
100
AcDbBlockBegin
  2
*MODEL_SPACE
 70
     0
 10
0.0
 20
0.0
 30
0.0
  3
*MODEL_SPACE
  1

  0
ENDBLK
  5
2A
330
1E
100
AcDbEntity
  8
0
100
AcDbBlockEnd
  0
BLOCK
  5
27
330
1A
100
AcDbEntity
 67
     1
  8
0
100
AcDbBlockBegin
  2
*PAPER_SPACE
 70
     0
 10
0.0
 20
0.0
 30
0.0
  3
*PAPER_SPACE
  1

  0
ENDBLK
  5
28
330
1A
100
AcDbEntity
 67
     1
  8
0
100
AcDbBlockEnd
  0
BLOCK
  5
518
330
517
100
AcDbEntity
  8
0
100
AcDbBlockBegin
  2
AVE_RENDER
 70
     0
 10
0.0
 20
0.0
 30
0.0
  3
AVE_RENDER
  1
AVE_RENDER
  0
ENDBLK
  5
519
330
517
100
AcDbEntity
  8
0
100
AcDbBlockEnd
  0
BLOCK
  5
526
330
525
100
AcDbEntity
  8
0
100
AcDbBlockBegin
  2
AVE_GLOBAL
 70
     0
 10
0.0
 20
0.0
 30
0.0
  3
AVE_GLOBAL
  1
AVE_GLOBAL
  0
ENDBLK
  5
527
330
525
100
AcDbEntity
  8
0
100
AcDbBlockEnd
  0
BLOCK
  5
7EF
330
7ED
100
AcDbEntity
  8
0
100
AcDbBlockBegin
  2
GENAXEH
 70
     0
 10
0.0
 20
0.0
 30
0.0
  3
GENAXEH
  1

  0
LINE
  5
7EE
330
7ED
100
AcDbEntity
  8
0
100
AcDbLine
 10
-1.0
 20
0.0
 30
0.0
 11
1.0
 21
0.0
 31
0.0
  0
ENDBLK
  5
7F0
330
7ED
100
AcDbEntity
  8
0
100
AcDbBlockEnd
  0
BLOCK
  5
7313
330
7312
100
AcDbEntity
  8
0
 62
    16
100
AcDbBlockBegin
  2
11110_10
 70
     0
 10
0.0
 20
0.0
 30
0.0
  3
11110_10
  1

  0
CIRCLE
  5
7314
330
7312
100
AcDbEntity
  8
UMCL1
100
AcDbCircle
 10
0.0
 20
0.0
 30
0.0
 40
5.299999999999999
  0
CIRCLE
  5
7315
330
7312
100
AcDbEntity
  8
UMCL1
100
AcDbCircle
 10
0.0
 20
0.0
 30
0.0
 40
5.0
  0
CIRCLE
  5
7316
330
7312
100
AcDbEntity
  8
UMCL1
100
AcDbCircle
 10
0.0
 20
0.0
 30
0.0
 40
2.5
  0
POLYLINE
  5
7317
330
7312
100
AcDbEntity
  8
UMCL1
  6
Continuous
100
AcDb2dPolyline
 66
     1
 10
0.0
 20
0.0
 30
0.0
 70
     1
  0
VERTEX
  5
7318
330
7317
100
AcDbEntity
  8
UMCL1
  6
Continuous
100
AcDbVertex
100
AcDb2dVertex
 10
2.0
 20
-1.154700538379245
 30
0.0
  0
VERTEX
  5
7319
330
7317
100
AcDbEntity
  8
UMCL1
  6
Continuous
100
AcDbVertex
100
AcDb2dVertex
 10
2.0
 20
1.154700538379245
 30
0.0
  0
VERTEX
  5
731A
330
7317
100
AcDbEntity
  8
UMCL1
  6
Continuous
100
AcDbVertex
100
AcDb2dVertex
 10
0.0
 20
2.30940107675849
 30
0.0
  0
VERTEX
  5
731B
330
7317
100
AcDbEntity
  8
UMCL1
  6
Continuous
100
AcDbVertex
100
AcDb2dVertex
 10
-2.0
 20
1.154700538379245
 30
0.0
  0
VERTEX
  5
731C
330
7317
100
AcDbEntity
  8
UMCL1
  6
Continuous
100
AcDbVertex
100
AcDb2dVertex
 10
-2.0
 20
-1.154700538379245
 30
0.0
  0
VERTEX
  5
731D
330
7317
100
AcDbEntity
  8
UMCL1
  6
Continuous
100
AcDbVertex
100
AcDb2dVertex
 10
0.0
 20
-2.30940107675849
 30
0.0
  0
SEQEND
  5
731E
330
7317
100
AcDbEntity
  8
UMCL1
  6
Continuous
  0
LINE
  5
731F
330
7312
100
AcDbEntity
  8
UMCL1
  6
Continuous
 62
     7
100
AcDbLine
 10
-0.8499999999999943
 20
3.908644266238582
 30
0.0
 11
-0.8499999999999943
 21
4.927220311697055
 31
0.0
  0
LINE
  5
7320
330
7312
100
AcDbEntity
  8
UMCL1
  6
Continuous
 62
     7
100
AcDbLine
 10
0.8499999999999943
 20
3.908644266238582
 30
0.0
 11
0.8499999999999943
 21
4.927220311697055
 31
0.0
  0
LINE
  5
7321
330
7312
100
AcDbEntity
  8
UMCL1
  6
Continuous
 62
     7
100
AcDbLine
 10
0.8499999999999943
 20
-4.927220311697055
 30
0.0
 11
0.8499999999999943
 21
-3.90864426623861
 31
0.0
  0
LINE
  5
7322
330
7312
100
AcDbEntity
  8
UMCL1
  6
Continuous
 62
     7
100
AcDbLine
 10
-0.8499999999999943
 20
-4.927220311697055
 30
0.0
 11
-0.8499999999999943
 21
-3.90864426623861
 31
0.0
  0
LINE
  5
7323
330
7312
100
AcDbEntity
  8
UMCL1
  6
Continuous
 62
     7
100
AcDbLine
 10
-3.809985228919032
 20
1.218200539902511
 30
0.0
 11
-4.692097959972329
 21
1.727488562631776
 31
0.0
  0
LINE
  5
7324
330
7312
100
AcDbEntity
  8
UMCL1
  6
Continuous
 62
     7
100
AcDbLine
 10
-2.959985228919038
 20
2.69044372633607
 30
0.0
 11
-3.842097959972335
 21
3.199731749065279
 31
0.0
  0
LINE
  5
7325
330
7312
100
AcDbEntity
  8
UMCL1
  6
Continuous
 62
     7
100
AcDbLine
 10
4.692097959972329
 20
-1.727488562631748
 30
0.0
 11
3.809985228919032
 21
-1.218200539902539
 31
0.0
  0
LINE
  5
7326
330
7312
100
AcDbEntity
  8
UMCL1
  6
Continuous
 62
     7
100
AcDbLine
 10
3.842097959972335
 20
-3.199731749065307
 30
0.0
 11
2.959985228919038
 21
-2.69044372633607
 31
0.0
  0
LINE
  5
7327
330
7312
100
AcDbEntity
  8
UMCL1
  6
Continuous
 62
     7
100
AcDbLine
 10
-3.809985228919032
 20
-1.218200539902539
 30
0.0
 11
-4.692097959972329
 21
-1.727488562631748
 31
0.0
  0
LINE
  5
7328
330
7312
100
AcDbEntity
  8
UMCL1
  6
Continuous
 62
     7
100
AcDbLine
 10
-2.959985228919038
 20
-2.69044372633607
 30
0.0
 11
-3.842097959972335
 21
-3.199731749065307
 31
0.0
  0
LINE
  5
7329
330
7312
100
AcDbEntity
  8
UMCL1
  6
Continuous
 62
     7
100
AcDbLine
 10
4.692097959972329
 20
1.727488562631776
 30
0.0
 11
3.809985228919032
 21
1.218200539902511
 31
0.0
  0
LINE
  5
732A
330
7312
100
AcDbEntity
  8
UMCL1
  6
Continuous
 62
     7
100
AcDbLine
 10
3.842097959972335
 20
3.199731749065279
 30
0.0
 11
2.959985228919038
 21
2.69044372633607
 31
0.0
  0
ARC
  5
732B
330
7312
100
AcDbEntity
  8
UMCL1
100
AcDbCircle
 10
0.0
 20
0.0
 30
0.0
 40
4.0
100
AcDbArc
 50
102.2688989959565
 51
137.7311010040436
  0
ARC
  5
732C
330
7312
100
AcDbEntity
  8
UMCL1
100
AcDbCircle
 10
0.0
 20
0.0
 30
0.0
 40
4.0
100
AcDbArc
 50
162.2688989959568
 51
197.7311010040431
  0
ARC
  5
732D
330
7312
100
AcDbEntity
  8
UMCL1
100
AcDbCircle
 10
0.0
 20
0.0
 30
0.0
 40
4.0
100
AcDbArc
 50
222.2688989959564
 51
257.7311010040435
  0
ARC
  5
732E
330
7312
100
AcDbEntity
  8
UMCL1
100
AcDbCircle
 10
0.0
 20
0.0
 30
0.0
 40
4.0
100
AcDbArc
 50
282.2688989959565
 51
317.7311010040436
  0
ARC
  5
732F
330
7312
100
AcDbEntity
  8
UMCL1
100
AcDbCircle
 10
0.0
 20
0.0
 30
0.0
 40
4.0
100
AcDbArc
 50
342.2688989959569
 51
17.73110100404311
  0
ARC
  5
7330
330
7312
100
AcDbEntity
  8
UMCL1
100
AcDbCircle
 10
0.0
 20
0.0
 30
0.0
 40
4.0
100
AcDbArc
 50
42.26889899595635
 51
77.73110100404342
  0
ENDBLK
  5
7331
330
7312
100
AcDbEntity
  8
0
100
AcDbBlockEnd
  0
ENDSEC
  0
SECTION
  2
ENTITIES
  0
INSERT
  5
51A
330
1E
100
AcDbEntity
  8
ASHADE
 62
     1
100
AcDbBlockReference
  2
AVE_RENDER
 10
0.0
 20
0.0
 30
0.0
1001
AVE_RENDER
1002
{
1070
     7
1000
Pref
1070
    30
1070
    20
1070
     1
1070
     0
1000

1070
    10
1070
     1
1070
    10
1040
1.0
1070
     1
1040
0.3
1040
0.7
1040
0.0
1040
10.0
1010
-1.0
1020
-1.0
1030
-1.0
1040
0.3
1070
    49
1070
     0
1070
     0
1010
1.0
1020
1.0
1030
1.0
1040
45.0
1070
     1
1070
     0
1000
WCS
1040
0.0
1070
     0
1040
10.0
1002
}
  0
INSERT
  5
51B
330
1E
100
AcDbEntity
  8
ASHADE
 62
     3
100
AcDbBlockReference
  2
AVE_RENDER
 10
0.0
 20
0.0
 30
0.0
1001
AVE_RENDER
1002
{
1070
     0
1000
Full Opt
1070
     0
1070
     1
1070
     1
1070
     1
1070
     0
1070
     0
1070
     0
1070
     1
1070
     1
1040
0.0001
1040
0.0001
1002
}
  0
INSERT
  5
51C
330
1E
100
AcDbEntity
  8
ASHADE
 62
     4
100
AcDbBlockReference
  2
AVE_RENDER
 10
0.0
 20
0.0
 30
0.0
1001
AVE_RENDER
1002
{
1070
     0
1000
Quick Opt
1070
     0
1070
     1
1070
     1
1070
     1
1070
     0
1070
     0
1070
     1
1002
}
  0
INSERT
  5
51D
330
1E
100
AcDbEntity
  8
ASHADE
 62
     5
100
AcDbBlockReference
  2
AVE_RENDER
 10
0.0
 20
0.0
 30
0.0
1001
AVE_RENDER
1002
{
1070
     1
1000
Scanl Opt
1070
     2
1070
     0
1070
     2
1040
2.0
1040
4.0
1070
     0
1070
     1
1070
     0
1040
0.03
1002
}
  0
INSERT
  5
51E
330
1E
100
AcDbEntity
  8
ASHADE
 62
     6
100
AcDbBlockReference
  2
AVE_RENDER
 10
0.0
 20
0.0
 30
0.0
1001
AVE_RENDER
1002
{
1070
     2
1000
Raytr Opt
1070
     2
1070
     0
1070
     2
1040
2.0
1040
4.0
1070
     0
1070
     1
1070
     1
1040
0.03
1070
     3
1040
0.03
1002
}
  0
INSERT
  5
51F
330
1E
100
AcDbEntity
  8
ASHADE
 62
     7
100
AcDbBlockReference
  2
AVE_RENDER
 10
0.0
 20
0.0
 30
0.0
1001
AVE_RENDER
1002
{
1070
     0
1000
RFile Opt
1070
     1
1070
   640
1070
   480
1070
 10000
1070
     1
1070
     8
1070
     8
1070
     0
1070
     0
1070
     0
1070
     0
1070
     0
1070
     0
1070
     0
1002
}
  0
INSERT
  5
520
330
1E
100
AcDbEntity
  8
ASHADE
 62
     8
100
AcDbBlockReference
  2
AVE_RENDER
 10
0.0
 20
0.0
 30
0.0
1001
AVE_RENDER
1002
{
1070
     0
1000
Fog Opt
1070
     0
1070
     0
1040
0.0
1040
1.0
1040
0.0
1040
1.0
1010
0.5
1020
0.5
1030
0.5
1002
}
  0
INSERT
  5
521
330
1E
100
AcDbEntity
  8
ASHADE
 62
     9
100
AcDbBlockReference
  2
AVE_RENDER
 10
0.0
 20
0.0
 30
0.0
1001
AVE_RENDER
1002
{
1070
     0
1000
BG Opt
1070
     0
1070
     1
1010
0.0
1020
0.0
1030
0.0
1010
1.0
1020
0.0
1030
0.0
1010
0.0
1020
1.0
1030
0.0
1010
0.0
1020
0.0
1030
1.0
1040
0.5
1040
0.33
1040
0.0
1000

1070
     1
1000

1070
     1
1070
     1
1040
1.0
1040
1.0
1040
0.0
1040
0.0
1070
     0
1002
}
  0
INSERT
  5
528
330
1E
100
AcDbEntity
  8
ASHADE
 62
     1
100
AcDbBlockReference
  2
AVE_GLOBAL
 10
0.0
 20
0.0
 30
0.0
1001
AVE_MATERIAL
1002
{
1000
*整體*
1000
2
1000
整體修飾.
1002
{
1002
}
1002
{
1070
    63
1002
{
1002
{
1010
-1.0
1020
-1.0
1030
-1.0
1002
}
1040
0.1000000014901161
1000

1040
0.0
1002
{
1002
}
1040
0.0
1002
{
1002
}
1040
0.0
1002
}
1002
{
1002
{
1010
-1.0
1020
-1.0
1030
-1.0
1002
}
1040
0.6999999880790711
1000

1040
0.0
1002
{
1002
}
1040
0.0
1002
{
1002
}
1040
0.0
1002
}
1002
{
1002
{
1010
-1.0
1020
-1.0
1030
-1.0
1002
}
1040
0.2000000029802322
1000

1040
0.0
1002
{
1002
}
1040
0.0
1002
{
1002
}
1040
0.0
1002
}
1002
{
1070
     0
1002
{
1070
     1
1002
{
1040
1.0
1040
1.0
1000

1040
0.0
1002
{
1002
}
1040
0.0
1002
{
1002
}
1040
0.0
1002
}
1002
}
1040
1.0
1040
0.0
1040
0.0
1002
}
1002
{
1040
1.0
1040
1.0
1000

1040
0.0
1002
{
1002
}
1040
0.0
1002
{
1002
}
1040
0.0
1002
}
1002
{
1040
0.5
1040
1.0
1000

1040
0.0
1002
{
1002
}
1040
0.0
1002
{
1002
}
1040
0.0
1002
}
1002
{
1070
     0
1040
0.0
1002
{
1002
}
1040
1.0
1002
{
1002
}
1040
0.0
1002
}
1002
{
1040
0.0
1002
{
1002
{
1010
0.0
1020
0.0
1030
0.0
1002
}
1040
1.0
1000

1040
0.0
1002
{
1002
}
1040
0.0
1002
{
1002
}
1040
0.0
1002
}
1002
}
1002
{
1002
{
1070
     1
1002
{
1040
0.0
1040
1.0
1000

1040
0.0
1002
{
1002
}
1040
0.0
1002
{
1002
}
1040
0.0
1002
}
1002
}
1040
0.0
1002
{
1002
}
1010
1.0
1020
0.0
1030
0.0
1010
0.0
1020
1.0
1030
0.0
1010
0.0
1020
0.0
1030
1.0
1070
     0
1002
}
1002
{
1002
{
1040
1.0
1040
1.0
1002
{
1070
     1
1002
{
1040
1.0
1040
1.0
1000

1040
0.0
1002
{
1002
}
1040
0.0
1002
{
1002
}
1040
0.0
1002
}
1002
}
1002
}
1070
     0
1040
0.0
1002
{
1002
}
1002
}
1002
{
1002
}
1002
}
1002
{
1071
        3
1070
     3
1070
     0
1002
{
1070
     2
1070
     0
1070
     0
1040
0.0
1002
}
1070
     0
1070
     2
1002
{
1002
}
1002
}
1002
{
1040
8030.0
1040
190.3000030517578
1040
0.3050000071525574
1040
228.0
1040
545.0
1040
14.0
1040
17.39999961853027
1040
0.4560000002384186
1002
}
1002
}
  0
TEXT
  5
2F4E
330
1E
100
AcDbEntity
  8
LOGO
 62
     7
100
AcDbText
 10
103.5341917913216
 20
154.5415927146333
 30
0.0
 40
22.13872941176471
  1
Order example:
 41
0.8
  7
CHINESET
100
AcDbText
  0
TEXT
  5
2F4F
330
1E
100
AcDbEntity
  8
LOGO
 62
     7
100
AcDbText
 10
107.506062927634
 20
185.7083398439834
 30
0.0
 40
33.20809411764706
  1
訂購代號:
  7
CHINESET
100
AcDbText
  0
LINE
  5
2F50
330
1E
100
AcDbEntity
  8
LOGO
 62
     1
100
AcDbLine
 10
951.7906034775391
 20
227.2810974592994
 30
0.0
 11
-271.3741965224633
 21
227.2810974592994
 31
0.0
  0
LINE
  5
2F51
330
1E
100
AcDbEntity
  8
LOGO
 62
     1
100
AcDbLine
 10
951.7906034775391
 20
61.24062687106391
 30
0.0
 11
-271.3741965224633
 21
61.24062687106391
 31
0.0
  0
LINE
  5
2F62
330
1E
100
AcDbEntity
  8
0
 62
     4
100
AcDbLine
 10
951.7906034775377
 20
227.2810974592994
 30
0.0
 11
-271.3741965224617
 21
227.2810974592994
 31
0.0
  0
LINE
  5
2F64
330
1E
100
AcDbEntity
  8
LOGO
 62
     1
100
AcDbLine
 10
93.91483877165502
 20
61.24062687106391
 30
0.0
 11
93.91483877165502
 21
227.2810974592994
 31
0.0
  0
LINE
  5
2F65
330
1E
100
AcDbEntity
  8
LOGO
 62
     1
100
AcDbLine
 10
-271.3741965224633
 20
61.24062687106391
 30
0.0
 11
-271.3741965224633
 21
227.2810974592994
 31
0.0
  0
TEXT
  5
2F66
330
1E
100
AcDbEntity
  8
LOGO
  6
Continuous
 62
     5
100
AcDbText
 10
-226.3694149678131
 20
93.85902674120449
 30
0.0
 40
24.9060705882353
  1
金器工業股份有限公司
  7
CHINESET
100
AcDbText
  0
TEXT
  5
2F67
330
1E
100
AcDbEntity
  8
LOGO
  6
Continuous
 62
     5
100
AcDbText
 10
-258.8078151500933
 20
68.94807651584568
 30
0.0
 40
16.60404705882353
  1
MINDMAN INDUSTRIAL CO.,LTD
 41
0.85
  7
CHINESET
100
AcDbText
  0
LINE
  5
2F68
330
1E
100
AcDbEntity
  8
LOGO
 62
     1
100
AcDbLine
 10
93.91483877165502
 20
194.073003341653
 30
0.0
 11
-149.6111847577563
 21
194.073003341653
 31
0.0
  0
LINE
  5
2F69
330
1E
100
AcDbEntity
  8
LOGO
 62
     1
100
AcDbLine
 10
93.91483877165502
 20
160.864909224005
 30
0.0
 11
-149.6111847577563
 21
160.864909224005
 31
0.0
  0
LINE
  5
2F6A
330
1E
100
AcDbEntity
  8
LOGO
 62
     1
100
AcDbLine
 10
93.91483877165502
 20
127.6568151063584
 30
0.0
 11
-271.3741965224633
 21
127.6568151063584
 31
0.0
  0
SOLID
  5
2F6B
330
1E
100
AcDbEntity
  8
LOGO
 62
     5
100
AcDbTrace
 10
-254.1472312242449
 20
155.2586799416611
 30
0.0
 11
-246.968076966205
 21
155.2586799416584
 31
0.0
 12
-217.0136747171369
 22
223.3368668713571
 32
0.0
 13
-209.8345204590974
 23
223.3368668713515
 33
0.0
  0
SOLID
  5
2F6C
330
1E
100
AcDbEntity
  8
LOGO
 62
     5
100
AcDbTrace
 10
-243.9973924456315
 20
155.2586799416611
 30
0.0
 11
-236.8182381875931
 21
155.2586799416611
 31
0.0
 12
-209.8345204590974
 22
217.8906119169782
 32
0.0
 13
-217.0136747171369
 23
191.5670463041614
 33
0.0
  0
SOLID
  5
2F6D
330
1E
100
AcDbEntity
  8
LOGO
 62
     2
100
AcDbTrace
 10
-246.968076966205
 20
155.2586799416584
 30
0.0
 11
-243.9973924456315
 21
155.2586799416611
 31
0.0
 12
-209.8345204590974
 22
223.3368668713515
 32
0.0
 13
-206.8638359385265
 23
223.3368668713515
 33
0.0
  0
SOLID
  5
2F6E
330
1E
100
AcDbEntity
  8
LOGO
 62
     5
100
AcDbTrace
 10
-265.657176044162
 20
130.5029756035927
 30
0.0
 11
-263.1816056103512
 21
130.5029756035927
 31
0.0
 12
-256.2102065857494
 22
142.8808277726249
 32
0.0
 13
-253.7346361519435
 23
142.8808277726249
 33
0.0
  0
SOLID
  5
2F6F
330
1E
100
AcDbEntity
  8
LOGO
 62
     5
100
AcDbTrace
 10
-256.2102065857494
 20
142.8808277726249
 30
0.0
 11
-253.7346361519435
 21
142.8808277726249
 31
0.0
 12
-256.2102065857494
 22
130.5029756035927
 32
0.0
 13
-253.7346361519435
 23
130.5029756035927
 33
0.0
  0
SOLID
  5
2F70
330
1E
100
AcDbEntity
  8
LOGO
 62
     5
100
AcDbTrace
 10
-256.2102065857494
 20
130.5029756035927
 30
0.0
 11
-253.7346361519435
 21
130.5029756035927
 31
0.0
 12
-246.7632371273325
 22
142.8808277726249
 32
0.0
 13
-244.2876666935283
 23
142.8808277726249
 33
0.0
  0
SOLID
  5
2F71
330
1E
100
AcDbEntity
  8
LOGO
 62
     5
100
AcDbTrace
 10
-246.7632371273325
 20
142.8808277726249
 30
0.0
 11
-244.2876666935283
 21
142.8808277726249
 31
0.0
 12
-246.7632371273325
 22
130.5029756035927
 32
0.0
 13
-244.2876666935283
 23
130.5029756035927
 33
0.0
  0
POLYLINE
  5
2F72
330
1E
100
AcDbEntity
  8
LOGO
 62
     5
100
AcDb2dPolyline
 66
     1
 10
0.0
 20
0.0
 30
0.0
 40
2.479537694117647
 41
2.479537694117647
  0
VERTEX
  5
2F73
330
2F72
100
AcDbEntity
  8
LOGO
 62
     5
100
AcDbVertex
100
AcDb2dVertex
 10
-163.7829594998175
 20
137.9296869050109
 30
0.0
 42
1.0
  0
VERTEX
  5
2F74
330
2F72
100
AcDbEntity
  8
LOGO
 62
     5
100
AcDbVertex
100
AcDb2dVertex
 10
-171.2215725821716
 20
137.9296869050109
 30
0.0
 42
1.0
  0
SEQEND
  5
2F75
330
2F72
100
AcDbEntity
  8
LOGO
 62
     5
  0
POLYLINE
  5
2F76
330
1E
100
AcDbEntity
  8
LOGO
 62
     5
100
AcDb2dPolyline
 66
     1
 10
0.0
 20
0.0
 30
0.0
 70
     1
  0
VERTEX
  5
2F77
330
2F76
100
AcDbEntity
  8
LOGO
 62
     5
100
AcDbVertex
100
AcDb2dVertex
 10
-185.2436891119196
 20
136.6919016881081
 30
0.0
 42
1.000000057330635
  0
VERTEX
  5
2F78
330
2F76
100
AcDbEntity
  8
LOGO
 62
     5
100
AcDbVertex
100
AcDb2dVertex
 10
-177.816977810497
 20
136.6919016881081
 30
0.0
 42
1.000000057330635
  0
SEQEND
  5
2F79
330
2F76
100
AcDbEntity
  8
LOGO
 62
     5
  0
CIRCLE
  5
2F7A
330
1E
100
AcDbEntity
  8
LOGO
 62
     5
100
AcDbCircle
 10
-181.5303334612072
 20
136.6919016881081
 30
0.0
 40
3.713355650710589
  0
POLYLINE
  5
2F7B
330
1E
100
AcDbEntity
  8
LOGO
 62
     5
100
AcDb2dPolyline
 66
     1
 10
0.0
 20
0.0
 30
0.0
 70
     1
 40
2.479537694117647
 41
2.479537694117647
  0
VERTEX
  5
2F7C
330
2F7B
100
AcDbEntity
  8
LOGO
 62
     5
100
AcDbVertex
100
AcDb2dVertex
 10
-186.4894088494436
 20
136.6919016881081
 30
0.0
 42
1.0
  0
VERTEX
  5
2F7D
330
2F7B
100
AcDbEntity
  8
LOGO
 62
     5
100
AcDbVertex
100
AcDb2dVertex
 10
-176.5712580729732
 20
136.6919016881081
 30
0.0
 42
1.0
  0
SEQEND
  5
2F7E
330
2F7B
100
AcDbEntity
  8
LOGO
 62
     5
  0
LINE
  5
2F7F
330
1E
100
AcDbEntity
  8
LOGO
 62
     5
100
AcDbLine
 10
-162.5511251733815
 20
130.5029756035927
 30
0.0
 11
-162.5511251733815
 21
137.9296869050109
 31
0.0
  0
SOLID
  5
2F80
330
1E
100
AcDbEntity
  8
LOGO
 62
     5
100
AcDbTrace
 10
-177.8172253675352
 20
142.8808277726249
 30
0.0
 11
-175.3416549337307
 21
142.8808277726249
 31
0.0
 12
-177.8172253675352
 22
130.5029756035927
 32
0.0
 13
-175.3416549337307
 23
130.5029756035927
 33
0.0
  0
SOLID
  5
2F81
330
1E
100
AcDbEntity
  8
LOGO
 62
     5
100
AcDbTrace
 10
-172.4534069086114
 20
130.5029756035927
 30
0.0
 11
-169.9778364748013
 21
130.5029756035927
 31
0.0
 12
-172.4534069086114
 22
142.8808277726249
 32
0.0
 13
-169.9778364748013
 23
142.8808277726249
 33
0.0
  0
SOLID
  5
2F82
330
1E
100
AcDbEntity
  8
LOGO
 62
     5
100
AcDbTrace
 10
-165.0266956071873
 20
137.9296869050109
 30
0.0
 11
-162.5511251733815
 21
137.9296869050109
 31
0.0
 12
-165.0266956071873
 22
130.5029756035927
 32
0.0
 13
-162.5511251733815
 23
130.5029756035927
 33
0.0
  0
LINE
  5
2F83
330
1E
100
AcDbEntity
  8
LOGO
 62
     1
100
AcDbLine
 10
-149.6111847577563
 20
127.6568151063584
 30
0.0
 11
-149.6111847577563
 21
227.2810974592994
 31
0.0
  0
SOLID
  5
2F84
330
1E
100
AcDbEntity
  8
LOGO
 62
     5
100
AcDbTrace
 10
-172.700963951992
 20
217.8906119169782
 30
0.0
 11
-179.8801182100319
 21
191.5670463041614
 31
0.0
 12
-172.700963951992
 22
155.2586799416584
 32
0.0
 13
-179.8801182100319
 23
155.2586799416584
 33
0.0
  0
SOLID
  5
2F85
330
1E
100
AcDbEntity
  8
LOGO
 62
     5
100
AcDbTrace
 10
-169.7302794314212
 20
155.2586799416584
 30
0.0
 11
-162.5511251733815
 21
155.2586799416584
 31
0.0
 12
-169.7302794314212
 22
223.3368668713515
 32
0.0
 13
-162.5511251733815
 23
223.3368668713571
 33
0.0
  0
SOLID
  5
2F86
330
1E
100
AcDbEntity
  8
LOGO
 62
     2
100
AcDbTrace
 10
-172.700963951992
 20
223.3368668713571
 30
0.0
 11
-169.7302794314212
 21
223.3368668713515
 31
0.0
 12
-172.700963951992
 22
155.2586799416584
 32
0.0
 13
-169.7302794314212
 23
155.2586799416584
 33
0.0
  0
POLYLINE
  5
2F87
330
1E
100
AcDbEntity
  8
LOGO
 62
     5
100
AcDb2dPolyline
 66
     1
 10
0.0
 20
0.0
 30
0.0
 40
2.479537694117647
 41
2.479537694117647
  0
VERTEX
  5
2F88
330
2F87
100
AcDbEntity
  8
LOGO
 62
     5
100
AcDbVertex
100
AcDb2dVertex
 10
-199.2663007557485
 20
137.9296869050109
 30
0.0
 42
1.0
  0
VERTEX
  5
2F89
330
2F87
100
AcDbEntity
  8
LOGO
 62
     5
100
AcDbVertex
100
AcDb2dVertex
 10
-206.7049138381026
 20
137.9296869050109
 30
0.0
 42
1.0
  0
SEQEND
  5
2F8A
330
2F87
100
AcDbEntity
  8
LOGO
 62
     5
  0
POLYLINE
  5
2F8B
330
1E
100
AcDbEntity
  8
LOGO
 62
     5
100
AcDb2dPolyline
 66
     1
 10
0.0
 20
0.0
 30
0.0
 40
2.479537694117647
 41
2.479537694117647
  0
VERTEX
  5
2F8C
330
2F8B
100
AcDbEntity
  8
LOGO
 62
     5
100
AcDbVertex
100
AcDb2dVertex
 10
-191.8395894543287
 20
137.9296869050109
 30
0.0
 42
1.0
  0
VERTEX
  5
2F8D
330
2F8B
100
AcDbEntity
  8
LOGO
 62
     5
100
AcDbVertex
100
AcDb2dVertex
 10
-199.2782025366837
 20
137.9296869050109
 30
0.0
 42
1.0
  0
SEQEND
  5
2F8E
330
2F8B
100
AcDbEntity
  8
LOGO
 62
     5
  0
POLYLINE
  5
2F8F
330
1E
100
AcDbEntity
  8
LOGO
 62
     5
100
AcDb2dPolyline
 66
     1
 10
0.0
 20
0.0
 30
0.0
 40
2.479537694117647
 41
2.479537694117647
  0
VERTEX
  5
2F90
330
2F8F
100
AcDbEntity
  8
LOGO
 62
     5
100
AcDbVertex
100
AcDb2dVertex
 10
-227.322930710259
 20
137.9296869050109
 30
0.0
 42
1.0
  0
VERTEX
  5
2F91
330
2F8F
100
AcDbEntity
  8
LOGO
 62
     5
100
AcDbVertex
100
AcDb2dVertex
 10
-234.761543792612
 20
137.9296869050109
 30
0.0
 42
1.0
  0
SEQEND
  5
2F92
330
2F8F
100
AcDbEntity
  8
LOGO
 62
     5
  0
SOLID
  5
2F93
330
1E
100
AcDbEntity
  8
LOGO
 62
     5
100
AcDbTrace
 10
-235.9933781190471
 20
142.8808277726249
 30
0.0
 11
-233.5178076852435
 21
142.8808277726249
 31
0.0
 12
-235.9933781190471
 22
130.5029756035927
 32
0.0
 13
-233.5178076852435
 23
130.5029756035927
 33
0.0
  0
SOLID
  5
2F94
330
1E
100
AcDbEntity
  8
LOGO
 62
     5
100
AcDbTrace
 10
-228.566666817628
 20
137.9296869050109
 30
0.0
 11
-226.0910963838191
 21
137.9296869050109
 31
0.0
 12
-228.566666817628
 22
130.5029756035927
 32
0.0
 13
-226.0910963838191
 23
130.5029756035927
 33
0.0
  0
POLYLINE
  5
2F95
330
1E
100
AcDbEntity
  8
LOGO
 62
     5
100
AcDb2dPolyline
 66
     1
 10
0.0
 20
0.0
 30
0.0
 70
     1
 40
2.479537694117647
 41
2.479537694117647
  0
VERTEX
  5
2F96
330
2F95
100
AcDbEntity
  8
LOGO
 62
     5
100
AcDbVertex
100
AcDb2dVertex
 10
-221.9727501053751
 20
136.6919016881081
 30
0.0
 42
1.0
  0
VERTEX
  5
2F97
330
2F95
100
AcDbEntity
  8
LOGO
 62
     5
100
AcDbVertex
100
AcDb2dVertex
 10
-212.0545993289047
 20
136.6919016881081
 30
0.0
 42
1.0
  0
SEQEND
  5
2F98
330
2F95
100
AcDbEntity
  8
LOGO
 62
     5
  0
SOLID
  5
2F99
330
1E
100
AcDbEntity
  8
LOGO
 62
     5
100
AcDbTrace
 10
-213.3005666234676
 20
146.5941834233374
 30
0.0
 11
-210.8249961896636
 21
146.5941834233374
 31
0.0
 12
-213.3005666234676
 22
130.5029756035927
 32
0.0
 13
-210.8249961896636
 23
130.5029756035927
 33
0.0
  0
SOLID
  5
2F9A
330
1E
100
AcDbEntity
  8
LOGO
 62
     5
100
AcDbTrace
 10
-207.9367481645372
 20
142.8808277726249
 30
0.0
 11
-205.4611777307314
 21
142.8808277726249
 31
0.0
 12
-207.9367481645372
 22
130.5029756035927
 32
0.0
 13
-205.4611777307314
 23
130.5029756035927
 33
0.0
  0
SOLID
  5
2F9B
330
1E
100
AcDbEntity
  8
LOGO
 62
     5
100
AcDbTrace
 10
-200.5100368631174
 20
137.9296869050109
 30
0.0
 11
-198.0344664293118
 21
137.9296869050109
 31
0.0
 12
-200.5100368631174
 22
130.5029756035927
 32
0.0
 13
-198.0344664293118
 23
130.5029756035927
 33
0.0
  0
SOLID
  5
2F9C
330
1E
100
AcDbEntity
  8
LOGO
 62
     5
100
AcDbTrace
 10
-193.0833255616976
 20
137.9296869050109
 30
0.0
 11
-190.6077551278936
 21
137.9296869050109
 31
0.0
 12
-193.0833255616976
 22
130.502975603587
 32
0.0
 13
-190.6077551278936
 23
130.502975603587
 33
0.0
  0
SOLID
  5
2F9D
330
1E
100
AcDbEntity
  8
LOGO
 62
     5
100
AcDbTrace
 10
-241.3571965779795
 20
144.6137270762885
 30
0.0
 11
-238.8816261441671
 21
144.6137270762885
 31
0.0
 12
-241.3571965779795
 22
146.5941834233374
 32
0.0
 13
-238.8816261441671
 23
146.5941834233374
 33
0.0
  0
SOLID
  5
2F9E
330
1E
100
AcDbEntity
  8
LOGO
 62
     5
100
AcDbTrace
 10
-241.3571965779795
 20
142.8808277726249
 30
0.0
 11
-238.8816261441671
 21
142.8808277726249
 31
0.0
 12
-241.3571965779795
 22
130.502975603587
 32
0.0
 13
-238.8816261441671
 23
130.5029756035927
 33
0.0
  0
SOLID
  5
2F9F
330
1E
100
AcDbEntity
  8
LOGO
 62
     5
100
AcDbTrace
 10
-217.0136747171369
 20
155.2586799416611
 30
0.0
 11
-209.8345204590974
 21
155.2586799416611
 31
0.0
 12
-217.0136747171369
 22
191.5670463041614
 32
0.0
 13
-209.8345204590974
 23
217.8906119169782
 33
0.0
  0
SOLID
  5
2FA0
330
1E
100
AcDbEntity
  8
LOGO
 62
     5
100
AcDbTrace
 10
-206.8638359385265
 20
223.3368668713515
 30
0.0
 11
-199.6846816804868
 21
223.3368668713571
 31
0.0
 12
-206.8638359385265
 22
160.7049348960348
 32
0.0
 13
-199.6846816804868
 23
187.0285005088512
 33
0.0
  0
SOLID
  5
2FA1
330
1E
100
AcDbEntity
  8
LOGO
 62
     2
100
AcDbTrace
 10
-209.8345204590974
 20
223.3368668713515
 30
0.0
 11
-206.8638359385265
 21
223.3368668713515
 31
0.0
 12
-209.8345204590974
 22
155.2586799416611
 32
0.0
 13
-206.8638359385265
 23
155.2586799416611
 33
0.0
  0
SOLID
  5
2FA2
330
1E
100
AcDbEntity
  8
LOGO
 62
     5
100
AcDbTrace
 10
-206.8638359385265
 20
160.7049348960348
 30
0.0
 11
-199.6846816804868
 21
187.0285005088512
 31
0.0
 12
-172.700963951992
 22
223.3368668713571
 32
0.0
 13
-179.8801182100319
 23
223.3368668713571
 33
0.0
  0
SOLID
  5
2FA3
330
1E
100
AcDbEntity
  8
LOGO
 62
     5
100
AcDbTrace
 10
-206.8638359385265
 20
155.2586799416611
 30
0.0
 11
-199.6846816804868
 21
155.2586799416611
 31
0.0
 12
-172.700963951992
 22
217.8906119169782
 32
0.0
 13
-179.8801182100319
 23
191.5670463041614
 33
0.0
  0
SOLID
  5
2FA4
330
1E
100
AcDbEntity
  8
LOGO
 62
     2
100
AcDbTrace
 10
-209.8345204590974
 20
155.2586799416611
 30
0.0
 11
-206.8638359385265
 21
155.2586799416611
 31
0.0
 12
-172.700963951992
 22
223.3368668713571
 32
0.0
 13
-169.7302794314212
 23
223.3368668713515
 33
0.0
  0
TEXT
  5
2FA5
330
1E
100
AcDbEntity
  8
LOGO
 62
     6
100
AcDbText
 10
8.130000088177425
 20
135.9588386357699
 30
0.0
 40
16.60404705882353
  1
m/m
  7
CHINESET
 72
     1
 11
37.38474966800936
 21
144.2608621651817
 31
0.0
100
AcDbText
 73
     2
  0
TEXT
  5
2FA6
330
1E
100
AcDbEntity
  8
LOGO
 62
     6
100
AcDbText
 10
8.130000088177432
 20
202.3750268710647
 30
0.0
 40
16.60404705882353
  1
1 : 1
  7
CHINESET
 72
     1
 11
37.38474966800936
 21
210.6770504004765
 31
0.0
100
AcDbText
 73
     2
  0
LINE
  5
2FA7
330
1E
100
AcDbEntity
  8
LOGO
 62
     1
100
AcDbLine
 10
-16.77880828716866
 20
127.6568151063584
 30
0.0
 11
-16.77880828716866
 21
227.2810974592994
 31
0.0
  0
CIRCLE
  5
2FA8
330
1E
100
AcDbEntity
  8
LOGO
  6
Continuous
 62
     6
100
AcDbCircle
 10
13.96566164362002
 20
177.5044724609927
 30
0.0
 40
9.640700537565503
  0
CIRCLE
  5
2FA9
330
1E
100
AcDbEntity
  8
LOGO
  6
Continuous
 62
     6
100
AcDbCircle
 10
13.96566164362002
 20
177.5044724609927
 30
0.0
 40
5.648597072081442
  0
LINE
  5
2FAA
330
1E
100
AcDbEntity
  8
LOGO
 62
     6
100
AcDbLine
 10
74.54894248126811
 20
167.8637719234268
 30
0.0
 11
74.54894248126811
 21
187.1451729985587
 31
0.0
  0
LINE
  5
2FAB
330
1E
100
AcDbEntity
  8
LOGO
 62
     6
100
AcDbLine
 10
44.32589969861465
 20
171.8558753889117
 30
0.0
 11
44.32589969861465
 21
183.1530695330752
 31
0.0
  0
LINE
  5
2FAC
330
1E
100
AcDbEntity
  8
LOGO
  6
Continuous
 62
     6
100
AcDbLine
 10
44.32589969861465
 20
183.1530695330752
 30
0.0
 11
74.54894248126811
 21
187.1451729985587
 31
0.0
  0
LINE
  5
2FAD
330
1E
100
AcDbEntity
  8
LOGO
  6
Continuous
 62
     6
100
AcDbLine
 10
44.32589969861465
 20
171.8558753889117
 30
0.0
 11
74.54894248126811
 21
167.8637719234268
 31
0.0
  0
LINE
  5
2FE5
330
1E
100
AcDbEntity
  8
LOGO
 62
     6
100
AcDbLine
 10
638.5282458944734
 20
135.9588386357707
 30
0.0
 11
638.5282458944734
 21
75.07733275341678
 31
0.0
  0
LINE
  5
2FE6
330
1E
100
AcDbEntity
  8
LOGO
 62
     6
100
AcDbLine
 10
494.3198610821091
 20
135.9588386357707
 30
0.0
 11
494.3198610821091
 21
75.07733275341678
 31
0.0
  0
LINE
  5
2FE7
330
1E
100
AcDbEntity
  8
LOGO
 62
     6
100
AcDbLine
 10
444.0591485802935
 20
135.9588386357707
 30
0.0
 11
444.0591485802935
 21
75.07733275341678
 31
0.0
  0
LINE
  5
2FE8
330
1E
100
AcDbEntity
  8
LOGO
 62
     6
100
AcDbLine
 10
333.3655015214708
 20
135.9588386357707
 30
0.0
 11
333.3655015214708
 21
75.07733275341678
 31
0.0
  0
LINE
  5
2FE9
330
1E
100
AcDbEntity
  8
LOGO
 62
     6
100
AcDbLine
 10
444.0591485802935
 20
75.07733275341678
 30
0.0
 11
333.3655015214708
 21
75.07733275341678
 31
0.0
  0
LINE
  5
2FEA
330
1E
100
AcDbEntity
  8
LOGO
 62
     6
100
AcDbLine
 10
638.5282458944734
 20
75.07733275341678
 30
0.0
 11
494.3198610821091
 21
75.07733275341678
 31
0.0
  0
LINE
  5
2FEB
330
1E
100
AcDbEntity
  8
LOGO
  6
Continuous
 62
     7
100
AcDbLine
 10
463.7103966094
 20
185.5945373360149
 30
0.0
 11
485.7056205886622
 21
185.5945373360149
 31
0.0
  0
LINE
  5
2FEC
330
1E
100
AcDbEntity
  8
LOGO
 62
     6
100
AcDbLine
 10
455.1285132861758
 20
210.6770504004765
 30
0.0
 11
322.2961368155879
 21
210.6770504004765
 31
0.0
  0
LINE
  5
2FED
330
1E
100
AcDbEntity
  8
LOGO
 62
     6
100
AcDbLine
 10
455.1285132861758
 20
160.864909224005
 30
0.0
 11
322.2961368155879
 21
160.864909224005
 31
0.0
  0
LINE
  5
2FEE
330
1E
100
AcDbEntity
  8
LOGO
 62
     6
100
AcDbLine
 10
322.2961368155879
 20
210.6770504004765
 30
0.0
 11
322.2961368155879
 21
160.864909224005
 31
0.0
  0
LINE
  5
2FEF
330
1E
100
AcDbEntity
  8
LOGO
 62
     6
100
AcDbLine
 10
455.1285132861758
 20
210.6770504004765
 30
0.0
 11
455.1285132861758
 21
160.864909224005
 31
0.0
  0
LINE
  5
2FF0
330
1E
100
AcDbEntity
  8
LOGO
 62
     6
100
AcDbLine
 10
388.7123250508815
 20
160.864909224005
 30
0.0
 11
388.7123250508815
 21
135.9588386357707
 31
0.0
  0
TEXT
  5
2FF1
330
1E
100
AcDbEntity
  8
LOGO
  6
Continuous
 62
     7
100
AcDbText
 10
335.3421737903773
 20
171.9342739298876
 30
0.0
 40
27.67341176470588
  1
MHBS
  7
CHINESET
 72
     1
 11
388.7123250508815
 21
185.7709798122406
 31
0.0
100
AcDbText
 73
     2
  0
LINE
  5
2FF2
330
1E
100
AcDbEntity
  8
LOGO
 62
     6
100
AcDbLine
 10
444.0591485802935
 20
135.9588386357707
 30
0.0
 11
333.3655015214708
 21
135.9588386357707
 31
0.0
  0
LINE
  5
2FF3
330
1E
100
AcDbEntity
  8
LOGO
 62
     6
100
AcDbLine
 10
638.5282458944734
 20
210.6770504004765
 30
0.0
 11
494.3198610821091
 21
210.6770504004765
 31
0.0
  0
LINE
  5
2FF4
330
1E
100
AcDbEntity
  8
LOGO
 62
     6
100
AcDbLine
 10
638.5282458944734
 20
135.9588386357707
 30
0.0
 11
494.3198610821091
 21
135.9588386357707
 31
0.0
  0
LINE
  5
2FF5
330
1E
100
AcDbEntity
  8
LOGO
 62
     6
100
AcDbLine
 10
638.5282458944734
 20
160.864909224005
 30
0.0
 11
494.3198610821091
 21
160.864909224005
 31
0.0
  0
TEXT
  5
2FF6
330
1E
100
AcDbEntity
  8
LOGO
  6
Continuous
 62
     7
100
AcDbText
 10
530.8439526479555
 20
171.6204556966982
 30
0.0
 40
27.67341176470588
  1
250
  7
CHINESET
 72
     1
 11
566.4240534882917
 21
185.4571615790511
 31
0.0
100
AcDbText
 73
     2
  0
LINE
  5
2FF7
330
1E
100
AcDbEntity
  8
LOGO
 62
     6
100
AcDbLine
 10
566.4240534882917
 20
160.864909224005
 30
0.0
 11
566.4240534882917
 21
135.9588386357707
 31
0.0
  0
LINE
  5
2FF8
330
1E
100
AcDbEntity
  8
LOGO
 62
     6
100
AcDbLine
 10
494.3198610821091
 20
210.6770504004765
 30
0.0
 11
494.3198610821091
 21
160.864909224005
 31
0.0
  0
LINE
  5
2FFD
330
1E
100
AcDbEntity
  8
LOGO
 62
     6
100
AcDbLine
 10
638.5282458944734
 20
210.6770504004765
 30
0.0
 11
638.5282458944734
 21
160.864909224005
 31
0.0
  0
LINE
  5
2FFE
330
1E
100
AcDbEntity
  8
LOGO
 62
     1
100
AcDbLine
 10
951.7906034775391
 20
61.24062687106391
 30
0.0
 11
951.7906034775391
 21
227.2810974592994
 31
0.0
  0
TEXT
  5
3075
330
1E
100
AcDbEntity
  8
LOGO
 62
     6
100
AcDbText
 10
-135.920258455235
 20
202.3831981540661
 30
1088.201890665704
 40
16.60404705882353
  1
比例 Scale:
 41
0.9
  7
CHINESET
 72
     4
 11
-83.19499652246191
 21
210.6770504004765
 31
1088.201890665704
100
AcDbText
  0
TEXT
  5
3076
330
1E
100
AcDbEntity
  8
LOGO
 62
     6
100
AcDbText
 10
-130.1162545056552
 20
169.4004952592061
 30
1088.201890665704
 40
16.60404705882353
  1
投影 View:
 41
0.9
  7
CHINESET
 72
     4
 11
-83.19499652246191
 21
177.4689562828281
 31
1088.201890665704
100
AcDbText
  0
TEXT
  5
3077
330
1E
100
AcDbEntity
  8
LOGO
 62
     6
100
AcDbText
 10
-128.4929124048148
 20
135.9588386357699
 30
1088.201890665704
 40
16.60404705882353
  1
單位 Unit:
 41
0.9
  7
CHINESET
 72
     4
 11
-83.19499652246191
 21
144.2608621651817
 31
1088.201890665704
100
AcDbText
  0
TEXT
  5
3078
330
1E
100
AcDbEntity
  8
LOGO
  6
Continuous
 62
     6
100
AcDbText
 10
362.3566947987807
 20
81.99568569459342
 30
1088.201890665704
 40
13.83670588235294
  1
Model
  7
CHINESET
 72
     4
 11
388.7123250508815
 21
88.91403863576988
 31
1088.201890665704
100
AcDbText
  0
TEXT
  5
3079
330
1E
100
AcDbEntity
  8
LOGO
  6
Continuous
 62
     6
100
AcDbText
 10
541.7156501269472
 20
81.99568569459342
 30
1088.201890665704
 40
13.83670588235294
  1
Ratio
  7
CHINESET
 72
     4
 11
566.4240534882917
 21
88.91403863576988
 31
1088.201890665704
100
AcDbText
  0
TEXT
  5
307B
330
1E
100
AcDbEntity
  8
LOGO
 62
     6
100
AcDbText
 10
366.5735956391168
 20
106.0846279826897
 30
1088.201890665704
 40
22.13872941176471
  1
型式
  7
CHINESET
 72
     4
 11
388.7123250508815
 21
116.5874504004757
 31
1088.201890665704
100
AcDbText
  0
TEXT
  5
307C
330
1E
100
AcDbEntity
  8
LOGO
 62
     6
100
AcDbText
 10
533.9077946647623
 20
105.759592503301
 30
1088.201890665704
 40
22.13872941176471
  1
增壓比
  7
CHINESET
 72
     4
 11
566.4240534882917
 21
116.5874504004757
 31
1088.201890665704
100
AcDbText
  0
LWPOLYLINE
  5
67C9
330
1E
100
AcDbEntity
  8
0
 62
     4
100
AcDbPolyline
 90
        4
 70
     1
 43
0.0
 10
-271.3741965224618
 20
890.8555223705404
 10
951.7906034775386
 20
890.8555223705404
 10
951.7906034775386
 20
227.2810974592995
 10
-271.3741965224618
 20
227.2810974592997
1001
GENIUS_GENREC_14
1002
{
1000
PYDIR
1011
-271.3741965224618
1021
227.2810974592995
1031
0.0
1002
}
1002
{
1000
PXDIR
1011
951.7906034775386
1021
890.8555223705404
1031
0.0
1002
}
1002
{
1000
PORI
1011
-271.3741965224618
1021
890.8555223705404
1031
0.0
1002
}
1002
{
1000
PINS
1011
-271.3741965224618
1021
890.8555223705404
1031
0.0
1002
}
1002
{
1000
PINS2
1011
951.7906034775386
1021
227.2810974592996
1031
0.0
1002
}
1002
{
1000
C
1070
     1
1002
}
1001
GENIUS_GENODEF_13
1002
{
1000
HIER
1070
     0
1002
}
1002
{
1000
MANEDIT
1070
     0
1002
}
1002
{
1000
NOSEL
1070
     0
1002
}
1002
{
1000
BEHIND
1070
     0
1002
}
1002
{
1000
OTHER
1070
     0
1002
}
1002
{
1000
REACTOR
1002
}
1001
GENIUS_GENOBJ-N-REC_13
1002
{
1000
OWNER
1000
GEN
1002
}
  0
LINE
  5
76A5
330
1E
100
AcDbEntity
  8
UMCL1
100
AcDbLine
 10
120.5245235466168
 20
475.583827494371
 30
0.0
 11
364.5245235466168
 21
475.583827494371
 31
0.0
  0
LINE
  5
76A6
330
1E
100
AcDbEntity
  8
UMCL1
100
AcDbLine
 10
120.5245235466168
 20
315.5838274943712
 30
0.0
 11
364.5245235466167
 21
315.5838274943712
 31
0.0
  0
LINE
  5
76A7
330
1E
100
AcDbEntity
  8
CENTER
  6
CENTER
100
AcDbLine
 10
74.52452354661682
 20
506.5838274943709
 30
0.0
 11
423.7816765485002
 21
506.5838274943709
 31
0.0
  0
LINE
  5
76A8
330
1E
100
AcDbEntity
  8
CENTER
  6
CENTER
100
AcDbLine
 10
74.52452354661682
 20
395.5838274943713
 30
0.0
 11
593.5245235466167
 21
395.5838274943713
 31
0.0
  0
LINE
  5
76A9
330
1E
100
AcDbEntity
  8
UMCL1
  6
Continuous
100
AcDbLine
 10
120.5245235466168
 20
699.8445944334109
 30
0.0
 11
364.5245235466167
 21
699.8445944334109
 31
0.0
  0
LINE
  5
76AA
330
1E
100
AcDbEntity
  8
UMCL1
  6
Continuous
100
AcDbLine
 10
120.5245235466168
 20
744.844594433411
 30
0.0
 11
364.5245235466167
 21
744.844594433411
 31
0.0
  0
LINE
  5
76AB
330
1E
100
AcDbEntity
  8
UMCL1
100
AcDbLine
 10
120.5245235466168
 20
647.3445944334112
 30
0.0
 11
364.5245235466167
 21
647.3445944334103
 31
0.0
  0
LINE
  5
76AC
330
1E
100
AcDbEntity
  8
UMCL1
100
AcDbLine
 10
120.5245235466168
 20
663.3445944334112
 30
0.0
 11
364.5245235466167
 21
663.3445944334103
 31
0.0
  0
LINE
  5
76AD
330
1E
100
AcDbEntity
  8
UMCL1
100
AcDbLine
 10
120.5245235466168
 20
781.344594433411
 30
0.0
 11
364.5245235466167
 21
781.34459443341
 31
0.0
  0
LINE
  5
76AE
330
1E
100
AcDbEntity
  8
UMCL1
100
AcDbLine
 10
120.5245235466168
 20
797.344594433411
 30
0.0
 11
364.5245235466167
 21
797.34459443341
 31
0.0
  0
LINE
  5
76AF
330
1E
100
AcDbEntity
  8
CENTER
  6
CENTER
100
AcDbLine
 10
54.4879507640635
 20
789.3445944334107
 30
0.0
 11
428.5520196396162
 21
789.3445944334107
 31
0.0
  0
LINE
  5
76B0
330
1E
100
AcDbEntity
  8
CENTER
  6
CENTER
100
AcDbLine
 10
54.48795076406327
 20
655.3445944334112
 30
0.0
 11
428.5520196396162
 21
655.3445944334112
 31
0.0
  0
LINE
  5
76B1
330
1E
100
AcDbEntity
  8
UMCL1
100
AcDbLine
 10
120.5245235466168
 20
802.3445944334108
 30
0.0
 11
364.5245235466168
 21
802.3445944334108
 31
0.0
  0
LINE
  5
76B2
330
1E
100
AcDbEntity
  8
UMCL1
100
AcDbLine
 10
120.5245235466168
 20
642.3445944334112
 30
0.0
 11
364.5245235466167
 21
642.3445944334112
 31
0.0
  0
LINE
  5
76B3
330
1E
100
AcDbEntity
  8
CENTER
  6
CENTER
100
AcDbLine
 10
76.52452354661682
 20
722.3445944334109
 30
0.0
 11
593.5245235466167
 21
722.3445944334109
 31
0.0
  0
LINE
  5
76B4
330
1E
100
AcDbEntity
  8
UMCL1
100
AcDbLine
 10
-203.0922693346802
 20
469.5838274943709
 30
0.0
 11
-203.0922693346802
 21
345.5838274943712
 31
0.0
  0
LINE
  5
76B5
330
1E
100
AcDbEntity
  8
UMCL1
100
AcDbLine
 10
-31.09226933468017
 20
469.5838274943709
 30
0.0
 11
-31.09226933468017
 21
345.5838274943712
 31
0.0
  0
LINE
  5
76B6
330
1E
100
AcDbEntity
  8
CENTER
  6
CENTER
100
AcDbLine
 10
-117.0922693346801
 20
544.7355732701803
 30
0.0
 11
-117.0922693346801
 21
286.2414342036215
 31
0.0
  0
LINE
  5
76B7
330
1E
100
AcDbEntity
  8
CENTER
  6
CENTER
100
AcDbLine
 10
-69.09226933468016
 20
328.5838274943712
 30
0.0
 11
-31.09226933468017
 21
328.5838274943712
 31
0.0
  0
LINE
  5
76B8
330
1E
100
AcDbEntity
  8
CENTER
  6
CENTER
100
AcDbLine
 10
-184.0922693346801
 20
347.5838274943712
 30
0.0
 11
-184.0922693346801
 21
309.5838274943712
 31
0.0
  0
POLYLINE
  5
76B9
330
1E
100
AcDbEntity
  8
UMCL1
  6
Continuous
100
AcDb2dPolyline
 66
     1
 10
0.0
 20
0.0
 30
0.0
 70
     1
  0
VERTEX
  5
76BA
330
76B9
100
AcDbEntity
  8
UMCL1
  6
Continuous
100
AcDbVertex
100
AcDb2dVertex
 10
-191.0204725649557
 20
340.5838274943712
 30
0.0
  0
VERTEX
  5
76BB
330
76B9
100
AcDbEntity
  8
UMCL1
  6
Continuous
100
AcDbVertex
100
AcDb2dVertex
 10
-197.9486757952311
 20
328.5838274943712
 30
0.0
  0
VERTEX
  5
76BC
330
76B9
100
AcDbEntity
  8
UMCL1
  6
Continuous
100
AcDbVertex
100
AcDb2dVertex
 10
-191.0204725649557
 20
316.5838274943713
 30
0.0
  0
VERTEX
  5
76BD
330
76B9
100
AcDbEntity
  8
UMCL1
  6
Continuous
100
AcDbVertex
100
AcDb2dVertex
 10
-177.1640661044046
 20
316.5838274943713
 30
0.0
  0
VERTEX
  5
76BE
330
76B9
100
AcDbEntity
  8
UMCL1
  6
Continuous
100
AcDbVertex
100
AcDb2dVertex
 10
-170.2358628741292
 20
328.5838274943712
 30
0.0
  0
VERTEX
  5
76BF
330
76B9
100
AcDbEntity
  8
UMCL1
  6
Continuous
100
AcDbVertex
100
AcDb2dVertex
 10
-177.1640661044046
 20
340.5838274943712
 30
0.0
  0
SEQEND
  5
76C0
330
76B9
100
AcDbEntity
  8
UMCL1
  6
Continuous
  0
LINE
  5
76C1
330
1E
100
AcDbEntity
  8
CENTER
  6
CENTER
100
AcDbLine
 10
-203.0922693346802
 20
328.5838274943712
 30
0.0
 11
-165.0922693346801
 21
328.5838274943712
 31
0.0
  0
CIRCLE
  5
76C2
330
1E
100
AcDbEntity
  8
UMCL1
  6
Continuous
100
AcDbCircle
 10
-184.0922693346801
 20
328.5838274943712
 30
0.0
 40
12.0
  0
CIRCLE
  5
76C3
330
1E
100
AcDbEntity
  8
UMCL1
  6
Continuous
100
AcDbCircle
 10
-184.0922693346801
 20
328.5838274943712
 30
0.0
 40
8.0
  0
ARC
  5
76C4
330
1E
100
AcDbEntity
  8
UMCL1
  6
Continuous
 62
     2
100
AcDbCircle
 10
-184.0922693346801
 20
328.5838274943712
 30
0.0
 40
7.2
100
AcDbArc
 50
69.11282536526009
 51
17.31224129214165
  0
LINE
  5
76C5
330
1E
100
AcDbEntity
  8
CENTER
  6
CENTER
100
AcDbLine
 10
-50.09226933468017
 20
347.5838274943712
 30
0.0
 11
-50.09226933468017
 21
309.5838274943712
 31
0.0
  0
CIRCLE
  5
76C6
330
1E
100
AcDbEntity
  8
UMCL1
  6
Continuous
100
AcDbCircle
 10
-50.09226933468017
 20
328.5838274943712
 30
0.0
 40
8.0
  0
POLYLINE
  5
76C7
330
1E
100
AcDbEntity
  8
UMCL1
  6
Continuous
100
AcDb2dPolyline
 66
     1
 10
0.0
 20
0.0
 30
0.0
 70
     1
  0
VERTEX
  5
76C8
330
76C7
100
AcDbEntity
  8
UMCL1
  6
Continuous
100
AcDbVertex
100
AcDb2dVertex
 10
-57.02047256495575
 20
340.5838274943712
 30
0.0
  0
VERTEX
  5
76C9
330
76C7
100
AcDbEntity
  8
UMCL1
  6
Continuous
100
AcDbVertex
100
AcDb2dVertex
 10
-63.94867579523111
 20
328.5838274943712
 30
0.0
  0
VERTEX
  5
76CA
330
76C7
100
AcDbEntity
  8
UMCL1
  6
Continuous
100
AcDbVertex
100
AcDb2dVertex
 10
-57.02047256495575
 20
316.5838274943713
 30
0.0
  0
VERTEX
  5
76CB
330
76C7
100
AcDbEntity
  8
UMCL1
  6
Continuous
100
AcDbVertex
100
AcDb2dVertex
 10
-43.16406610440458
 20
316.5838274943713
 30
0.0
  0
VERTEX
  5
76CC
330
76C7
100
AcDbEntity
  8
UMCL1
  6
Continuous
100
AcDbVertex
100
AcDb2dVertex
 10
-36.23586287412923
 20
328.5838274943712
 30
0.0
  0
VERTEX
  5
76CD
330
76C7
100
AcDbEntity
  8
UMCL1
  6
Continuous
100
AcDbVertex
100
AcDb2dVertex
 10
-43.16406610440458
 20
340.5838274943712
 30
0.0
  0
SEQEND
  5
76CE
330
76C7
100
AcDbEntity
  8
UMCL1
  6
Continuous
  0
CIRCLE
  5
76CF
330
1E
100
AcDbEntity
  8
UMCL1
  6
Continuous
100
AcDbCircle
 10
-50.09226933468017
 20
328.5838274943712
 30
0.0
 40
12.0
  0
ARC
  5
76D0
330
1E
100
AcDbEntity
  8
UMCL1
  6
Continuous
 62
     2
100
AcDbCircle
 10
-50.09226933468017
 20
328.5838274943712
 30
0.0
 40
7.2
100
AcDbArc
 50
69.11282536526009
 51
17.31224129214165
  0
LINE
  5
76D1
330
1E
100
AcDbEntity
  8
UMCL1
  6
Continuous
100
AcDbLine
 10
80.52452354661658
 20
481.5838274943709
 30
0.0
 11
80.52452354661637
 21
308.0838274943712
 31
0.0
  0
LINE
  5
76D2
330
1E
100
AcDbEntity
  8
UMCL1
  6
Continuous
100
AcDbLine
 10
60.02452354661636
 20
314.72742103382
 30
0.0
 11
74.52452354661637
 21
314.72742103382
 31
0.0
  0
LINE
  5
76D3
330
1E
100
AcDbEntity
  8
UMCL1
  6
Continuous
100
AcDbLine
 10
60.02452354661636
 20
342.4402339549222
 30
0.0
 11
80.31522995859086
 21
342.4402339549222
 31
0.0
  0
LINE
  5
76D4
330
1E
100
AcDbEntity
  8
CENTER
  6
CENTER
100
AcDbLine
 10
50.48795076406327
 20
328.5838274943712
 30
0.0
 11
435.078310900302
 21
328.5838274943714
 31
0.0
  0
LINE
  5
76D5
330
1E
100
AcDbEntity
  8
UMCL1
  6
Continuous
100
AcDbLine
 10
71.52452354661637
 20
342.440233954922
 30
0.0
 11
71.52452354661637
 21
314.72742103382
 31
0.0
  0
LINE
  5
76D6
330
1E
100
AcDbEntity
  8
UMCL1
  6
Continuous
100
AcDbLine
 10
58.52452354661636
 20
340.4402339549222
 30
0.0
 11
58.52452354661636
 21
316.7274210338201
 31
0.0
  0
ARC
  5
76D7
330
1E
100
AcDbEntity
  8
UMCL1
  6
Continuous
100
AcDbCircle
 10
75.27452354662
 20
328.5838274943708
 30
0.0
 40
16.75000000000346
100
AcDbArc
 50
155.5673023205492
 51
204.4326976794442
  0
LINE
  5
76D8
330
1E
100
AcDbEntity
  8
UMCL1
  6
Continuous
100
AcDbLine
 10
57.02452354661637
 20
336.5838274943712
 30
0.0
 11
57.02452354661637
 21
320.5838274943712
 31
0.0
  0
LINE
  5
76D9
330
1E
100
AcDbEntity
  8
UMCL1
  6
Continuous
100
AcDbLine
 10
55.52452354661636
 20
335.0838274943712
 30
0.0
 11
55.52452354661636
 21
322.0838274943712
 31
0.0
  0
LINE
  5
76DA
330
1E
100
AcDbEntity
  8
UMCL1
  6
Continuous
100
AcDbLine
 10
60.02452354661636
 20
321.6556242640954
 30
0.0
 11
71.52452354661637
 21
321.6556242640954
 31
0.0
  0
ARC
  5
76DB
330
1E
100
AcDbEntity
  8
UMCL1
  6
Continuous
100
AcDbCircle
 10
63.27452354661637
 20
318.1915226489577
 30
0.0
 40
4.749999999999908
100
AcDbArc
 50
133.1735511072561
 51
226.8264488927427
  0
LINE
  5
76DC
330
1E
100
AcDbEntity
  8
UMCL1
  6
Continuous
100
AcDbLine
 10
60.02452354661636
 20
314.72742103382
 30
0.0
 11
58.52452354661636
 21
316.7274210338201
 31
0.0
  0
LINE
  5
76DD
330
1E
100
AcDbEntity
  8
UMCL1
  6
Continuous
100
AcDbLine
 10
55.52452354661636
 20
322.0838274943712
 30
0.0
 11
57.02452354661637
 21
320.5838274943712
 31
0.0
  0
LINE
  5
76DE
330
1E
100
AcDbEntity
  8
UMCL1
 62
     2
100
AcDbLine
 10
56.02452354661636
 20
321.5838274943712
 30
0.0
 11
58.52452354661636
 21
321.5838274943712
 31
0.0
  0
LINE
  5
76DF
330
1E
100
AcDbEntity
  8
UMCL1
100
AcDbLine
 10
57.02452354661637
 20
320.5838274943712
 30
0.0
 11
58.52452354661636
 21
320.5838274943712
 31
0.0
  0
LINE
  5
76E0
330
1E
100
AcDbEntity
  8
UMCL1
  6
Continuous
100
AcDbLine
 10
60.02452354661636
 20
335.5120307246466
 30
0.0
 11
71.52452354661637
 21
335.5120307246466
 31
0.0
  0
LINE
  5
76E1
330
1E
100
AcDbEntity
  8
UMCL1
  6
Continuous
100
AcDbLine
 10
57.02452354661637
 20
336.5838274943712
 30
0.0
 11
55.52452354661636
 21
335.0838274943712
 31
0.0
  0
LINE
  5
76E2
330
1E
100
AcDbEntity
  8
UMCL1
 62
     2
100
AcDbLine
 10
56.02452354661636
 20
335.5838274943713
 30
0.0
 11
58.52452354661636
 21
335.5838274943713
 31
0.0
  0
LINE
  5
76E3
330
1E
100
AcDbEntity
  8
UMCL1
  6
Continuous
100
AcDbLine
 10
60.02452354661636
 20
342.4402339549222
 30
0.0
 11
58.52452354661636
 21
340.4402339549222
 31
0.0
  0
ARC
  5
76E4
330
1E
100
AcDbEntity
  8
UMCL1
  6
Continuous
100
AcDbCircle
 10
63.27452354661637
 20
338.9761323397843
 30
0.0
 40
4.749999999999908
100
AcDbArc
 50
133.1735511072561
 51
226.8264488927427
  0
LINE
  5
76E5
330
1E
100
AcDbEntity
  8
UMCL1
100
AcDbLine
 10
57.02452354661637
 20
336.5838274943712
 30
0.0
 11
58.52452354661636
 21
336.5838274943712
 31
0.0
  0
LINE
  5
76E6
330
1E
100
AcDbEntity
  8
UMCL1
100
AcDbLine
 10
120.5245235466168
 20
309.5838274943712
 30
0.0
 11
80.52452354661681
 21
309.5838274943712
 31
0.0
  0
LINE
  5
76E7
330
1E
100
AcDbEntity
  8
UMCL1
  6
Continuous
100
AcDbLine
 10
112.535630545547
 20
531.5838274943709
 30
0.0
 11
112.535630545547
 21
538.583827494371
 31
0.0
  0
LINE
  5
76E8
330
1E
100
AcDbEntity
  8
UMCL1
  6
Continuous
100
AcDbLine
 10
90.0189700471517
 20
531.5838274943709
 30
0.0
 11
90.0189700471517
 21
538.583827494371
 31
0.0
  0
LINE
  5
76E9
330
1E
100
AcDbEntity
  8
UMCL1
  6
Continuous
100
AcDbLine
 10
105.0300770460819
 20
531.5838274943709
 30
0.0
 11
105.0300770460819
 21
538.583827494371
 31
0.0
  0
LINE
  5
76EA
330
1E
100
AcDbEntity
  8
UMCL1
  6
Continuous
100
AcDbLine
 10
82.51341654768657
 20
531.5838274943709
 30
0.0
 11
82.51341654768657
 21
538.583827494371
 31
0.0
  0
LINE
  5
76EB
330
1E
100
AcDbEntity
  8
CENTER
  6
CENTER
100
AcDbLine
 10
97.52452354661683
 20
544.5838274943709
 30
0.0
 11
97.52452354661683
 21
524.2924828678112
 31
0.0
  0
LINE
  5
76EC
330
1E
100
AcDbEntity
  8
UMCL1
  6
Continuous
100
AcDbLine
 10
65.02452354661659
 20
448.72742103382
 30
0.0
 11
80.52452354661658
 21
448.72742103382
 31
0.0
  0
LINE
  5
76ED
330
1E
100
AcDbEntity
  8
UMCL1
  6
Continuous
100
AcDbLine
 10
65.02452354661659
 20
476.4402339549222
 30
0.0
 11
80.52452354661658
 21
476.4402339549222
 31
0.0
  0
LINE
  5
76EE
330
1E
100
AcDbEntity
  8
CENTER
  6
CENTER
100
AcDbLine
 10
56.4879507640635
 20
462.583827494371
 30
0.0
 11
429.2368666415263
 21
462.583827494371
 31
0.0
  0
LINE
  5
76EF
330
1E
100
AcDbEntity
  8
UMCL1
  6
Continuous
100
AcDbLine
 10
76.52452354661659
 20
476.4402339549219
 30
0.0
 11
76.52452354661659
 21
448.72742103382
 31
0.0
  0
LINE
  5
76F0
330
1E
100
AcDbEntity
  8
UMCL1
  6
Continuous
100
AcDbLine
 10
63.52452354661659
 20
474.4402339549221
 30
0.0
 11
63.52452354661659
 21
450.72742103382
 31
0.0
  0
LINE
  5
76F1
330
1E
100
AcDbEntity
  8
UMCL1
  6
Continuous
100
AcDbLine
 10
60.52452354661659
 20
469.0838274943709
 30
0.0
 11
60.52452354661659
 21
456.0838274943709
 31
0.0
  0
LINE
  5
76F2
330
1E
100
AcDbEntity
  8
UMCL1
  6
Continuous
100
AcDbLine
 10
62.02452354661659
 20
470.583827494371
 30
0.0
 11
62.02452354661659
 21
454.5838274943712
 31
0.0
  0
ARC
  5
76F3
330
1E
100
AcDbEntity
  8
UMCL1
  6
Continuous
100
AcDbCircle
 10
80.27452354662022
 20
462.5838274943707
 30
0.0
 40
16.75000000000346
100
AcDbArc
 50
155.5673023205492
 51
204.4326976794442
  0
ARC
  5
76F4
330
1E
100
AcDbEntity
  8
UMCL1
  6
Continuous
100
AcDbCircle
 10
68.27452354661659
 20
452.1915226489577
 30
0.0
 40
4.749999999999908
100
AcDbArc
 50
133.1735511072573
 51
226.8264488927427
  0
LINE
  5
76F5
330
1E
100
AcDbEntity
  8
UMCL1
  6
Continuous
100
AcDbLine
 10
65.02452354661659
 20
448.72742103382
 30
0.0
 11
63.52452354661659
 21
450.72742103382
 31
0.0
  0
LINE
  5
76F6
330
1E
100
AcDbEntity
  8
UMCL1
  6
Continuous
100
AcDbLine
 10
65.02452354661659
 20
455.6556242640952
 30
0.0
 11
76.52452354661659
 21
455.6556242640954
 31
0.0
  0
LINE
  5
76F7
330
1E
100
AcDbEntity
  8
UMCL1
  6
Continuous
100
AcDbLine
 10
60.52452354661659
 20
456.0838274943709
 30
0.0
 11
62.02452354661659
 21
454.583827494371
 31
0.0
  0
LINE
  5
76F8
330
1E
100
AcDbEntity
  8
UMCL1
 62
     2
100
AcDbLine
 10
61.02452354661659
 20
455.583827494371
 30
0.0
 11
63.52452354661659
 21
455.583827494371
 31
0.0
  0
LINE
  5
76F9
330
1E
100
AcDbEntity
  8
UMCL1
100
AcDbLine
 10
62.02452354661659
 20
454.583827494371
 30
0.0
 11
63.52452354661659
 21
454.583827494371
 31
0.0
  0
LINE
  5
76FA
330
1E
100
AcDbEntity
  8
UMCL1
  6
Continuous
100
AcDbLine
 10
65.02452354661659
 20
469.5120307246465
 30
0.0
 11
76.52452354661659
 21
469.5120307246465
 31
0.0
  0
ARC
  5
76FB
330
1E
100
AcDbEntity
  8
UMCL1
  6
Continuous
100
AcDbCircle
 10
68.27452354661659
 20
472.9761323397842
 30
0.0
 40
4.749999999999908
100
AcDbArc
 50
133.1735511072573
 51
226.8264488927427
  0
LINE
  5
76FC
330
1E
100
AcDbEntity
  8
UMCL1
  6
Continuous
100
AcDbLine
 10
62.02452354661659
 20
470.583827494371
 30
0.0
 11
60.52452354661659
 21
469.0838274943709
 31
0.0
  0
LINE
  5
76FD
330
1E
100
AcDbEntity
  8
UMCL1
 62
     2
100
AcDbLine
 10
61.02452354661659
 20
469.5838274943709
 30
0.0
 11
63.52452354661659
 21
469.5838274943709
 31
0.0
  0
LINE
  5
76FE
330
1E
100
AcDbEntity
  8
UMCL1
100
AcDbLine
 10
62.02452354661659
 20
470.583827494371
 30
0.0
 11
63.52452354661659
 21
470.583827494371
 31
0.0
  0
LINE
  5
76FF
330
1E
100
AcDbEntity
  8
UMCL1
  6
Continuous
100
AcDbLine
 10
65.02452354661659
 20
476.4402339549222
 30
0.0
 11
63.52452354661659
 21
474.4402339549221
 31
0.0
  0
LINE
  5
7700
330
1E
100
AcDbEntity
  8
UMCL1
  6
Continuous
100
AcDbLine
 10
80.52452354661681
 20
531.5838274943709
 30
0.0
 11
80.52452354661681
 21
481.5838274943709
 31
0.0
  0
LINE
  5
7701
330
1E
100
AcDbEntity
  8
UMCL1
100
AcDbLine
 10
120.5245235466166
 20
481.5838274943709
 30
0.0
 11
80.52452354661658
 21
481.5838274943709
 31
0.0
  0
LINE
  5
7702
330
1E
100
AcDbEntity
  8
UMCL1
  6
Continuous
100
AcDbLine
 10
120.5245235466168
 20
484.083827494371
 30
0.0
 11
120.5245235466168
 21
481.5838274943709
 31
0.0
  0
LINE
  5
7703
330
1E
100
AcDbEntity
  8
UMCL1
  6
Continuous
100
AcDbLine
 10
120.5245235466168
 20
531.5838274943709
 30
0.0
 11
120.5245235466168
 21
309.5838274943712
 31
0.0
  0
LINE
  5
7704
330
1E
100
AcDbEntity
  8
UMCL1
  6
Continuous
100
AcDbLine
 10
80.52452354661681
 20
531.5838274943709
 30
0.0
 11
120.5245235466168
 21
531.5838274943709
 31
0.0
  0
ARC
  5
7705
330
1E
100
AcDbEntity
  8
UMCL1
  6
Continuous
100
AcDbCircle
 10
97.52452354661683
 20
525.5004941610377
 30
0.0
 40
15.0833333333332
100
AcDbArc
 50
60.15827583531631
 51
119.8417241646836
  0
LINE
  5
7706
330
1E
100
AcDbEntity
  8
UMCL1
  6
Continuous
100
AcDbLine
 10
86.26619329741902
 20
540.583827494371
 30
0.0
 11
108.7828537958144
 21
540.583827494371
 31
0.0
  0
ARC
  5
7707
330
1E
100
AcDbEntity
  8
UMCL1
  6
Continuous
100
AcDbCircle
 10
86.26619329741902
 20
536.0629941610377
 30
0.0
 40
4.520833333333317
100
AcDbArc
 50
33.89023816900856
 51
146.1097618309914
  0
ARC
  5
7708
330
1E
100
AcDbEntity
  8
UMCL1
  6
Continuous
100
AcDbCircle
 10
108.7828537958144
 20
536.0629941610377
 30
0.0
 40
4.520833333333317
100
AcDbArc
 50
33.89023816900856
 51
146.1097618309914
  0
LINE
  5
7709
330
1E
100
AcDbEntity
  8
CENTER
  6
CENTER
100
AcDbLine
 10
-69.09226933468016
 20
462.583827494371
 30
0.0
 11
-31.09226933468017
 21
462.583827494371
 31
0.0
  0
ARC
  5
770A
330
1E
100
AcDbEntity
  8
UMCL1
100
AcDbCircle
 10
-43.09226933468017
 20
469.5838274943709
 30
0.0
 40
12.0
100
AcDbArc
 50
0.0
 51
90.0
  0
LINE
  5
770B
330
1E
100
AcDbEntity
  8
CENTER
  6
CENTER
100
AcDbLine
 10
-206.0922693346802
 20
395.5838274943713
 30
0.0
 11
-28.09226933468017
 21
395.5838274943713
 31
0.0
  0
LINE
  5
770C
330
1E
100
AcDbEntity
  8
CENTER
  6
CENTER
100
AcDbLine
 10
-147.0922693346802
 20
522.2804036193283
 30
0.0
 11
-147.0922693346802
 21
464.3224629187089
 31
0.0
  0
LINE
  5
770D
330
1E
100
AcDbEntity
  8
CENTER
  6
CENTER
100
AcDbLine
 10
-87.09226933468016
 20
522.3334032571544
 30
0.0
 11
-87.09226933468016
 21
464.3224629187086
 31
0.0
  0
LINE
  5
770E
330
1E
100
AcDbEntity
  8
UMCL1
  6
Continuous
100
AcDbLine
 10
-135.0922693346804
 20
531.5838274943712
 30
0.0
 11
-155.0922693346801
 21
511.583827494371
 31
0.0
  0
LINE
  5
770F
330
1E
100
AcDbEntity
  8
UMCL1
  6
Continuous
100
AcDbLine
 10
-99.09226933468017
 20
531.5838274943712
 30
0.0
 11
-79.09226933468016
 21
511.5838274943712
 31
0.0
  0
LINE
  5
7710
330
1E
100
AcDbEntity
  8
UMCL1
100
AcDbLine
 10
-191.0922693346801
 20
481.5838274943709
 30
0.0
 11
-43.09226933468017
 21
481.5838274943709
 31
0.0
  0
LINE
  5
7711
330
1E
100
AcDbEntity
  8
CENTER
  6
CENTER
100
AcDbLine
 10
-184.0922693346801
 20
481.5838274943709
 30
0.0
 11
-184.0922693346801
 21
443.5838274943709
 31
0.0
  0
POLYLINE
  5
7712
330
1E
100
AcDbEntity
  8
UMCL1
  6
Continuous
100
AcDb2dPolyline
 66
     1
 10
0.0
 20
0.0
 30
0.0
 70
     1
  0
VERTEX
  5
7713
330
7712
100
AcDbEntity
  8
UMCL1
  6
Continuous
100
AcDbVertex
100
AcDb2dVertex
 10
-191.0204725649557
 20
474.583827494371
 30
0.0
  0
VERTEX
  5
7714
330
7712
100
AcDbEntity
  8
UMCL1
  6
Continuous
100
AcDbVertex
100
AcDb2dVertex
 10
-197.9486757952311
 20
462.583827494371
 30
0.0
  0
VERTEX
  5
7715
330
7712
100
AcDbEntity
  8
UMCL1
  6
Continuous
100
AcDbVertex
100
AcDb2dVertex
 10
-191.0204725649557
 20
450.583827494371
 30
0.0
  0
VERTEX
  5
7716
330
7712
100
AcDbEntity
  8
UMCL1
  6
Continuous
100
AcDbVertex
100
AcDb2dVertex
 10
-177.1640661044046
 20
450.583827494371
 30
0.0
  0
VERTEX
  5
7717
330
7712
100
AcDbEntity
  8
UMCL1
  6
Continuous
100
AcDbVertex
100
AcDb2dVertex
 10
-170.2358628741292
 20
462.583827494371
 30
0.0
  0
VERTEX
  5
7718
330
7712
100
AcDbEntity
  8
UMCL1
  6
Continuous
100
AcDbVertex
100
AcDb2dVertex
 10
-177.1640661044046
 20
474.583827494371
 30
0.0
  0
SEQEND
  5
7719
330
7712
100
AcDbEntity
  8
UMCL1
  6
Continuous
  0
LINE
  5
771A
330
1E
100
AcDbEntity
  8
CENTER
  6
CENTER
100
AcDbLine
 10
-203.0922693346802
 20
462.583827494371
 30
0.0
 11
-165.0922693346801
 21
462.583827494371
 31
0.0
  0
ARC
  5
771B
330
1E
100
AcDbEntity
  8
UMCL1
100
AcDbCircle
 10
-191.0922693346801
 20
469.5838274943709
 30
0.0
 40
12.0
100
AcDbArc
 50
90.0
 51
180.0
  0
CIRCLE
  5
771C
330
1E
100
AcDbEntity
  8
UMCL1
  6
Continuous
100
AcDbCircle
 10
-184.0922693346801
 20
462.583827494371
 30
0.0
 40
12.0
  0
ARC
  5
771D
330
1E
100
AcDbEntity
  8
UMCL1
  6
Continuous
 62
     2
100
AcDbCircle
 10
-184.0922693346801
 20
462.583827494371
 30
0.0
 40
7.2
100
AcDbArc
 50
69.11282536526009
 51
17.31224129214165
  0
CIRCLE
  5
771E
330
1E
100
AcDbEntity
  8
UMCL1
  6
Continuous
100
AcDbCircle
 10
-184.0922693346801
 20
462.583827494371
 30
0.0
 40
8.0
  0
LINE
  5
771F
330
1E
100
AcDbEntity
  8
UMCL1
  6
Continuous
100
AcDbLine
 10
-155.0922693346801
 20
511.583827494371
 30
0.0
 11
-155.0922693346801
 21
481.5838274943709
 31
0.0
  0
LINE
  5
7720
330
1E
100
AcDbEntity
  8
CENTER
  6
CENTER
100
AcDbLine
 10
-50.09226933468017
 20
481.5838274943709
 30
0.0
 11
-50.09226933468017
 21
443.5838274943709
 31
0.0
  0
LINE
  5
7721
330
1E
100
AcDbEntity
  8
UMCL1
  6
Continuous
100
AcDbLine
 10
-79.09226933468016
 20
511.5838274943712
 30
0.0
 11
-79.09226933468016
 21
481.5838274943709
 31
0.0
  0
CIRCLE
  5
7722
330
1E
100
AcDbEntity
  8
UMCL1
  6
Continuous
100
AcDbCircle
 10
-50.09226933468017
 20
462.583827494371
 30
0.0
 40
8.0
  0
POLYLINE
  5
7723
330
1E
100
AcDbEntity
  8
UMCL1
  6
Continuous
100
AcDb2dPolyline
 66
     1
 10
0.0
 20
0.0
 30
0.0
 70
     1
  0
VERTEX
  5
7724
330
7723
100
AcDbEntity
  8
UMCL1
  6
Continuous
100
AcDbVertex
100
AcDb2dVertex
 10
-57.02047256495575
 20
474.583827494371
 30
0.0
  0
VERTEX
  5
7725
330
7723
100
AcDbEntity
  8
UMCL1
  6
Continuous
100
AcDbVertex
100
AcDb2dVertex
 10
-63.94867579523111
 20
462.583827494371
 30
0.0
  0
VERTEX
  5
7726
330
7723
100
AcDbEntity
  8
UMCL1
  6
Continuous
100
AcDbVertex
100
AcDb2dVertex
 10
-57.02047256495575
 20
450.583827494371
 30
0.0
  0
VERTEX
  5
7727
330
7723
100
AcDbEntity
  8
UMCL1
  6
Continuous
100
AcDbVertex
100
AcDb2dVertex
 10
-43.16406610440458
 20
450.583827494371
 30
0.0
  0
VERTEX
  5
7728
330
7723
100
AcDbEntity
  8
UMCL1
  6
Continuous
100
AcDbVertex
100
AcDb2dVertex
 10
-36.23586287412923
 20
462.583827494371
 30
0.0
  0
VERTEX
  5
7729
330
7723
100
AcDbEntity
  8
UMCL1
  6
Continuous
100
AcDbVertex
100
AcDb2dVertex
 10
-43.16406610440458
 20
474.583827494371
 30
0.0
  0
SEQEND
  5
772A
330
7723
100
AcDbEntity
  8
UMCL1
  6
Continuous
  0
CIRCLE
  5
772B
330
1E
100
AcDbEntity
  8
UMCL1
  6
Continuous
100
AcDbCircle
 10
-50.09226933468017
 20
462.583827494371
 30
0.0
 40
12.0
  0
ARC
  5
772C
330
1E
100
AcDbEntity
  8
UMCL1
  6
Continuous
 62
     2
100
AcDbCircle
 10
-50.09226933468017
 20
462.583827494371
 30
0.0
 40
7.2
100
AcDbArc
 50
69.11282536526009
 51
17.31224129214165
  0
LINE
  5
772D
330
1E
100
AcDbEntity
  8
UMCL1
  6
Continuous
100
AcDbLine
 10
-130.0922693346804
 20
540.5838274943712
 30
0.0
 11
-104.0922693346801
 21
540.5838274943715
 31
0.0
  0
ARC
  5
772E
330
1E
100
AcDbEntity
  8
UMCL1
  6
Continuous
100
AcDbCircle
 10
-123.5922693346801
 20
529.0213274943728
 30
0.0
 40
11.56249999999854
100
AcDbArc
 50
55.79454206188918
 51
124.2054579381108
  0
LINE
  5
772F
330
1E
100
AcDbEntity
  8
UMCL1
  6
Continuous
100
AcDbLine
 10
-135.0922693346804
 20
531.5838274943712
 30
0.0
 11
-99.09226933468017
 21
531.5838274943712
 31
0.0
  0
LINE
  5
7730
330
1E
100
AcDbEntity
  8
UMCL1
  6
Continuous
100
AcDbLine
 10
-130.0922693346804
 20
540.5838274943712
 30
0.0
 11
-130.0922693346801
 21
531.5838274943709
 31
0.0
  0
LINE
  5
7731
330
1E
100
AcDbEntity
  8
UMCL1
  6
Continuous
100
AcDbLine
 10
-117.0922693346801
 20
538.583827494371
 30
0.0
 11
-117.0922693346801
 21
531.5838274943709
 31
0.0
  0
LINE
  5
7732
330
1E
100
AcDbEntity
  8
UMCL1
  6
Continuous
100
AcDbLine
 10
-104.0922693346801
 20
531.5838274943709
 30
0.0
 11
-104.0922693346804
 21
540.5838274943715
 31
0.0
  0
ARC
  5
7733
330
1E
100
AcDbEntity
  8
UMCL1
  6
Continuous
100
AcDbCircle
 10
-110.5922693346801
 20
529.021327494373
 30
0.0
 40
11.56249999999831
100
AcDbArc
 50
55.79454206188784
 51
124.2054579381121
  0
LINE
  5
7734
330
1E
100
AcDbEntity
  8
UMCL1
  6
Continuous
100
AcDbLine
 10
120.5245235466168
 20
808.3445944334107
 30
0.0
 11
120.5245235466168
 21
636.3445944334111
 31
0.0
  0
LINE
  5
7735
330
1E
100
AcDbEntity
  8
UMCL1
  6
Continuous
100
AcDbLine
 10
80.52452354661658
 20
808.3445944334107
 30
0.0
 11
80.52452354661637
 21
636.3445944334111
 31
0.0
  0
LINE
  5
7736
330
1E
100
AcDbEntity
  8
UMCL1
100
AcDbLine
 10
60.02452354661636
 20
663.3445944334112
 30
0.0
 11
63.52452354661636
 21
663.3445944334112
 31
0.0
  0
LINE
  5
7737
330
1E
100
AcDbEntity
  8
UMCL1
 62
     2
100
AcDbLine
 10
59.02452354661637
 20
662.3445944334112
 30
0.0
 11
63.52452354661636
 21
662.3445944334112
 31
0.0
  0
LINE
  5
7738
330
1E
100
AcDbEntity
  8
UMCL1
100
AcDbLine
 10
60.02452354661636
 20
647.3445944334112
 30
0.0
 11
63.52452354661636
 21
647.3445944334112
 31
0.0
  0
LINE
  5
7739
330
1E
100
AcDbEntity
  8
UMCL1
 62
     2
100
AcDbLine
 10
59.02452354661637
 20
648.3445944334111
 30
0.0
 11
63.52452354661636
 21
648.3445944334111
 31
0.0
  0
LINE
  5
773A
330
1E
100
AcDbEntity
  8
UMCL1
  6
Continuous
100
AcDbLine
 10
58.52452354661636
 20
661.8445944334112
 30
0.0
 11
58.52452354661636
 21
648.8445944334111
 31
0.0
  0
LINE
  5
773B
330
1E
100
AcDbEntity
  8
UMCL1
  6
Continuous
100
AcDbLine
 10
60.02452354661636
 20
663.3445944334112
 30
0.0
 11
60.02452354661636
 21
647.3445944334112
 31
0.0
  0
LINE
  5
773C
330
1E
100
AcDbEntity
  8
UMCL1
  6
Continuous
100
AcDbLine
 10
58.52452354661636
 20
648.8445944334111
 30
0.0
 11
60.02452354661636
 21
647.3445944334112
 31
0.0
  0
LINE
  5
773D
330
1E
100
AcDbEntity
  8
UMCL1
  6
Continuous
100
AcDbLine
 10
60.02452354661636
 20
663.3445944334112
 30
0.0
 11
58.52452354661636
 21
661.8445944334112
 31
0.0
  0
LINE
  5
773E
330
1E
100
AcDbEntity
  8
UMCL1
  6
HIDDEN
 62
     2
100
AcDbLine
 10
106.7745235466168
 20
636.3445944334111
 30
0.0
 11
106.0932224159371
 21
649.3445944334112
 31
0.0
  0
LINE
  5
773F
330
1E
100
AcDbEntity
  8
UMCL1
100
AcDbLine
 10
120.5245235466168
 20
636.3445944334111
 30
0.0
 11
80.52452354661681
 21
636.3445944334111
 31
0.0
  0
LINE
  5
7740
330
1E
100
AcDbEntity
  8
UMCL1
  6
Continuous
100
AcDbLine
 10
63.52452354661636
 20
667.2010008939619
 30
0.0
 11
63.52452354661636
 21
643.48818797286
 31
0.0
  0
LINE
  5
7741
330
1E
100
AcDbEntity
  8
UMCL1
  6
Continuous
100
AcDbLine
 10
76.52452354661637
 20
669.2010008939619
 30
0.0
 11
76.52452354661637
 21
641.48818797286
 31
0.0
  0
ARC
  5
7742
330
1E
100
AcDbEntity
  8
UMCL1
  6
Continuous
100
AcDbCircle
 10
80.27452354662001
 20
655.3445944334107
 30
0.0
 40
16.75000000000346
100
AcDbArc
 50
155.5673023205492
 51
204.4326976794442
  0
LINE
  5
7743
330
1E
100
AcDbEntity
  8
UMCL1
  6
Continuous
100
AcDbLine
 10
65.02452354661636
 20
648.4163912031354
 30
0.0
 11
76.52452354661637
 21
648.4163912031354
 31
0.0
  0
LINE
  5
7744
330
1E
100
AcDbEntity
  8
UMCL1
  6
Continuous
100
AcDbLine
 10
65.02452354661636
 20
641.48818797286
 30
0.0
 11
80.52452354661637
 21
641.48818797286
 31
0.0
  0
LINE
  5
7745
330
1E
100
AcDbEntity
  8
UMCL1
  6
Continuous
100
AcDbLine
 10
65.02452354661636
 20
641.48818797286
 30
0.0
 11
63.52452354661636
 21
643.48818797286
 31
0.0
  0
ARC
  5
7746
330
1E
100
AcDbEntity
  8
UMCL1
  6
Continuous
100
AcDbCircle
 10
68.27452354661637
 20
644.9522895879977
 30
0.0
 40
4.749999999999908
100
AcDbArc
 50
133.1735511072573
 51
226.8264488927427
  0
LINE
  5
7747
330
1E
100
AcDbEntity
  8
UMCL1
  6
Continuous
100
AcDbLine
 10
65.02452354661636
 20
662.2727976636865
 30
0.0
 11
76.52452354661637
 21
662.2727976636865
 31
0.0
  0
LINE
  5
7748
330
1E
100
AcDbEntity
  8
UMCL1
  6
Continuous
100
AcDbLine
 10
65.02452354661636
 20
669.2010008939619
 30
0.0
 11
80.52452354661637
 21
669.2010008939619
 31
0.0
  0
LINE
  5
7749
330
1E
100
AcDbEntity
  8
UMCL1
  6
Continuous
100
AcDbLine
 10
65.02452354661636
 20
669.2010008939619
 30
0.0
 11
63.52452354661636
 21
667.2010008939619
 31
0.0
  0
ARC
  5
774A
330
1E
100
AcDbEntity
  8
UMCL1
  6
Continuous
100
AcDbCircle
 10
68.27452354661637
 20
665.7368992788242
 30
0.0
 40
4.749999999999908
100
AcDbArc
 50
133.1735511072561
 51
226.8264488927427
  0
LINE
  5
774B
330
1E
100
AcDbEntity
  8
UMCL1
  6
HIDDEN
 62
     2
100
AcDbLine
 10
87.02452354661636
 20
636.3445944334111
 30
0.0
 11
87.70582467729605
 21
649.3445944334112
 31
0.0
  0
LINE
  5
774C
330
1E
100
AcDbEntity
  8
UMCL1
  6
HIDDEN
 62
     2
100
AcDbLine
 10
88.27452354661636
 20
636.3445944334111
 30
0.0
 11
88.95582467729628
 21
649.3445944334112
 31
0.0
  0
LINE
  5
774D
330
1E
100
AcDbEntity
  8
UMCL1
  6
HIDDEN
 62
     2
100
AcDbLine
 10
108.0245235466168
 20
636.3445944334111
 30
0.0
 11
107.3432224159369
 21
649.3445944334112
 31
0.0
  0
LINE
  5
774E
330
1E
100
AcDbEntity
  8
UMCL1
 62
     2
100
AcDbLine
 10
59.02452354661659
 20
782.3445944334107
 30
0.0
 11
63.52452354661659
 21
782.3445944334107
 31
0.0
  0
LINE
  5
774F
330
1E
100
AcDbEntity
  8
UMCL1
100
AcDbLine
 10
60.02452354661659
 20
781.3445944334107
 30
0.0
 11
63.52452354661659
 21
781.3445944334107
 31
0.0
  0
LINE
  5
7750
330
1E
100
AcDbEntity
  8
UMCL1
 62
     2
100
AcDbLine
 10
59.02452354661659
 20
796.3445944334107
 30
0.0
 11
63.52452354661659
 21
796.3445944334107
 31
0.0
  0
LINE
  5
7751
330
1E
100
AcDbEntity
  8
UMCL1
100
AcDbLine
 10
60.02452354661659
 20
797.3445944334107
 30
0.0
 11
63.52452354661659
 21
797.3445944334107
 31
0.0
  0
LINE
  5
7752
330
1E
100
AcDbEntity
  8
UMCL1
  6
Continuous
100
AcDbLine
 10
60.02452354661659
 20
797.3445944334107
 30
0.0
 11
60.02452354661659
 21
781.3445944334107
 31
0.0
  0
LINE
  5
7753
330
1E
100
AcDbEntity
  8
UMCL1
  6
Continuous
100
AcDbLine
 10
58.52452354661659
 20
795.8445944334108
 30
0.0
 11
58.52452354661659
 21
782.8445944334107
 31
0.0
  0
LINE
  5
7754
330
1E
100
AcDbEntity
  8
UMCL1
  6
Continuous
100
AcDbLine
 10
58.52452354661659
 20
782.8445944334107
 30
0.0
 11
60.02452354661659
 21
781.3445944334107
 31
0.0
  0
LINE
  5
7755
330
1E
100
AcDbEntity
  8
UMCL1
  6
Continuous
100
AcDbLine
 10
60.02452354661659
 20
797.3445944334107
 30
0.0
 11
58.52452354661659
 21
795.8445944334108
 31
0.0
  0
LINE
  5
7756
330
1E
100
AcDbEntity
  8
CENTER
  6
CENTER
100
AcDbLine
 10
97.52452354661683
 20
740.344594433411
 30
0.0
 11
97.52452354661683
 21
704.3445944334109
 31
0.0
  0
POLYLINE
  5
7757
330
1E
100
AcDbEntity
  8
UMCL1
  6
Continuous
100
AcDb2dPolyline
 66
     1
 10
0.0
 20
0.0
 30
0.0
 70
     1
  0
VERTEX
  5
7758
330
7757
100
AcDbEntity
  8
UMCL1
  6
Continuous
100
AcDbVertex
100
AcDb2dVertex
 10
90.01853715803873
 20
735.344594433411
 30
0.0
  0
VERTEX
  5
7759
330
7757
100
AcDbEntity
  8
UMCL1
  6
Continuous
100
AcDbVertex
100
AcDb2dVertex
 10
82.5129836585736
 20
722.3445944334109
 30
0.0
  0
VERTEX
  5
775A
330
7757
100
AcDbEntity
  8
UMCL1
  6
Continuous
100
AcDbVertex
100
AcDb2dVertex
 10
90.01853715803873
 20
709.3445944334109
 30
0.0
  0
VERTEX
  5
775B
330
7757
100
AcDbEntity
  8
UMCL1
  6
Continuous
100
AcDbVertex
100
AcDb2dVertex
 10
105.029644156969
 20
709.3445944334109
 30
0.0
  0
VERTEX
  5
775C
330
7757
100
AcDbEntity
  8
UMCL1
  6
Continuous
100
AcDbVertex
100
AcDb2dVertex
 10
112.5351976564341
 20
722.3445944334109
 30
0.0
  0
VERTEX
  5
775D
330
7757
100
AcDbEntity
  8
UMCL1
  6
Continuous
100
AcDbVertex
100
AcDb2dVertex
 10
105.029644156969
 20
735.344594433411
 30
0.0
  0
SEQEND
  5
775E
330
7757
100
AcDbEntity
  8
UMCL1
  6
Continuous
  0
CIRCLE
  5
775F
330
1E
100
AcDbEntity
  8
UMCL1
  6
Continuous
100
AcDbCircle
 10
97.52409065750384
 20
722.3445944334109
 30
0.0
 40
13.0
  0
LINE
  5
7760
330
1E
100
AcDbEntity
  8
UMCL1
  6
Continuous
100
AcDbLine
 10
80.52452354661681
 20
704.3445944334109
 30
0.0
 11
120.5245235466168
 21
704.3445944334109
 31
0.0
  0
LINE
  5
7761
330
1E
100
AcDbEntity
  8
UMCL1
  6
Continuous
100
AcDbLine
 10
80.52452354661681
 20
684.3445944334112
 30
0.0
 11
120.5245235466168
 21
684.3445944334112
 31
0.0
  0
LINE
  5
7762
330
1E
100
AcDbEntity
  8
UMCL1
  6
Continuous
100
AcDbLine
 10
120.5245235466168
 20
673.416075142511
 30
0.0
 11
80.52452354661681
 21
673.416075142511
 31
0.0
  0
LINE
  5
7763
330
1E
100
AcDbEntity
  8
CENTER
  6
CENTER
100
AcDbLine
 10
91.02452354661682
 20
692.3445944334109
 30
0.0
 11
110.0245235466168
 21
692.3445944334109
 31
0.0
  0
CIRCLE
  5
7764
330
1E
100
AcDbEntity
  8
UMCL1
  6
Continuous
100
AcDbCircle
 10
100.5245235466168
 20
692.3445944334109
 30
0.0
 40
5.5
  0
POLYLINE
  5
7765
330
1E
100
AcDbEntity
  8
UMCL1
  6
Continuous
100
AcDb2dPolyline
 66
     1
 10
0.0
 20
0.0
 30
0.0
 70
     1
  0
VERTEX
  5
7766
330
7765
100
AcDbEntity
  8
UMCL1
  6
Continuous
100
AcDbVertex
100
AcDb2dVertex
 10
99.08114787364276
 20
694.844594433411
 30
0.0
  0
VERTEX
  5
7767
330
7765
100
AcDbEntity
  8
UMCL1
  6
Continuous
100
AcDbVertex
100
AcDb2dVertex
 10
97.63777220066868
 20
692.3445944334109
 30
0.0
  0
VERTEX
  5
7768
330
7765
100
AcDbEntity
  8
UMCL1
  6
Continuous
100
AcDbVertex
100
AcDb2dVertex
 10
99.08114787364276
 20
689.844594433411
 30
0.0
  0
VERTEX
  5
7769
330
7765
100
AcDbEntity
  8
UMCL1
  6
Continuous
100
AcDbVertex
100
AcDb2dVertex
 10
101.9678992195909
 20
689.844594433411
 30
0.0
  0
VERTEX
  5
776A
330
7765
100
AcDbEntity
  8
UMCL1
  6
Continuous
100
AcDbVertex
100
AcDb2dVertex
 10
103.4112748925649
 20
692.3445944334109
 30
0.0
  0
VERTEX
  5
776B
330
7765
100
AcDbEntity
  8
UMCL1
  6
Continuous
100
AcDbVertex
100
AcDb2dVertex
 10
101.9678992195909
 20
694.844594433411
 30
0.0
  0
SEQEND
  5
776C
330
7765
100
AcDbEntity
  8
UMCL1
  6
Continuous
  0
CIRCLE
  5
776D
330
1E
100
AcDbEntity
  8
UMCL1
  6
Continuous
100
AcDbCircle
 10
100.5245235466168
 20
692.3445944334109
 30
0.0
 40
4.53810623556582
  0
CIRCLE
  5
776E
330
1E
100
AcDbEntity
  8
UMCL1
  6
Continuous
100
AcDbCircle
 10
100.5245235466168
 20
692.3445944334109
 30
0.0
 40
5.0
  0
LINE
  5
776F
330
1E
100
AcDbEntity
  8
UMCL1
  6
Continuous
100
AcDbLine
 10
80.52452354661681
 20
740.344594433411
 30
0.0
 11
120.5245235466168
 21
740.344594433411
 31
0.0
  0
LINE
  5
7770
330
1E
100
AcDbEntity
  8
CENTER
  6
CENTER
100
AcDbLine
 10
91.02452354661682
 20
752.3445944334107
 30
0.0
 11
110.0245235466168
 21
752.3445944334107
 31
0.0
  0
LINE
  5
7771
330
1E
100
AcDbEntity
  8
UMCL1
  6
Continuous
100
AcDbLine
 10
80.52452354661681
 20
760.3445944334107
 30
0.0
 11
120.5245235466168
 21
760.3445944334107
 31
0.0
  0
LINE
  5
7772
330
1E
100
AcDbEntity
  8
UMCL1
  6
Continuous
100
AcDbLine
 10
120.5245235466168
 20
771.273113724311
 30
0.0
 11
80.52452354661681
 21
771.2731137243109
 31
0.0
  0
CIRCLE
  5
7773
330
1E
100
AcDbEntity
  8
UMCL1
  6
Continuous
100
AcDbCircle
 10
100.5245235466168
 20
752.3445944334107
 30
0.0
 40
4.53810623556582
  0
CIRCLE
  5
7774
330
1E
100
AcDbEntity
  8
UMCL1
  6
Continuous
100
AcDbCircle
 10
100.5245235466168
 20
752.3445944334107
 30
0.0
 40
5.0
  0
LINE
  5
7775
330
1E
100
AcDbEntity
  8
CENTER
  6
CENTER
100
AcDbLine
 10
100.5245235466168
 20
763.8715352494698
 30
0.0
 11
100.5245235466168
 21
740.344594433411
 31
0.0
  0
CIRCLE
  5
7776
330
1E
100
AcDbEntity
  8
UMCL1
  6
Continuous
100
AcDbCircle
 10
100.5245235466168
 20
752.3445944334107
 30
0.0
 40
5.5
  0
POLYLINE
  5
7777
330
1E
100
AcDbEntity
  8
UMCL1
  6
Continuous
100
AcDb2dPolyline
 66
     1
 10
0.0
 20
0.0
 30
0.0
 70
     1
  0
VERTEX
  5
7778
330
7777
100
AcDbEntity
  8
UMCL1
  6
Continuous
100
AcDbVertex
100
AcDb2dVertex
 10
99.08114787364276
 20
754.8445944334107
 30
0.0
  0
VERTEX
  5
7779
330
7777
100
AcDbEntity
  8
UMCL1
  6
Continuous
100
AcDbVertex
100
AcDb2dVertex
 10
97.63777220066868
 20
752.3445944334107
 30
0.0
  0
VERTEX
  5
777A
330
7777
100
AcDbEntity
  8
UMCL1
  6
Continuous
100
AcDbVertex
100
AcDb2dVertex
 10
99.08114787364276
 20
749.8445944334108
 30
0.0
  0
VERTEX
  5
777B
330
7777
100
AcDbEntity
  8
UMCL1
  6
Continuous
100
AcDbVertex
100
AcDb2dVertex
 10
101.9678992195909
 20
749.8445944334108
 30
0.0
  0
VERTEX
  5
777C
330
7777
100
AcDbEntity
  8
UMCL1
  6
Continuous
100
AcDbVertex
100
AcDb2dVertex
 10
103.4112748925649
 20
752.3445944334107
 30
0.0
  0
VERTEX
  5
777D
330
7777
100
AcDbEntity
  8
UMCL1
  6
Continuous
100
AcDbVertex
100
AcDb2dVertex
 10
101.9678992195909
 20
754.8445944334107
 30
0.0
  0
SEQEND
  5
777E
330
7777
100
AcDbEntity
  8
UMCL1
  6
Continuous
  0
ARC
  5
777F
330
1E
100
AcDbEntity
  8
UMCL1
  6
Continuous
100
AcDbCircle
 10
80.27452354662022
 20
789.3445944334104
 30
0.0
 40
16.75000000000346
100
AcDbArc
 50
155.5673023205492
 51
204.4326976794501
  0
LINE
  5
7780
330
1E
100
AcDbEntity
  8
UMCL1
  6
Continuous
100
AcDbLine
 10
76.52452354661659
 20
803.2010008939616
 30
0.0
 11
76.52452354661659
 21
775.4881879728595
 31
0.0
  0
LINE
  5
7781
330
1E
100
AcDbEntity
  8
UMCL1
  6
Continuous
100
AcDbLine
 10
63.52452354661659
 20
801.2010008939617
 30
0.0
 11
63.52452354661659
 21
777.4881879728598
 31
0.0
  0
LINE
  5
7782
330
1E
100
AcDbEntity
  8
UMCL1
  6
Continuous
100
AcDbLine
 10
65.02452354661659
 20
782.4163912031349
 30
0.0
 11
76.52452354661659
 21
782.4163912031349
 31
0.0
  0
LINE
  5
7783
330
1E
100
AcDbEntity
  8
UMCL1
  6
Continuous
100
AcDbLine
 10
65.02452354661659
 20
775.4881879728598
 30
0.0
 11
80.52452354661658
 21
775.4881879728598
 31
0.0
  0
LINE
  5
7784
330
1E
100
AcDbEntity
  8
UMCL1
  6
Continuous
100
AcDbLine
 10
65.02452354661659
 20
775.4881879728598
 30
0.0
 11
63.52452354661659
 21
777.4881879728598
 31
0.0
  0
ARC
  5
7785
330
1E
100
AcDbEntity
  8
UMCL1
  6
Continuous
100
AcDbCircle
 10
68.27452354661659
 20
778.9522895879975
 30
0.0
 40
4.749999999999908
100
AcDbArc
 50
133.1735511072573
 51
226.8264488927439
  0
LINE
  5
7786
330
1E
100
AcDbEntity
  8
UMCL1
  6
Continuous
100
AcDbLine
 10
65.02452354661659
 20
803.2010008939616
 30
0.0
 11
80.52452354661658
 21
803.2010008939616
 31
0.0
  0
LINE
  5
7787
330
1E
100
AcDbEntity
  8
UMCL1
  6
Continuous
100
AcDbLine
 10
65.02452354661659
 20
796.2727976636863
 30
0.0
 11
76.52452354661659
 21
796.2727976636863
 31
0.0
  0
LINE
  5
7788
330
1E
100
AcDbEntity
  8
UMCL1
  6
Continuous
100
AcDbLine
 10
65.02452354661659
 20
803.2010008939616
 30
0.0
 11
63.52452354661659
 21
801.2010008939617
 31
0.0
  0
ARC
  5
7789
330
1E
100
AcDbEntity
  8
UMCL1
  6
Continuous
100
AcDbCircle
 10
68.27452354661659
 20
799.7368992788239
 30
0.0
 40
4.749999999999908
100
AcDbArc
 50
133.1735511072561
 51
226.8264488927427
  0
LINE
  5
778A
330
1E
100
AcDbEntity
  8
UMCL1
100
AcDbLine
 10
120.5245235466166
 20
808.3445944334107
 30
0.0
 11
80.52452354661658
 21
808.3445944334107
 31
0.0
  0
LINE
  5
778B
330
1E
100
AcDbEntity
  8
UMCL1
100
AcDbLine
 10
838.4170470044363
 20
469.5838274943709
 30
0.0
 11
838.4170470044368
 21
342.4402339549222
 31
0.0
  0
LINE
  5
778C
330
1E
100
AcDbEntity
  8
UMCL1
100
AcDbLine
 10
666.4170470044362
 20
469.5838274943709
 30
0.0
 11
666.4170470044368
 21
342.4402339549222
 31
0.0
  0
LINE
  5
778D
330
1E
100
AcDbEntity
  8
UMCL1
100
AcDbLine
 10
789.9170470044358
 20
428.083827494371
 30
0.0
 11
789.9170470044358
 21
363.0838274943712
 31
0.0
  0
LINE
  5
778E
330
1E
100
AcDbEntity
  8
UMCL1
100
AcDbLine
 10
714.9170470044358
 20
428.083827494371
 30
0.0
 11
714.9170470044358
 21
363.0838274943712
 31
0.0
  0
CIRCLE
  5
778F
330
1E
100
AcDbEntity
  8
UMCL1
  6
Continuous
100
AcDbCircle
 10
752.4170470044363
 20
395.5838274943713
 30
0.0
 40
22.50000000000003
  0
LINE
  5
7790
330
1E
100
AcDbEntity
  8
CENTER
  6
CENTER
100
AcDbLine
 10
727.4170470044363
 20
381.0838274943712
 30
0.0
 11
727.4170470044363
 21
360.0838274943712
 31
0.0
  0
LINE
  5
7791
330
1E
100
AcDbEntity
  8
CENTER
  6
CENTER
100
AcDbLine
 10
777.4170470044363
 20
381.0838274943712
 30
0.0
 11
777.4170470044363
 21
360.0838274943712
 31
0.0
  0
CIRCLE
  5
7792
330
1E
100
AcDbEntity
  8
UMCL1
  6
Continuous
100
AcDbCircle
 10
752.4170470044363
 20
395.5838274943713
 30
0.0
 40
25.00000000000003
  0
LINE
  5
7793
330
1E
100
AcDbEntity
  8
CENTER
  6
CENTER
100
AcDbLine
 10
752.4170470044363
 20
545.9522638628498
 30
0.0
 11
752.4170470044363
 21
293.6086641841521
 31
0.0
  0
LINE
  5
7794
330
1E
100
AcDbEntity
  8
UMCL1
  6
HIDDEN
 62
     2
100
AcDbLine
 10
639.9170470044363
 20
301.5838274943712
 30
0.0
 11
864.9170470044364
 21
301.583827494371
 31
0.0
  0
LINE
  5
7795
330
1E
100
AcDbEntity
  8
UMCL1
100
AcDbLine
 10
639.9170470044363
 20
295.5838274943712
 30
0.0
 11
864.9170470044364
 21
295.583827494371
 31
0.0
  0
LINE
  5
7796
330
1E
100
AcDbEntity
  8
UMCL1
  6
HIDDEN
 62
     2
100
AcDbLine
 10
678.4170470044363
 20
309.5838274943712
 30
0.0
 11
826.4170470044362
 21
309.5838274943712
 31
0.0
  0
LINE
  5
7797
330
1E
100
AcDbEntity
  8
UMCL1
100
AcDbLine
 10
719.9170470044358
 20
358.0838274943712
 30
0.0
 11
784.9170470044358
 21
358.0838274943712
 31
0.0
  0
LINE
  5
7798
330
1E
100
AcDbEntity
  8
UMCL1
  6
Continuous
100
AcDbLine
 10
589.5245235466168
 20
418.0838274943712
 30
0.0
 11
589.5245235466165
 21
373.083827494371
 31
0.0
  0
LINE
  5
7799
330
1E
100
AcDbEntity
  8
UMCL1
100
AcDbLine
 10
364.5245235466167
 20
309.5838274943712
 30
0.0
 11
404.5245235466166
 21
309.5838274943712
 31
0.0
  0
LINE
  5
779A
330
1E
100
AcDbEntity
  8
UMCL1
100
AcDbLine
 10
404.5245235466167
 20
358.0838274943712
 30
0.0
 11
417.5245235466168
 21
358.0838274943712
 31
0.0
  0
LINE
  5
779B
330
1E
100
AcDbEntity
  8
UMCL1
  6
Continuous
100
AcDbLine
 10
427.5245235466169
 20
365.5838274943712
 30
0.0
 11
426.5245235466169
 21
364.5838274943713
 31
0.0
  0
LINE
  5
779C
330
1E
100
AcDbEntity
  8
UMCL1
  6
Continuous
100
AcDbLine
 10
426.5245235466169
 20
377.5838274943712
 30
0.0
 11
426.5245235466169
 21
364.5838274943713
 31
0.0
  0
LINE
  5
779D
330
1E
100
AcDbEntity
  8
UMCL1
  6
Continuous
100
AcDbLine
 10
419.5245235466169
 20
377.5838274943712
 30
0.0
 11
419.5245235466169
 21
364.5838274943713
 31
0.0
  0
LINE
  5
779E
330
1E
100
AcDbEntity
  8
UMCL1
100
AcDbLine
 10
417.5245235466169
 20
364.5838274943713
 30
0.0
 11
426.5245235466169
 21
364.5838274943713
 31
0.0
  0
LINE
  5
779F
330
1E
100
AcDbEntity
  8
UMCL1
  6
Continuous
100
AcDbLine
 10
427.5245235466169
 20
376.5838274943712
 30
0.0
 11
427.5245235466169
 21
365.5838274943712
 31
0.0
  0
LINE
  5
77A0
330
1E
100
AcDbEntity
  8
UMCL1
100
AcDbLine
 10
584.1632562453433
 20
370.5838274943712
 30
0.0
 11
589.5245235466165
 21
373.083827494371
 31
0.0
  0
LINE
  5
77A1
330
1E
100
AcDbEntity
  8
UMCL1
  6
HIDDEN
 62
     2
100
AcDbLine
 10
589.5245235466168
 20
384.4213274943713
 30
0.0
 11
577.5225761250997
 21
385.171449208216
 31
0.0
  0
LINE
  5
77A2
330
1E
100
AcDbEntity
  8
UMCL1
  6
HIDDEN
100
AcDbLine
 10
589.5245235466168
 20
385.5213274943712
 30
0.0
 11
576.5245235466166
 21
386.3338274943712
 31
0.0
  0
LINE
  5
77A3
330
1E
100
AcDbEntity
  8
UMCL1
  6
HIDDEN
 62
     2
100
AcDbLine
 10
576.5245235466168
 20
386.2338274943709
 30
0.0
 11
577.5225761250997
 21
385.171449208216
 31
0.0
  0
LINE
  5
77A4
330
1E
100
AcDbEntity
  8
CENTER
  6
CENTER
100
AcDbLine
 10
384.5245235466167
 20
530.1562254508722
 30
0.0
 11
384.5245235466167
 21
507.9213127927196
 31
0.0
  0
LINE
  5
77A5
330
1E
100
AcDbEntity
  8
UMCL1
  6
Continuous
100
AcDbLine
 10
404.5245235466167
 20
481.5838274943709
 30
0.0
 11
404.5245235466171
 21
308.0838274943713
 31
0.0
  0
LINE
  5
77A6
330
1E
100
AcDbEntity
  8
UMCL1
  6
Continuous
100
AcDbLine
 10
417.5245235466168
 20
433.083827494371
 30
0.0
 11
417.5245235466173
 21
358.0838274943712
 31
0.0
  0
LINE
  5
77A7
330
1E
100
AcDbEntity
  8
UMCL1
  6
Continuous
100
AcDbLine
 10
427.5245235466169
 20
425.583827494371
 30
0.0
 11
426.5245235466169
 21
426.583827494371
 31
0.0
  0
LINE
  5
77A8
330
1E
100
AcDbEntity
  8
UMCL1
100
AcDbLine
 10
417.5245235466169
 20
426.583827494371
 30
0.0
 11
426.5245235466169
 21
426.583827494371
 31
0.0
  0
LINE
  5
77A9
330
1E
100
AcDbEntity
  8
UMCL1
  6
Continuous
100
AcDbLine
 10
419.524523546617
 20
413.5838274943714
 30
0.0
 11
419.5245235466169
 21
426.583827494371
 31
0.0
  0
LINE
  5
77AA
330
1E
100
AcDbEntity
  8
UMCL1
  6
Continuous
100
AcDbLine
 10
426.5245235466169
 20
413.5838274943714
 30
0.0
 11
426.5245235466169
 21
426.583827494371
 31
0.0
  0
LINE
  5
77AB
330
1E
100
AcDbEntity
  8
UMCL1
  6
Continuous
100
AcDbLine
 10
427.5245235466169
 20
414.5838274943714
 30
0.0
 11
427.5245235466169
 21
425.583827494371
 31
0.0
  0
LINE
  5
77AC
330
1E
100
AcDbEntity
  8
UMCL1
100
AcDbLine
 10
404.5245235466169
 20
433.083827494371
 30
0.0
 11
417.5245235466168
 21
433.083827494371
 31
0.0
  0
LINE
  5
77AD
330
1E
100
AcDbEntity
  8
UMCL1
  6
Continuous
100
AcDbLine
 10
364.5245235466167
 20
531.5838274943709
 30
0.0
 11
404.5245235466166
 21
531.5838274943709
 31
0.0
  0
LINE
  5
77AE
330
1E
100
AcDbEntity
  8
UMCL1
100
AcDbLine
 10
364.5245235466168
 20
481.5838274943709
 30
0.0
 11
404.5245235466167
 21
481.5838274943709
 31
0.0
  0
LINE
  5
77AF
330
1E
100
AcDbEntity
  8
UMCL1
  6
Continuous
100
AcDbLine
 10
364.5245235466168
 20
484.083827494371
 30
0.0
 11
364.5245235466168
 21
481.5838274943709
 31
0.0
  0
LINE
  5
77B0
330
1E
100
AcDbEntity
  8
UMCL1
  6
Continuous
100
AcDbLine
 10
364.5245235466168
 20
531.5838274943709
 30
0.0
 11
364.5245235466168
 21
309.5838274943712
 31
0.0
  0
ARC
  5
77B1
330
1E
100
AcDbEntity
  8
UMCL1
  6
Continuous
100
AcDbCircle
 10
393.7745235466163
 20
506.5838274943709
 30
0.0
 40
19.75000000000055
100
AcDbArc
 50
333.9921761143643
 51
26.00782388563566
  0
LINE
  5
77B2
330
1E
100
AcDbEntity
  8
UMCL1
  6
Continuous
100
AcDbLine
 10
404.5245235466167
 20
531.5838274943709
 30
0.0
 11
404.5245235466167
 21
481.5838274943709
 31
0.0
  0
LINE
  5
77B3
330
1E
100
AcDbEntity
  8
UMCL1
  6
Continuous
100
AcDbLine
 10
408.5245235466167
 20
524.083827494371
 30
0.0
 11
408.5245235466167
 21
489.083827494371
 31
0.0
  0
ARC
  5
77B4
330
1E
100
AcDbEntity
  8
UMCL1
  6
Continuous
100
AcDbCircle
 10
389.0036902132834
 20
506.5838274943709
 30
0.0
 40
28.52083333333344
100
AcDbArc
 50
322.1507111679001
 51
37.84928883209996
  0
LINE
  5
77B5
330
1E
100
AcDbEntity
  8
UMCL1
  6
Continuous
100
AcDbLine
 10
411.5245235466169
 20
497.9235734565265
 30
0.0
 11
408.5245235466167
 21
497.9235734565265
 31
0.0
  0
LINE
  5
77B6
330
1E
100
AcDbEntity
  8
UMCL1
  6
Continuous
100
AcDbLine
 10
404.5245235466167
 20
489.083827494371
 30
0.0
 11
411.5245235466168
 21
489.083827494371
 31
0.0
  0
ARC
  5
77B7
330
1E
100
AcDbEntity
  8
UMCL1
  6
Continuous
100
AcDbCircle
 10
407.6427178388322
 20
493.5037004754487
 30
0.0
 40
5.882490350340627
100
AcDbArc
 50
311.2916027264971
 51
48.70839727350287
  0
ARC
  5
77B8
330
1E
100
AcDbEntity
  8
UMCL1
  6
Continuous
100
AcDbCircle
 10
407.6427178388322
 20
519.6639545132934
 30
0.0
 40
5.882490350340546
100
AcDbArc
 50
311.2916027264971
 51
48.70839727350287
  0
LINE
  5
77B9
330
1E
100
AcDbEntity
  8
UMCL1
  6
Continuous
100
AcDbLine
 10
411.5245235466168
 20
515.2440815322154
 30
0.0
 11
408.5245235466167
 21
515.2440815322154
 31
0.0
  0
LINE
  5
77BA
330
1E
100
AcDbEntity
  8
UMCL1
  6
Continuous
100
AcDbLine
 10
404.5245235466166
 20
524.083827494371
 30
0.0
 11
411.5245235466168
 21
524.0838274943712
 31
0.0
  0
LINE
  5
77BB
330
1E
100
AcDbEntity
  8
UMCL1
  6
HIDDEN
 62
     2
100
AcDbLine
 10
553.4699711305711
 20
411.0838274943712
 30
0.0
 11
552.9720972273821
 21
420.5838274943712
 31
0.0
  0
LINE
  5
77BC
330
1E
100
AcDbEntity
  8
UMCL1
  6
HIDDEN
 62
     2
100
AcDbLine
 10
565.5742233241929
 20
411.0838274943712
 30
0.0
 11
566.072097227382
 21
420.5838274943712
 31
0.0
  0
LINE
  5
77BD
330
1E
100
AcDbEntity
  8
CENTER
  6
CENTER
100
AcDbLine
 10
559.522097227382
 20
425.4167545694301
 30
0.0
 11
559.522097227382
 21
403.4167545694304
 31
0.0
  0
LINE
  5
77BE
330
1E
100
AcDbEntity
  8
UMCL1
  6
HIDDEN
100
AcDbLine
 10
554.269971130571
 20
411.0838274943712
 30
0.0
 11
553.7720972273821
 21
420.5838274943712
 31
0.0
  0
LINE
  5
77BF
330
1E
100
AcDbEntity
  8
UMCL1
  6
HIDDEN
100
AcDbLine
 10
564.7742233241931
 20
411.0838274943712
 30
0.0
 11
565.272097227382
 21
420.5838274943712
 31
0.0
  0
LINE
  5
77C0
330
1E
100
AcDbEntity
  8
UMCL1
  6
HIDDEN
 62
     2
100
AcDbLine
 10
589.5245235466168
 20
406.7463274943711
 30
0.0
 11
577.5225761250998
 21
405.9962057805264
 31
0.0
  0
LINE
  5
77C1
330
1E
100
AcDbEntity
  8
UMCL1
  6
HIDDEN
100
AcDbLine
 10
576.5245235466169
 20
404.8338274943712
 30
0.0
 11
589.5245235466168
 21
405.6463274943712
 31
0.0
  0
LINE
  5
77C2
330
1E
100
AcDbEntity
  8
UMCL1
  6
HIDDEN
 62
     2
100
AcDbLine
 10
577.5225761250998
 20
405.9962057805264
 30
0.0
 11
576.5245235466169
 21
404.9338274943711
 31
0.0
  0
LINE
  5
77C3
330
1E
100
AcDbEntity
  8
UMCL1
100
AcDbLine
 10
584.1632562453431
 20
420.5838274943712
 30
0.0
 11
589.5245235466168
 21
418.0838274943712
 31
0.0
  0
ARC
  5
77C4
330
1E
100
AcDbEntity
  8
UMCL1
  6
HIDDEN
 62
     2
100
AcDbCircle
 10
678.4170470044363
 20
321.5838274943712
 30
0.0
 40
12.0
100
AcDbArc
 50
180.0
 51
270.0
  0
LINE
  5
77C5
330
1E
100
AcDbEntity
  8
CENTER
  6
CENTER
100
AcDbLine
 10
666.4170470044362
 20
328.5838274943712
 30
0.0
 11
704.4170470044363
 21
328.5838274943712
 31
0.0
  0
LINE
  5
77C6
330
1E
100
AcDbEntity
  8
CENTER
  6
CENTER
100
AcDbLine
 10
652.4170470044364
 20
307.9026406993055
 30
0.0
 11
652.4170470044364
 21
293.2284599269946
 31
0.0
  0
LINE
  5
77C7
330
1E
100
AcDbEntity
  8
UMCL1
100
AcDbLine
 10
639.9170470044363
 20
301.5838274943712
 30
0.0
 11
639.9170470044363
 21
295.583827494371
 31
0.0
  0
LINE
  5
77C8
330
1E
100
AcDbEntity
  8
UMCL1
  6
HIDDEN
 62
     2
100
AcDbLine
 10
646.9170470044363
 20
301.5838274943712
 30
0.0
 11
646.9170470044363
 21
295.583827494371
 31
0.0
  0
LINE
  5
77C9
330
1E
100
AcDbEntity
  8
UMCL1
  6
HIDDEN
 62
     2
100
AcDbLine
 10
657.9170470044362
 20
301.5838274943712
 30
0.0
 11
657.9170470044362
 21
295.583827494371
 31
0.0
  0
LINE
  5
77CA
330
1E
100
AcDbEntity
  8
UMCL1
  6
HIDDEN
 62
     2
100
AcDbLine
 10
666.4170470044362
 20
342.4402339549222
 30
0.0
 11
666.4170470044362
 21
321.5838274943712
 31
0.0
  0
LINE
  5
77CB
330
1E
100
AcDbEntity
  8
CENTER
  6
CENTER
100
AcDbLine
 10
685.4170470044363
 20
347.5838274943712
 30
0.0
 11
685.4170470044363
 21
309.5838274943712
 31
0.0
  0
ARC
  5
77CC
330
1E
100
AcDbEntity
  8
UMCL1
  6
Continuous
 62
     2
100
AcDbCircle
 10
685.4170470044363
 20
328.5838274943712
 30
0.0
 40
7.2
100
AcDbArc
 50
69.11282536526009
 51
17.31224129214165
  0
CIRCLE
  5
77CD
330
1E
100
AcDbEntity
  8
UMCL1
  6
Continuous
100
AcDbCircle
 10
685.4170470044363
 20
328.5838274943712
 30
0.0
 40
12.0
  0
POLYLINE
  5
77CE
330
1E
100
AcDbEntity
  8
UMCL1
  6
Continuous
100
AcDb2dPolyline
 66
     1
 10
0.0
 20
0.0
 30
0.0
 70
     1
  0
VERTEX
  5
77CF
330
77CE
100
AcDbEntity
  8
UMCL1
  6
Continuous
100
AcDbVertex
100
AcDb2dVertex
 10
678.4888437741605
 20
340.5838274943712
 30
0.0
  0
VERTEX
  5
77D0
330
77CE
100
AcDbEntity
  8
UMCL1
  6
Continuous
100
AcDbVertex
100
AcDb2dVertex
 10
671.5606405438851
 20
328.5838274943712
 30
0.0
  0
VERTEX
  5
77D1
330
77CE
100
AcDbEntity
  8
UMCL1
  6
Continuous
100
AcDbVertex
100
AcDb2dVertex
 10
678.4888437741605
 20
316.5838274943713
 30
0.0
  0
VERTEX
  5
77D2
330
77CE
100
AcDbEntity
  8
UMCL1
  6
Continuous
100
AcDbVertex
100
AcDb2dVertex
 10
692.3452502347116
 20
316.5838274943713
 30
0.0
  0
VERTEX
  5
77D3
330
77CE
100
AcDbEntity
  8
UMCL1
  6
Continuous
100
AcDbVertex
100
AcDb2dVertex
 10
699.273453464987
 20
328.5838274943712
 30
0.0
  0
VERTEX
  5
77D4
330
77CE
100
AcDbEntity
  8
UMCL1
  6
Continuous
100
AcDbVertex
100
AcDb2dVertex
 10
692.3452502347116
 20
340.5838274943712
 30
0.0
  0
SEQEND
  5
77D5
330
77CE
100
AcDbEntity
  8
UMCL1
  6
Continuous
  0
CIRCLE
  5
77D6
330
1E
100
AcDbEntity
  8
UMCL1
  6
Continuous
100
AcDbCircle
 10
685.4170470044363
 20
328.5838274943712
 30
0.0
 40
8.0
  0
LINE
  5
77D7
330
1E
100
AcDbEntity
  8
CENTER
  6
CENTER
100
AcDbLine
 10
716.9170470044363
 20
370.5838274943712
 30
0.0
 11
737.9170470044363
 21
370.5838274943712
 31
0.0
  0
CIRCLE
  5
77D8
330
1E
100
AcDbEntity
  8
UMCL1
  6
Continuous
100
AcDbCircle
 10
727.4170470044363
 20
370.5838274943712
 30
0.0
 40
8.0
  0
LINE
  5
77D9
330
1E
100
AcDbEntity
  8
UMCL1
100
AcDbLine
 10
714.9170470044358
 20
363.0838274943712
 30
0.0
 11
719.9170470044358
 21
358.0838274943712
 31
0.0
  0
CIRCLE
  5
77DA
330
1E
100
AcDbEntity
  8
UMCL1
  6
Continuous
100
AcDbCircle
 10
727.4170470044363
 20
370.5838274943712
 30
0.0
 40
7.0
  0
POLYLINE
  5
77DB
330
1E
100
AcDbEntity
  8
UMCL1
  6
Continuous
100
AcDb2dPolyline
 66
     1
 10
0.0
 20
0.0
 30
0.0
 70
     1
  0
VERTEX
  5
77DC
330
77DB
100
AcDbEntity
  8
UMCL1
  6
Continuous
100
AcDbVertex
100
AcDb2dVertex
 10
725.1076459276776
 20
374.5838274943712
 30
0.0
  0
VERTEX
  5
77DD
330
77DB
100
AcDbEntity
  8
UMCL1
  6
Continuous
100
AcDbVertex
100
AcDb2dVertex
 10
722.7982448509191
 20
370.5838274943712
 30
0.0
  0
VERTEX
  5
77DE
330
77DB
100
AcDbEntity
  8
UMCL1
  6
Continuous
100
AcDbVertex
100
AcDb2dVertex
 10
725.1076459276776
 20
366.5838274943713
 30
0.0
  0
VERTEX
  5
77DF
330
77DB
100
AcDbEntity
  8
UMCL1
  6
Continuous
100
AcDbVertex
100
AcDb2dVertex
 10
729.7264480811949
 20
366.5838274943713
 30
0.0
  0
VERTEX
  5
77E0
330
77DB
100
AcDbEntity
  8
UMCL1
  6
Continuous
100
AcDbVertex
100
AcDb2dVertex
 10
732.035849157953
 20
370.5838274943712
 30
0.0
  0
VERTEX
  5
77E1
330
77DB
100
AcDbEntity
  8
UMCL1
  6
Continuous
100
AcDbVertex
100
AcDb2dVertex
 10
729.7264480811949
 20
374.5838274943712
 30
0.0
  0
SEQEND
  5
77E2
330
77DB
100
AcDbEntity
  8
UMCL1
  6
Continuous
  0
ARC
  5
77E3
330
1E
100
AcDbEntity
  8
UMCL1
  6
HIDDEN
 62
     2
100
AcDbCircle
 10
826.4170470044362
 20
321.5838274943712
 30
0.0
 40
12.0
100
AcDbArc
 50
270.0
 51
0.0
  0
LINE
  5
77E4
330
1E
100
AcDbEntity
  8
CENTER
  6
CENTER
100
AcDbLine
 10
819.4170470044362
 20
347.5838274943712
 30
0.0
 11
819.4170470044362
 21
309.5838274943712
 31
0.0
  0
LINE
  5
77E5
330
1E
100
AcDbEntity
  8
CENTER
  6
CENTER
100
AcDbLine
 10
800.4170470044362
 20
328.5838274943712
 30
0.0
 11
838.4170470044363
 21
328.5838274943712
 31
0.0
  0
POLYLINE
  5
77E6
330
1E
100
AcDbEntity
  8
UMCL1
  6
Continuous
100
AcDb2dPolyline
 66
     1
 10
0.0
 20
0.0
 30
0.0
 70
     1
  0
VERTEX
  5
77E7
330
77E6
100
AcDbEntity
  8
UMCL1
  6
Continuous
100
AcDbVertex
100
AcDb2dVertex
 10
812.4888437741603
 20
340.5838274943712
 30
0.0
  0
VERTEX
  5
77E8
330
77E6
100
AcDbEntity
  8
UMCL1
  6
Continuous
100
AcDbVertex
100
AcDb2dVertex
 10
805.5606405438851
 20
328.5838274943712
 30
0.0
  0
VERTEX
  5
77E9
330
77E6
100
AcDbEntity
  8
UMCL1
  6
Continuous
100
AcDbVertex
100
AcDb2dVertex
 10
812.4888437741603
 20
316.5838274943713
 30
0.0
  0
VERTEX
  5
77EA
330
77E6
100
AcDbEntity
  8
UMCL1
  6
Continuous
100
AcDbVertex
100
AcDb2dVertex
 10
826.3452502347115
 20
316.5838274943713
 30
0.0
  0
VERTEX
  5
77EB
330
77E6
100
AcDbEntity
  8
UMCL1
  6
Continuous
100
AcDbVertex
100
AcDb2dVertex
 10
833.2734534649869
 20
328.5838274943712
 30
0.0
  0
VERTEX
  5
77EC
330
77E6
100
AcDbEntity
  8
UMCL1
  6
Continuous
100
AcDbVertex
100
AcDb2dVertex
 10
826.3452502347115
 20
340.5838274943712
 30
0.0
  0
SEQEND
  5
77ED
330
77E6
100
AcDbEntity
  8
UMCL1
  6
Continuous
  0
CIRCLE
  5
77EE
330
1E
100
AcDbEntity
  8
UMCL1
  6
Continuous
100
AcDbCircle
 10
777.4170470044363
 20
370.5838274943712
 30
0.0
 40
8.0
  0
CIRCLE
  5
77EF
330
1E
100
AcDbEntity
  8
UMCL1
  6
Continuous
100
AcDbCircle
 10
777.4170470044363
 20
370.5838274943712
 30
0.0
 40
7.0
  0
LINE
  5
77F0
330
1E
100
AcDbEntity
  8
CENTER
  6
CENTER
100
AcDbLine
 10
766.9170470044363
 20
370.5838274943712
 30
0.0
 11
787.9170470044363
 21
370.5838274943712
 31
0.0
  0
POLYLINE
  5
77F1
330
1E
100
AcDbEntity
  8
UMCL1
  6
Continuous
100
AcDb2dPolyline
 66
     1
 10
0.0
 20
0.0
 30
0.0
 70
     1
  0
VERTEX
  5
77F2
330
77F1
100
AcDbEntity
  8
UMCL1
  6
Continuous
100
AcDbVertex
100
AcDb2dVertex
 10
775.1076459276776
 20
374.5838274943712
 30
0.0
  0
VERTEX
  5
77F3
330
77F1
100
AcDbEntity
  8
UMCL1
  6
Continuous
100
AcDbVertex
100
AcDb2dVertex
 10
772.7982448509191
 20
370.5838274943712
 30
0.0
  0
VERTEX
  5
77F4
330
77F1
100
AcDbEntity
  8
UMCL1
  6
Continuous
100
AcDbVertex
100
AcDb2dVertex
 10
775.1076459276776
 20
366.5838274943713
 30
0.0
  0
VERTEX
  5
77F5
330
77F1
100
AcDbEntity
  8
UMCL1
  6
Continuous
100
AcDbVertex
100
AcDb2dVertex
 10
779.7264480811945
 20
366.5838274943713
 30
0.0
  0
VERTEX
  5
77F6
330
77F1
100
AcDbEntity
  8
UMCL1
  6
Continuous
100
AcDbVertex
100
AcDb2dVertex
 10
782.035849157953
 20
370.5838274943712
 30
0.0
  0
VERTEX
  5
77F7
330
77F1
100
AcDbEntity
  8
UMCL1
  6
Continuous
100
AcDbVertex
100
AcDb2dVertex
 10
779.7264480811945
 20
374.5838274943712
 30
0.0
  0
SEQEND
  5
77F8
330
77F1
100
AcDbEntity
  8
UMCL1
  6
Continuous
  0
LINE
  5
77F9
330
1E
100
AcDbEntity
  8
UMCL1
100
AcDbLine
 10
789.9170470044358
 20
363.0838274943712
 30
0.0
 11
784.9170470044358
 21
358.0838274943712
 31
0.0
  0
LINE
  5
77FA
330
1E
100
AcDbEntity
  8
UMCL1
  6
HIDDEN
 62
     2
100
AcDbLine
 10
838.4170470044363
 20
342.4402339549222
 30
0.0
 11
838.4170470044363
 21
321.5838274943712
 31
0.0
  0
CIRCLE
  5
77FB
330
1E
100
AcDbEntity
  8
UMCL1
  6
Continuous
100
AcDbCircle
 10
819.4170470044362
 20
328.5838274943712
 30
0.0
 40
12.0
  0
ARC
  5
77FC
330
1E
100
AcDbEntity
  8
UMCL1
  6
Continuous
 62
     2
100
AcDbCircle
 10
819.4170470044362
 20
328.5838274943712
 30
0.0
 40
7.2
100
AcDbArc
 50
69.11282536526009
 51
17.31224129214165
  0
CIRCLE
  5
77FD
330
1E
100
AcDbEntity
  8
UMCL1
  6
Continuous
100
AcDbCircle
 10
819.4170470044362
 20
328.5838274943712
 30
0.0
 40
8.0
  0
LINE
  5
77FE
330
1E
100
AcDbEntity
  8
CENTER
  6
CENTER
100
AcDbLine
 10
852.417047004436
 20
307.2155733722075
 30
0.0
 11
852.417047004436
 21
293.2093245270115
 31
0.0
  0
LINE
  5
77FF
330
1E
100
AcDbEntity
  8
UMCL1
  6
HIDDEN
 62
     2
100
AcDbLine
 10
846.9170470044359
 20
301.5838274943712
 30
0.0
 11
846.9170470044359
 21
295.583827494371
 31
0.0
  0
LINE
  5
7800
330
1E
100
AcDbEntity
  8
UMCL1
  6
HIDDEN
 62
     2
100
AcDbLine
 10
857.917047004436
 20
301.5838274943712
 30
0.0
 11
857.917047004436
 21
295.583827494371
 31
0.0
  0
LINE
  5
7801
330
1E
100
AcDbEntity
  8
UMCL1
100
AcDbLine
 10
864.9170470044364
 20
301.5838274943714
 30
0.0
 11
864.9170470044364
 21
295.5838274943712
 31
0.0
  0
LINE
  5
7802
330
1E
100
AcDbEntity
  8
UMCL1
100
AcDbLine
 10
678.4170470044363
 20
481.5838274943709
 30
0.0
 11
826.4170470044362
 21
481.5838274943709
 31
0.0
  0
LINE
  5
7803
330
1E
100
AcDbEntity
  8
UMCL1
100
AcDbLine
 10
719.9170470044358
 20
433.083827494371
 30
0.0
 11
784.9170470044358
 21
433.083827494371
 31
0.0
  0
ARC
  5
7804
330
1E
100
AcDbEntity
  8
UMCL1
  6
Continuous
 62
     2
100
AcDbCircle
 10
752.4170470044363
 20
395.5838274943713
 30
0.0
 40
10.44999999999999
100
AcDbArc
 50
71.17815801670637
 51
22.17985363634699
  0
CIRCLE
  5
7805
330
1E
100
AcDbEntity
  8
UMCL1
  6
Continuous
100
AcDbCircle
 10
752.4170470044363
 20
395.5838274943713
 30
0.0
 40
9.349999999999994
  0
ARC
  5
7806
330
1E
100
AcDbEntity
  8
UMCL1
  6
Continuous
100
AcDbCircle
 10
758.9170470044358
 20
529.021327494373
 30
0.0
 40
11.56249999999831
100
AcDbArc
 50
55.79454206188784
 51
124.2054579381121
  0
LINE
  5
7807
330
1E
100
AcDbEntity
  8
UMCL1
  6
Continuous
100
AcDbLine
 10
739.4170470044358
 20
540.5838274943712
 30
0.0
 11
765.4170470044358
 21
540.5838274943712
 31
0.0
  0
LINE
  5
7808
330
1E
100
AcDbEntity
  8
CENTER
  6
CENTER
100
AcDbLine
 10
661.4170470044363
 20
395.5838274943713
 30
0.0
 11
843.4170470044364
 21
395.5838274943713
 31
0.0
  0
CIRCLE
  5
7809
330
1E
100
AcDbEntity
  8
UMCL1
  6
Continuous
100
AcDbCircle
 10
752.4170470044363
 20
506.5838274943709
 30
0.0
 40
17.5
  0
LINE
  5
780A
330
1E
100
AcDbEntity
  8
UMCL1
  6
Continuous
100
AcDbLine
 10
767.4170470044359
 20
515.2440815322154
 30
0.0
 11
752.4170470044363
 21
523.9043355700598
 31
0.0
  0
LINE
  5
780B
330
1E
100
AcDbEntity
  8
UMCL1
  6
Continuous
100
AcDbLine
 10
752.4170470044363
 20
489.2633194186823
 30
0.0
 11
767.4170470044359
 21
497.9235734565265
 31
0.0
  0
LINE
  5
780C
330
1E
100
AcDbEntity
  8
CENTER
  6
CENTER
100
AcDbLine
 10
730.9170470044363
 20
506.5838274943709
 30
0.0
 11
773.9170470044358
 21
506.5838274943709
 31
0.0
  0
LINE
  5
780D
330
1E
100
AcDbEntity
  8
UMCL1
  6
Continuous
100
AcDbLine
 10
734.4170470044359
 20
531.5838274943709
 30
0.0
 11
770.4170470044362
 21
531.5838274943709
 31
0.0
  0
LINE
  5
780E
330
1E
100
AcDbEntity
  8
UMCL1
  6
Continuous
100
AcDbLine
 10
364.5245235466167
 20
808.3445944334107
 30
0.0
 11
364.5245235466167
 21
636.3445944334111
 31
0.0
  0
LINE
  5
780F
330
1E
100
AcDbEntity
  8
UMCL1
  6
Continuous
100
AcDbLine
 10
404.5245235466169
 20
847.3445944334107
 30
0.0
 11
404.5245235466166
 21
597.3445944334109
 31
0.0
  0
LINE
  5
7810
330
1E
100
AcDbEntity
  8
UMCL1
100
AcDbLine
 10
364.5245235466167
 20
636.3445944334111
 30
0.0
 11
404.5245235466166
 21
636.3445944334111
 31
0.0
  0
LINE
  5
7811
330
1E
100
AcDbEntity
  8
UMCL1
  6
HIDDEN
 62
     2
100
AcDbLine
 10
374.0245235466167
 20
636.3445944334111
 30
0.0
 11
374.7058246772964
 21
649.3445944334112
 31
0.0
  0
LINE
  5
7812
330
1E
100
AcDbEntity
  8
UMCL1
  6
HIDDEN
 62
     2
100
AcDbLine
 10
375.2745235466167
 20
636.3445944334111
 30
0.0
 11
375.9558246772963
 21
649.3445944334112
 31
0.0
  0
LINE
  5
7813
330
1E
100
AcDbEntity
  8
UMCL1
  6
HIDDEN
 62
     2
100
AcDbLine
 10
393.7745235466169
 20
636.3445944334111
 30
0.0
 11
393.0932224159373
 21
649.3445944334112
 31
0.0
  0
LINE
  5
7814
330
1E
100
AcDbEntity
  8
UMCL1
  6
HIDDEN
 62
     2
100
AcDbLine
 10
395.0245235466169
 20
636.3445944334111
 30
0.0
 11
394.3432224159374
 21
649.3445944334112
 31
0.0
  0
LINE
  5
7815
330
1E
100
AcDbEntity
  8
UMCL1
  6
Continuous
100
AcDbLine
 10
423.024523546617
 20
663.3445944334112
 30
0.0
 11
423.0245235466171
 21
647.3445944334112
 31
0.0
  0
LINE
  5
7816
330
1E
100
AcDbEntity
  8
UMCL1
  6
Continuous
100
AcDbLine
 10
424.524523546617
 20
661.8445944334112
 30
0.0
 11
424.5245235466171
 21
648.8445944334111
 31
0.0
  0
ARC
  5
7817
330
1E
100
AcDbEntity
  8
UMCL1
  6
Continuous
100
AcDbCircle
 10
404.7745235466135
 20
655.3445944334107
 30
0.0
 40
16.75000000000346
100
AcDbArc
 50
335.5673023205558
 51
24.43269767944418
  0
LINE
  5
7818
330
1E
100
AcDbEntity
  8
UMCL1
  6
Continuous
100
AcDbLine
 10
408.5245235466171
 20
669.2010008939619
 30
0.0
 11
408.5245235466171
 21
641.48818797286
 31
0.0
  0
LINE
  5
7819
330
1E
100
AcDbEntity
  8
UMCL1
  6
Continuous
100
AcDbLine
 10
421.524523546617
 20
667.2010008939619
 30
0.0
 11
421.5245235466171
 21
643.48818797286
 31
0.0
  0
LINE
  5
781A
330
1E
100
AcDbEntity
  8
UMCL1
  6
Continuous
100
AcDbLine
 10
420.024523546617
 20
648.4163912031354
 30
0.0
 11
408.5245235466171
 21
648.4163912031354
 31
0.0
  0
LINE
  5
781B
330
1E
100
AcDbEntity
  8
UMCL1
  6
Continuous
100
AcDbLine
 10
420.0245235466171
 20
641.48818797286
 30
0.0
 11
404.5245235466171
 21
641.48818797286
 31
0.0
  0
ARC
  5
781C
330
1E
100
AcDbEntity
  8
UMCL1
  6
Continuous
100
AcDbCircle
 10
416.7745235466171
 20
644.9522895879977
 30
0.0
 40
4.749999999999908
100
AcDbArc
 50
313.1735511072573
 51
46.8264488927427
  0
LINE
  5
781D
330
1E
100
AcDbEntity
  8
UMCL1
  6
Continuous
100
AcDbLine
 10
420.0245235466171
 20
641.48818797286
 30
0.0
 11
421.5245235466171
 21
643.48818797286
 31
0.0
  0
LINE
  5
781E
330
1E
100
AcDbEntity
  8
UMCL1
 62
     2
100
AcDbLine
 10
424.0245235466171
 20
648.3445944334111
 30
0.0
 11
421.5245235466171
 21
648.3445944334111
 31
0.0
  0
LINE
  5
781F
330
1E
100
AcDbEntity
  8
UMCL1
  6
Continuous
100
AcDbLine
 10
424.5245235466171
 20
648.8445944334111
 30
0.0
 11
423.0245235466171
 21
647.3445944334112
 31
0.0
  0
LINE
  5
7820
330
1E
100
AcDbEntity
  8
UMCL1
100
AcDbLine
 10
423.0245235466171
 20
647.3445944334112
 30
0.0
 11
421.5245235466171
 21
647.3445944334112
 31
0.0
  0
LINE
  5
7821
330
1E
100
AcDbEntity
  8
UMCL1
  6
Continuous
100
AcDbLine
 10
420.024523546617
 20
669.2010008939619
 30
0.0
 11
404.5245235466171
 21
669.2010008939619
 31
0.0
  0
LINE
  5
7822
330
1E
100
AcDbEntity
  8
UMCL1
  6
Continuous
100
AcDbLine
 10
420.024523546617
 20
662.2727976636865
 30
0.0
 11
408.5245235466171
 21
662.2727976636865
 31
0.0
  0
LINE
  5
7823
330
1E
100
AcDbEntity
  8
UMCL1
  6
Continuous
100
AcDbLine
 10
420.024523546617
 20
669.2010008939619
 30
0.0
 11
421.524523546617
 21
667.2010008939619
 31
0.0
  0
LINE
  5
7824
330
1E
100
AcDbEntity
  8
UMCL1
 62
     2
100
AcDbLine
 10
424.024523546617
 20
662.3445944334112
 30
0.0
 11
421.5245235466171
 21
662.3445944334112
 31
0.0
  0
LINE
  5
7825
330
1E
100
AcDbEntity
  8
UMCL1
  6
Continuous
100
AcDbLine
 10
423.024523546617
 20
663.3445944334112
 30
0.0
 11
424.524523546617
 21
661.8445944334112
 31
0.0
  0
LINE
  5
7826
330
1E
100
AcDbEntity
  8
UMCL1
100
AcDbLine
 10
423.024523546617
 20
663.3445944334112
 30
0.0
 11
421.5245235466171
 21
663.3445944334112
 31
0.0
  0
ARC
  5
7827
330
1E
100
AcDbEntity
  8
UMCL1
  6
Continuous
100
AcDbCircle
 10
416.7745235466171
 20
665.7368992788242
 30
0.0
 40
4.749999999999908
100
AcDbArc
 50
313.1735511072573
 51
46.82644889274389
  0
LINE
  5
7828
330
1E
100
AcDbEntity
  8
CENTER
  6
CENTER
100
AcDbLine
 10
722.4170470044363
 20
519.5838274943709
 30
0.0
 11
722.4170470044358
 21
481.5838274943709
 31
0.0
  0
LINE
  5
7829
330
1E
100
AcDbEntity
  8
UMCL1
  6
Continuous
100
AcDbLine
 10
734.4170470044359
 20
531.5838274943709
 30
0.0
 11
714.4170470044363
 21
511.583827494371
 31
0.0
  0
LINE
  5
782A
330
1E
100
AcDbEntity
  8
UMCL1
  6
Continuous
100
AcDbLine
 10
752.4170470044363
 20
523.9043355700598
 30
0.0
 11
737.4170470044362
 21
515.2440815322154
 31
0.0
  0
ARC
  5
782B
330
1E
100
AcDbEntity
  8
UMCL1
100
AcDbCircle
 10
678.4170470044363
 20
469.5838274943709
 30
0.0
 40
12.0
100
AcDbArc
 50
90.0
 51
180.0
  0
LINE
  5
782C
330
1E
100
AcDbEntity
  8
CENTER
  6
CENTER
100
AcDbLine
 10
666.4170470044362
 20
462.583827494371
 30
0.0
 11
704.4170470044363
 21
462.583827494371
 31
0.0
  0
LINE
  5
782D
330
1E
100
AcDbEntity
  8
CENTER
  6
CENTER
100
AcDbLine
 10
685.4170470044363
 20
481.5838274943709
 30
0.0
 11
685.4170470044363
 21
443.5838274943709
 31
0.0
  0
CIRCLE
  5
782E
330
1E
100
AcDbEntity
  8
UMCL1
  6
Continuous
100
AcDbCircle
 10
727.4170470044363
 20
420.5838274943712
 30
0.0
 40
7.0
  0
CIRCLE
  5
782F
330
1E
100
AcDbEntity
  8
UMCL1
  6
Continuous
100
AcDbCircle
 10
727.4170470044363
 20
420.5838274943712
 30
0.0
 40
8.0
  0
LINE
  5
7830
330
1E
100
AcDbEntity
  8
UMCL1
  6
HIDDEN
 62
     2
100
AcDbLine
 10
758.9133722896698
 20
419.7250320581129
 30
0.0
 11
758.4382970044361
 21
412.1238274943707
 31
0.0
  0
LINE
  5
7831
330
1E
100
AcDbEntity
  8
UMCL1
  6
HIDDEN
 62
     2
100
AcDbLine
 10
758.1257648306931
 20
419.9233127144857
 30
0.0
 11
757.5795470044361
 21
411.1838274943709
 31
0.0
  0
LINE
  5
7832
330
1E
100
AcDbEntity
  8
UMCL1
  6
HIDDEN
 62
     2
100
AcDbLine
 10
745.9207217192023
 20
419.7250320581129
 30
0.0
 11
746.3957970044361
 21
412.1238274943707
 31
0.0
  0
LINE
  5
7833
330
1E
100
AcDbEntity
  8
UMCL1
  6
HIDDEN
 62
     2
100
AcDbLine
 10
747.2545470044359
 20
411.1838274943709
 30
0.0
 11
746.708329178179
 21
419.9233127144857
 31
0.0
  0
LINE
  5
7834
330
1E
100
AcDbEntity
  8
CENTER
  6
CENTER
100
AcDbLine
 10
727.4170470044363
 20
431.0838274943709
 30
0.0
 11
727.4170470044363
 21
410.0838274943712
 31
0.0
  0
LINE
  5
7835
330
1E
100
AcDbEntity
  8
CENTER
  6
CENTER
100
AcDbLine
 10
716.9170470044363
 20
420.5838274943712
 30
0.0
 11
737.9170470044363
 21
420.5838274943712
 31
0.0
  0
LINE
  5
7836
330
1E
100
AcDbEntity
  8
UMCL1
100
AcDbLine
 10
719.9170470044358
 20
433.083827494371
 30
0.0
 11
714.9170470044358
 21
428.083827494371
 31
0.0
  0
POLYLINE
  5
7837
330
1E
100
AcDbEntity
  8
UMCL1
  6
Continuous
100
AcDb2dPolyline
 66
     1
 10
0.0
 20
0.0
 30
0.0
 70
     1
  0
VERTEX
  5
7838
330
7837
100
AcDbEntity
  8
UMCL1
  6
Continuous
100
AcDbVertex
100
AcDb2dVertex
 10
725.1076459276776
 20
424.5838274943712
 30
0.0
  0
VERTEX
  5
7839
330
7837
100
AcDbEntity
  8
UMCL1
  6
Continuous
100
AcDbVertex
100
AcDb2dVertex
 10
722.7982448509191
 20
420.5838274943712
 30
0.0
  0
VERTEX
  5
783A
330
7837
100
AcDbEntity
  8
UMCL1
  6
Continuous
100
AcDbVertex
100
AcDb2dVertex
 10
725.1076459276776
 20
416.5838274943712
 30
0.0
  0
VERTEX
  5
783B
330
7837
100
AcDbEntity
  8
UMCL1
  6
Continuous
100
AcDbVertex
100
AcDb2dVertex
 10
729.7264480811949
 20
416.5838274943712
 30
0.0
  0
VERTEX
  5
783C
330
7837
100
AcDbEntity
  8
UMCL1
  6
Continuous
100
AcDbVertex
100
AcDb2dVertex
 10
732.035849157953
 20
420.5838274943712
 30
0.0
  0
VERTEX
  5
783D
330
7837
100
AcDbEntity
  8
UMCL1
  6
Continuous
100
AcDbVertex
100
AcDb2dVertex
 10
729.7264480811949
 20
424.5838274943712
 30
0.0
  0
SEQEND
  5
783E
330
7837
100
AcDbEntity
  8
UMCL1
  6
Continuous
  0
CIRCLE
  5
783F
330
1E
100
AcDbEntity
  8
UMCL1
  6
Continuous
100
AcDbCircle
 10
685.4170470044363
 20
462.583827494371
 30
0.0
 40
8.0
  0
POLYLINE
  5
7840
330
1E
100
AcDbEntity
  8
UMCL1
  6
Continuous
100
AcDb2dPolyline
 66
     1
 10
0.0
 20
0.0
 30
0.0
 70
     1
  0
VERTEX
  5
7841
330
7840
100
AcDbEntity
  8
UMCL1
  6
Continuous
100
AcDbVertex
100
AcDb2dVertex
 10
678.4888437741605
 20
474.583827494371
 30
0.0
  0
VERTEX
  5
7842
330
7840
100
AcDbEntity
  8
UMCL1
  6
Continuous
100
AcDbVertex
100
AcDb2dVertex
 10
671.5606405438851
 20
462.583827494371
 30
0.0
  0
VERTEX
  5
7843
330
7840
100
AcDbEntity
  8
UMCL1
  6
Continuous
100
AcDbVertex
100
AcDb2dVertex
 10
678.4888437741605
 20
450.583827494371
 30
0.0
  0
VERTEX
  5
7844
330
7840
100
AcDbEntity
  8
UMCL1
  6
Continuous
100
AcDbVertex
100
AcDb2dVertex
 10
692.3452502347116
 20
450.583827494371
 30
0.0
  0
VERTEX
  5
7845
330
7840
100
AcDbEntity
  8
UMCL1
  6
Continuous
100
AcDbVertex
100
AcDb2dVertex
 10
699.273453464987
 20
462.583827494371
 30
0.0
  0
VERTEX
  5
7846
330
7840
100
AcDbEntity
  8
UMCL1
  6
Continuous
100
AcDbVertex
100
AcDb2dVertex
 10
692.3452502347116
 20
474.583827494371
 30
0.0
  0
SEQEND
  5
7847
330
7840
100
AcDbEntity
  8
UMCL1
  6
Continuous
  0
CIRCLE
  5
7848
330
1E
100
AcDbEntity
  8
UMCL1
  6
Continuous
100
AcDbCircle
 10
685.4170470044363
 20
462.583827494371
 30
0.0
 40
12.0
  0
ARC
  5
7849
330
1E
100
AcDbEntity
  8
UMCL1
  6
Continuous
 62
     2
100
AcDbCircle
 10
685.4170470044363
 20
462.583827494371
 30
0.0
 40
7.2
100
AcDbArc
 50
69.11282536526009
 51
17.31224129214165
  0
LINE
  5
784A
330
1E
100
AcDbEntity
  8
UMCL1
  6
Continuous
100
AcDbLine
 10
714.4170470044363
 20
511.583827494371
 30
0.0
 11
714.4170470044363
 21
481.5838274943709
 31
0.0
  0
LINE
  5
784B
330
1E
100
AcDbEntity
  8
UMCL1
  6
Continuous
100
AcDbLine
 10
737.4170470044362
 20
515.2440815322154
 30
0.0
 11
737.4170470044362
 21
497.9235734565265
 31
0.0
  0
LINE
  5
784C
330
1E
100
AcDbEntity
  8
UMCL1
  6
Continuous
100
AcDbLine
 10
737.4170470044362
 20
497.9235734565265
 30
0.0
 11
752.4170470044363
 21
489.2633194186823
 31
0.0
  0
LINE
  5
784D
330
1E
100
AcDbEntity
  8
UMCL1
  6
Continuous
100
AcDbLine
 10
752.4170470044363
 20
538.583827494371
 30
0.0
 11
752.4170470044363
 21
531.5838274943709
 31
0.0
  0
LINE
  5
784E
330
1E
100
AcDbEntity
  8
UMCL1
  6
Continuous
100
AcDbLine
 10
739.4170470044358
 20
540.5838274943712
 30
0.0
 11
739.4170470044363
 21
531.5838274943709
 31
0.0
  0
ARC
  5
784F
330
1E
100
AcDbEntity
  8
UMCL1
  6
Continuous
100
AcDbCircle
 10
745.9170470044362
 20
529.0213274943728
 30
0.0
 40
11.56249999999854
100
AcDbArc
 50
55.79454206188918
 51
124.2054579381108
  0
LINE
  5
7850
330
1E
100
AcDbEntity
  8
UMCL1
100
AcDbLine
 10
427.524523546617
 20
747.3445944334109
 30
0.0
 11
582.6558299979801
 21
747.3445944334112
 31
0.0
  0
LINE
  5
7851
330
1E
100
AcDbEntity
  8
UMCL1
100
AcDbLine
 10
427.524523546617
 20
697.3445944334109
 30
0.0
 11
582.6558299979803
 21
697.3445944334109
 31
0.0
  0
LINE
  5
7852
330
1E
100
AcDbEntity
  8
UMCL1
  6
Continuous
100
AcDbLine
 10
408.5245235466167
 20
739.844594433411
 30
0.0
 11
408.5245235466167
 21
704.8445944334109
 31
0.0
  0
LINE
  5
7853
330
1E
100
AcDbEntity
  8
UMCL1
  6
Continuous
100
AcDbLine
 10
417.5245235466174
 20
759.8445944334107
 30
0.0
 11
417.5245235466168
 21
684.8445944334112
 31
0.0
  0
LINE
  5
7854
330
1E
100
AcDbEntity
  8
UMCL1
  6
Continuous
100
AcDbLine
 10
404.5245235466166
 20
673.416075142511
 30
0.0
 11
364.5245235466167
 21
673.416075142511
 31
0.0
  0
LINE
  5
7855
330
1E
100
AcDbEntity
  8
UMCL1
  6
Continuous
100
AcDbLine
 10
364.5245235466167
 20
684.3445944334112
 30
0.0
 11
404.5245235466166
 21
684.3445944334112
 31
0.0
  0
LINE
  5
7856
330
1E
100
AcDbEntity
  8
UMCL1
  6
Continuous
100
AcDbLine
 10
364.5245235466167
 20
704.3445944334109
 30
0.0
 11
404.5245235466166
 21
704.3445944334109
 31
0.0
  0
CIRCLE
  5
7857
330
1E
100
AcDbEntity
  8
UMCL1
  6
Continuous
100
AcDbCircle
 10
384.5245235466167
 20
692.3445944334109
 30
0.0
 40
4.53810623556582
  0
CIRCLE
  5
7858
330
1E
100
AcDbEntity
  8
UMCL1
  6
Continuous
100
AcDbCircle
 10
384.5245235466167
 20
692.3445944334109
 30
0.0
 40
5.0
  0
LINE
  5
7859
330
1E
100
AcDbEntity
  8
CENTER
  6
CENTER
100
AcDbLine
 10
375.0245235466167
 20
692.3445944334109
 30
0.0
 11
394.0245235466167
 21
692.3445944334109
 31
0.0
  0
CIRCLE
  5
785A
330
1E
100
AcDbEntity
  8
UMCL1
  6
Continuous
100
AcDbCircle
 10
384.5245235466167
 20
692.3445944334109
 30
0.0
 40
5.5
  0
POLYLINE
  5
785B
330
1E
100
AcDbEntity
  8
UMCL1
  6
Continuous
100
AcDb2dPolyline
 66
     1
 10
0.0
 20
0.0
 30
0.0
 70
     1
  0
VERTEX
  5
785C
330
785B
100
AcDbEntity
  8
UMCL1
  6
Continuous
100
AcDbVertex
100
AcDb2dVertex
 10
383.0811478736426
 20
694.844594433411
 30
0.0
  0
VERTEX
  5
785D
330
785B
100
AcDbEntity
  8
UMCL1
  6
Continuous
100
AcDbVertex
100
AcDb2dVertex
 10
381.6377722006686
 20
692.3445944334109
 30
0.0
  0
VERTEX
  5
785E
330
785B
100
AcDbEntity
  8
UMCL1
  6
Continuous
100
AcDbVertex
100
AcDb2dVertex
 10
383.0811478736426
 20
689.844594433411
 30
0.0
  0
VERTEX
  5
785F
330
785B
100
AcDbEntity
  8
UMCL1
  6
Continuous
100
AcDbVertex
100
AcDb2dVertex
 10
385.9678992195908
 20
689.844594433411
 30
0.0
  0
VERTEX
  5
7860
330
785B
100
AcDbEntity
  8
UMCL1
  6
Continuous
100
AcDbVertex
100
AcDb2dVertex
 10
387.4112748925648
 20
692.3445944334109
 30
0.0
  0
VERTEX
  5
7861
330
785B
100
AcDbEntity
  8
UMCL1
  6
Continuous
100
AcDbVertex
100
AcDb2dVertex
 10
385.9678992195908
 20
694.844594433411
 30
0.0
  0
SEQEND
  5
7862
330
785B
100
AcDbEntity
  8
UMCL1
  6
Continuous
  0
LINE
  5
7863
330
1E
100
AcDbEntity
  8
UMCL1
  6
Continuous
100
AcDbLine
 10
427.5245235466169
 20
702.344594433411
 30
0.0
 11
426.5245235466169
 21
703.3445944334109
 31
0.0
  0
LINE
  5
7864
330
1E
100
AcDbEntity
  8
UMCL1
  6
Continuous
100
AcDbLine
 10
427.5245235466169
 20
692.3445944334109
 30
0.0
 11
426.5245235466169
 21
691.3445944334109
 31
0.0
  0
LINE
  5
7865
330
1E
100
AcDbEntity
  8
UMCL1
100
AcDbLine
 10
404.5245235466167
 20
684.8445944334112
 30
0.0
 11
417.5245235466168
 21
684.8445944334112
 31
0.0
  0
LINE
  5
7866
330
1E
100
AcDbEntity
  8
UMCL1
  6
Continuous
100
AcDbLine
 10
419.5245235466169
 20
697.3445944334109
 30
0.0
 11
419.5245235466169
 21
703.3445944334109
 31
0.0
  0
LINE
  5
7867
330
1E
100
AcDbEntity
  8
UMCL1
  6
Continuous
100
AcDbLine
 10
426.5245235466169
 20
697.3445944334112
 30
0.0
 11
426.5245235466169
 21
703.3445944334109
 31
0.0
  0
LINE
  5
7868
330
1E
100
AcDbEntity
  8
UMCL1
100
AcDbLine
 10
417.5245235466169
 20
703.3445944334109
 30
0.0
 11
426.5245235466169
 21
703.3445944334109
 31
0.0
  0
LINE
  5
7869
330
1E
100
AcDbEntity
  8
UMCL1
100
AcDbLine
 10
417.5245235466169
 20
691.3445944334109
 30
0.0
 11
426.5245235466169
 21
691.3445944334109
 31
0.0
  0
LINE
  5
786A
330
1E
100
AcDbEntity
  8
UMCL1
  6
Continuous
100
AcDbLine
 10
426.5245235466169
 20
697.3445944334109
 30
0.0
 11
426.5245235466169
 21
691.3445944334109
 31
0.0
  0
LINE
  5
786B
330
1E
100
AcDbEntity
  8
UMCL1
  6
Continuous
100
AcDbLine
 10
419.5245235466169
 20
697.3445944334109
 30
0.0
 11
419.5245235466169
 21
691.3445944334109
 31
0.0
  0
LINE
  5
786C
330
1E
100
AcDbEntity
  8
UMCL1
  6
Continuous
100
AcDbLine
 10
427.5245235466169
 20
697.3445944334112
 30
0.0
 11
427.5245235466169
 21
702.344594433411
 31
0.0
  0
LINE
  5
786D
330
1E
100
AcDbEntity
  8
UMCL1
  6
Continuous
100
AcDbLine
 10
427.5245235466169
 20
697.3445944334109
 30
0.0
 11
427.5245235466169
 21
692.3445944334109
 31
0.0
  0
ARC
  5
786E
330
1E
100
AcDbEntity
  8
UMCL1
  6
Continuous
100
AcDbCircle
 10
398.4620235466167
 20
714.844594433411
 30
0.0
 40
15.06250000000005
100
AcDbArc
 50
330.1371656437264
 51
29.8628343562736
  0
ARC
  5
786F
330
1E
100
AcDbEntity
  8
UMCL1
  6
Continuous
100
AcDbCircle
 10
387.3995235466167
 20
722.3445944334109
 30
0.0
 40
30.12500000000005
100
AcDbArc
 50
330.1371656437264
 51
29.8628343562736
  0
LINE
  5
7870
330
1E
100
AcDbEntity
  8
UMCL1
  6
Continuous
100
AcDbLine
 10
408.5245235466167
 20
707.344594433411
 30
0.0
 11
413.5245235466166
 21
707.344594433411
 31
0.0
  0
LINE
  5
7871
330
1E
100
AcDbEntity
  8
UMCL1
  6
Continuous
100
AcDbLine
 10
404.5245235466166
 20
704.8445944334109
 30
0.0
 11
408.5245235466167
 21
704.8445944334109
 31
0.0
  0
LINE
  5
7872
330
1E
100
AcDbEntity
  8
UMCL1
  6
Continuous
100
AcDbLine
 10
413.5245235466166
 20
737.3445944334109
 30
0.0
 11
408.5245235466167
 21
737.3445944334109
 31
0.0
  0
ARC
  5
7873
330
1E
100
AcDbEntity
  8
UMCL1
  6
Continuous
100
AcDbCircle
 10
398.4620235466165
 20
729.8445944334109
 30
0.0
 40
15.0625000000003
100
AcDbArc
 50
330.1371656437264
 51
29.8628343562736
  0
LINE
  5
7874
330
1E
100
AcDbEntity
  8
UMCL1
  6
Continuous
100
AcDbLine
 10
404.5245235466166
 20
771.273113724311
 30
0.0
 11
364.5245235466168
 21
771.273113724311
 31
0.0
  0
LINE
  5
7875
330
1E
100
AcDbEntity
  8
UMCL1
  6
Continuous
100
AcDbLine
 10
364.5245235466167
 20
740.344594433411
 30
0.0
 11
404.5245235466166
 21
740.344594433411
 31
0.0
  0
LINE
  5
7876
330
1E
100
AcDbEntity
  8
UMCL1
  6
Continuous
100
AcDbLine
 10
364.5245235466167
 20
760.3445944334107
 30
0.0
 11
404.5245235466166
 21
760.3445944334107
 31
0.0
  0
CIRCLE
  5
7877
330
1E
100
AcDbEntity
  8
UMCL1
  6
Continuous
100
AcDbCircle
 10
384.5245235466167
 20
752.3445944334107
 30
0.0
 40
4.53810623556582
  0
CIRCLE
  5
7878
330
1E
100
AcDbEntity
  8
UMCL1
  6
Continuous
100
AcDbCircle
 10
384.5245235466167
 20
752.3445944334107
 30
0.0
 40
5.0
  0
LINE
  5
7879
330
1E
100
AcDbEntity
  8
CENTER
  6
CENTER
100
AcDbLine
 10
375.0245235466167
 20
752.3445944334107
 30
0.0
 11
394.0245235466167
 21
752.3445944334107
 31
0.0
  0
CIRCLE
  5
787A
330
1E
100
AcDbEntity
  8
UMCL1
  6
Continuous
100
AcDbCircle
 10
384.5245235466167
 20
752.3445944334107
 30
0.0
 40
5.5
  0
POLYLINE
  5
787B
330
1E
100
AcDbEntity
  8
UMCL1
  6
Continuous
100
AcDb2dPolyline
 66
     1
 10
0.0
 20
0.0
 30
0.0
 70
     1
  0
VERTEX
  5
787C
330
787B
100
AcDbEntity
  8
UMCL1
  6
Continuous
100
AcDbVertex
100
AcDb2dVertex
 10
383.0811478736426
 20
754.8445944334107
 30
0.0
  0
VERTEX
  5
787D
330
787B
100
AcDbEntity
  8
UMCL1
  6
Continuous
100
AcDbVertex
100
AcDb2dVertex
 10
381.6377722006686
 20
752.3445944334107
 30
0.0
  0
VERTEX
  5
787E
330
787B
100
AcDbEntity
  8
UMCL1
  6
Continuous
100
AcDbVertex
100
AcDb2dVertex
 10
383.0811478736426
 20
749.8445944334108
 30
0.0
  0
VERTEX
  5
787F
330
787B
100
AcDbEntity
  8
UMCL1
  6
Continuous
100
AcDbVertex
100
AcDb2dVertex
 10
385.9678992195908
 20
749.8445944334108
 30
0.0
  0
VERTEX
  5
7880
330
787B
100
AcDbEntity
  8
UMCL1
  6
Continuous
100
AcDbVertex
100
AcDb2dVertex
 10
387.4112748925648
 20
752.3445944334107
 30
0.0
  0
VERTEX
  5
7881
330
787B
100
AcDbEntity
  8
UMCL1
  6
Continuous
100
AcDbVertex
100
AcDb2dVertex
 10
385.9678992195908
 20
754.8445944334107
 30
0.0
  0
SEQEND
  5
7882
330
787B
100
AcDbEntity
  8
UMCL1
  6
Continuous
  0
LINE
  5
7883
330
1E
100
AcDbEntity
  8
UMCL1
  6
Continuous
100
AcDbLine
 10
427.5245235466169
 20
742.3445944334109
 30
0.0
 11
426.5245235466169
 21
741.3445944334109
 31
0.0
  0
LINE
  5
7884
330
1E
100
AcDbEntity
  8
UMCL1
  6
Continuous
100
AcDbLine
 10
427.5245235466169
 20
752.3445944334107
 30
0.0
 11
426.5245235466169
 21
753.3445944334107
 31
0.0
  0
LINE
  5
7885
330
1E
100
AcDbEntity
  8
UMCL1
  6
Continuous
100
AcDbLine
 10
404.5245235466166
 20
739.844594433411
 30
0.0
 11
408.5245235466167
 21
739.844594433411
 31
0.0
  0
LINE
  5
7886
330
1E
100
AcDbEntity
  8
UMCL1
  6
Continuous
100
AcDbLine
 10
426.5245235466169
 20
747.3445944334109
 30
0.0
 11
426.5245235466169
 21
741.3445944334109
 31
0.0
  0
LINE
  5
7887
330
1E
100
AcDbEntity
  8
UMCL1
  6
Continuous
100
AcDbLine
 10
419.5245235466169
 20
747.3445944334109
 30
0.0
 11
419.5245235466169
 21
741.3445944334109
 31
0.0
  0
LINE
  5
7888
330
1E
100
AcDbEntity
  8
UMCL1
100
AcDbLine
 10
417.5245235466169
 20
741.3445944334109
 30
0.0
 11
426.5245235466169
 21
741.3445944334109
 31
0.0
  0
LINE
  5
7889
330
1E
100
AcDbEntity
  8
UMCL1
  6
Continuous
100
AcDbLine
 10
419.5245235466169
 20
747.3445944334109
 30
0.0
 11
419.5245235466169
 21
753.3445944334107
 31
0.0
  0
LINE
  5
788A
330
1E
100
AcDbEntity
  8
UMCL1
  6
Continuous
100
AcDbLine
 10
426.5245235466169
 20
747.3445944334109
 30
0.0
 11
426.5245235466169
 21
753.3445944334107
 31
0.0
  0
LINE
  5
788B
330
1E
100
AcDbEntity
  8
UMCL1
100
AcDbLine
 10
417.5245235466169
 20
753.3445944334107
 30
0.0
 11
426.5245235466169
 21
753.3445944334107
 31
0.0
  0
LINE
  5
788C
330
1E
100
AcDbEntity
  8
UMCL1
100
AcDbLine
 10
404.5245235466169
 20
759.8445944334107
 30
0.0
 11
417.5245235466168
 21
759.8445944334107
 31
0.0
  0
LINE
  5
788D
330
1E
100
AcDbEntity
  8
UMCL1
  6
Continuous
100
AcDbLine
 10
427.5245235466169
 20
747.3445944334109
 30
0.0
 11
427.5245235466169
 21
742.3445944334109
 31
0.0
  0
LINE
  5
788E
330
1E
100
AcDbEntity
  8
UMCL1
  6
Continuous
100
AcDbLine
 10
427.5245235466169
 20
747.3445944334109
 30
0.0
 11
427.5245235466169
 21
752.3445944334107
 31
0.0
  0
LINE
  5
788F
330
1E
100
AcDbEntity
  8
UMCL1
  6
Continuous
100
AcDbLine
 10
421.5245235466168
 20
801.2010008939617
 30
0.0
 11
421.5245235466169
 21
777.4881879728598
 31
0.0
  0
ARC
  5
7890
330
1E
100
AcDbEntity
  8
UMCL1
  6
Continuous
100
AcDbCircle
 10
404.7745235466132
 20
789.3445944334104
 30
0.0
 40
16.75000000000346
100
AcDbArc
 50
335.5673023205558
 51
24.43269767944418
  0
LINE
  5
7891
330
1E
100
AcDbEntity
  8
UMCL1
  6
Continuous
100
AcDbLine
 10
424.5245235466168
 20
795.8445944334108
 30
0.0
 11
424.5245235466169
 21
782.8445944334107
 31
0.0
  0
LINE
  5
7892
330
1E
100
AcDbEntity
  8
UMCL1
  6
Continuous
100
AcDbLine
 10
423.0245235466168
 20
797.3445944334107
 30
0.0
 11
423.0245235466169
 21
781.3445944334107
 31
0.0
  0
LINE
  5
7893
330
1E
100
AcDbEntity
  8
UMCL1
  6
Continuous
100
AcDbLine
 10
408.5245235466169
 20
803.2010008939616
 30
0.0
 11
408.5245235466169
 21
775.4881879728595
 31
0.0
  0
LINE
  5
7894
330
1E
100
AcDbEntity
  8
UMCL1
  6
Continuous
100
AcDbLine
 10
420.0245235466168
 20
782.4163912031349
 30
0.0
 11
408.5245235466169
 21
782.4163912031349
 31
0.0
  0
LINE
  5
7895
330
1E
100
AcDbEntity
  8
UMCL1
  6
Continuous
100
AcDbLine
 10
420.0245235466169
 20
775.4881879728598
 30
0.0
 11
404.5245235466169
 21
775.4881879728598
 31
0.0
  0
ARC
  5
7896
330
1E
100
AcDbEntity
  8
UMCL1
  6
Continuous
100
AcDbCircle
 10
416.7745235466169
 20
778.9522895879975
 30
0.0
 40
4.749999999999908
100
AcDbArc
 50
313.1735511072561
 51
46.8264488927427
  0
LINE
  5
7897
330
1E
100
AcDbEntity
  8
UMCL1
  6
Continuous
100
AcDbLine
 10
420.0245235466169
 20
775.4881879728598
 30
0.0
 11
421.5245235466169
 21
777.4881879728598
 31
0.0
  0
LINE
  5
7898
330
1E
100
AcDbEntity
  8
UMCL1
100
AcDbLine
 10
423.0245235466169
 20
781.3445944334107
 30
0.0
 11
421.5245235466169
 21
781.3445944334107
 31
0.0
  0
LINE
  5
7899
330
1E
100
AcDbEntity
  8
UMCL1
  6
Continuous
100
AcDbLine
 10
424.5245235466169
 20
782.8445944334107
 30
0.0
 11
423.0245235466169
 21
781.3445944334107
 31
0.0
  0
LINE
  5
789A
330
1E
100
AcDbEntity
  8
UMCL1
 62
     2
100
AcDbLine
 10
424.0245235466169
 20
782.3445944334107
 30
0.0
 11
421.5245235466169
 21
782.3445944334107
 31
0.0
  0
LINE
  5
789B
330
1E
100
AcDbEntity
  8
UMCL1
  6
Continuous
100
AcDbLine
 10
420.0245235466168
 20
803.2010008939616
 30
0.0
 11
404.5245235466169
 21
803.2010008939616
 31
0.0
  0
LINE
  5
789C
330
1E
100
AcDbEntity
  8
UMCL1
  6
Continuous
100
AcDbLine
 10
420.0245235466168
 20
796.2727976636863
 30
0.0
 11
408.5245235466169
 21
796.2727976636863
 31
0.0
  0
LINE
  5
789D
330
1E
100
AcDbEntity
  8
UMCL1
100
AcDbLine
 10
423.0245235466168
 20
797.3445944334107
 30
0.0
 11
421.5245235466169
 21
797.3445944334107
 31
0.0
  0
LINE
  5
789E
330
1E
100
AcDbEntity
  8
UMCL1
  6
Continuous
100
AcDbLine
 10
423.0245235466168
 20
797.3445944334107
 30
0.0
 11
424.5245235466168
 21
795.8445944334108
 31
0.0
  0
LINE
  5
789F
330
1E
100
AcDbEntity
  8
UMCL1
 62
     2
100
AcDbLine
 10
424.0245235466168
 20
796.3445944334107
 30
0.0
 11
421.5245235466169
 21
796.3445944334107
 31
0.0
  0
ARC
  5
78A0
330
1E
100
AcDbEntity
  8
UMCL1
  6
Continuous
100
AcDbCircle
 10
416.7745235466169
 20
799.7368992788239
 30
0.0
 40
4.749999999999908
100
AcDbArc
 50
313.1735511072573
 51
46.82644889274389
  0
LINE
  5
78A1
330
1E
100
AcDbEntity
  8
UMCL1
  6
Continuous
100
AcDbLine
 10
420.0245235466168
 20
803.2010008939616
 30
0.0
 11
421.5245235466168
 21
801.2010008939617
 31
0.0
  0
LINE
  5
78A2
330
1E
100
AcDbEntity
  8
UMCL1
100
AcDbLine
 10
364.5245235466168
 20
808.3445944334107
 30
0.0
 11
404.5245235466167
 21
808.3445944334107
 31
0.0
  0
LINE
  5
78A3
330
1E
100
AcDbEntity
  8
UMCL1
  6
Continuous
100
AcDbLine
 10
582.6558299979799
 20
747.3445944334112
 30
0.0
 11
582.6558299979796
 21
697.3445944334109
 31
0.0
  0
LINE
  5
78A4
330
1E
100
AcDbEntity
  8
UMCL1
  6
Continuous
100
AcDbLine
 10
589.5245235466168
 20
744.844594433411
 30
0.0
 11
589.5245235466165
 21
699.8445944334109
 31
0.0
  0
LINE
  5
78A5
330
1E
100
AcDbEntity
  8
UMCL1
  6
Continuous
100
AcDbLine
 10
589.5245235466168
 20
699.8445944334109
 30
0.0
 11
582.65582999798
 21
697.3445944334109
 31
0.0
  0
LINE
  5
78A6
330
1E
100
AcDbEntity
  8
CENTER
  6
CENTER
100
AcDbLine
 10
559.5245235466168
 20
733.3445944334109
 30
0.0
 11
559.5245235466168
 21
711.344594433411
 31
0.0
  0
ARC
  5
78A7
330
1E
100
AcDbEntity
  8
UMCL1
  6
Continuous
 62
     2
100
AcDbCircle
 10
559.5245235466168
 20
722.3445944334109
 30
0.0
 40
6.549999999999954
100
AcDbArc
 50
68.70722695994671
 51
19.0858399291771
  0
CIRCLE
  5
78A8
330
1E
100
AcDbEntity
  8
UMCL1
  6
Continuous
100
AcDbCircle
 10
559.5245235466168
 20
722.3445944334109
 30
0.0
 40
5.75
  0
LINE
  5
78A9
330
1E
100
AcDbEntity
  8
UMCL1
  6
HIDDEN
 62
     2
100
AcDbLine
 10
589.5245235466168
 20
712.994594433411
 30
0.0
 11
576.8245235466167
 21
713.7883444334111
 31
0.0
  0
LINE
  5
78AA
330
1E
100
AcDbEntity
  8
UMCL1
  6
HIDDEN
 62
     2
100
AcDbLine
 10
589.5245235466168
 20
711.8945944334111
 30
0.0
 11
578.0945235466169
 21
712.6089694334109
 31
0.0
  0
LINE
  5
78AB
330
1E
100
AcDbEntity
  8
UMCL1
  6
HIDDEN
 62
     2
100
AcDbLine
 10
576.8245235466167
 20
730.9008444334111
 30
0.0
 11
589.5245235466168
 21
731.694594433411
 31
0.0
  0
LINE
  5
78AC
330
1E
100
AcDbEntity
  8
UMCL1
  6
HIDDEN
 62
     2
100
AcDbLine
 10
589.5245235466168
 20
732.794594433411
 30
0.0
 11
578.0945235466169
 21
732.080219433411
 31
0.0
  0
LINE
  5
78AD
330
1E
100
AcDbEntity
  8
UMCL1
  6
Continuous
100
AcDbLine
 10
589.5245235466168
 20
744.8445944334111
 30
0.0
 11
582.65582999798
 21
747.3445944334112
 31
0.0
  0
LINE
  5
78AE
330
1E
100
AcDbEntity
  8
CENTER
  6
CENTER
100
AcDbLine
 10
782.4170470044358
 20
519.5838274943712
 30
0.0
 11
782.4170470044358
 21
481.5838274943709
 31
0.0
  0
LINE
  5
78AF
330
1E
100
AcDbEntity
  8
UMCL1
  6
Continuous
100
AcDbLine
 10
770.4170470044362
 20
531.5838274943709
 30
0.0
 11
790.4170470044363
 21
511.583827494371
 31
0.0
  0
LINE
  5
78B0
330
1E
100
AcDbEntity
  8
CENTER
  6
CENTER
100
AcDbLine
 10
819.4170470044362
 20
481.5838274943709
 30
0.0
 11
819.4170470044362
 21
443.5838274943709
 31
0.0
  0
CIRCLE
  5
78B1
330
1E
100
AcDbEntity
  8
UMCL1
  6
Continuous
100
AcDbCircle
 10
777.4170470044358
 20
420.5838274943712
 30
0.0
 40
8.0
  0
CIRCLE
  5
78B2
330
1E
100
AcDbEntity
  8
UMCL1
  6
Continuous
100
AcDbCircle
 10
777.4170470044358
 20
420.5838274943712
 30
0.0
 40
7.0
  0
LINE
  5
78B3
330
1E
100
AcDbEntity
  8
CENTER
  6
CENTER
100
AcDbLine
 10
777.4170470044358
 20
431.0838274943712
 30
0.0
 11
777.4170470044363
 21
410.0838274943712
 31
0.0
  0
LINE
  5
78B4
330
1E
100
AcDbEntity
  8
CENTER
  6
CENTER
100
AcDbLine
 10
766.9170470044363
 20
420.5838274943712
 30
0.0
 11
787.9170470044363
 21
420.5838274943712
 31
0.0
  0
POLYLINE
  5
78B5
330
1E
100
AcDbEntity
  8
UMCL1
  6
Continuous
100
AcDb2dPolyline
 66
     1
 10
0.0
 20
0.0
 30
0.0
 70
     1
  0
VERTEX
  5
78B6
330
78B5
100
AcDbEntity
  8
UMCL1
  6
Continuous
100
AcDbVertex
100
AcDb2dVertex
 10
775.1076459276772
 20
424.5838274943712
 30
0.0
  0
VERTEX
  5
78B7
330
78B5
100
AcDbEntity
  8
UMCL1
  6
Continuous
100
AcDbVertex
100
AcDb2dVertex
 10
772.7982448509191
 20
420.5838274943712
 30
0.0
  0
VERTEX
  5
78B8
330
78B5
100
AcDbEntity
  8
UMCL1
  6
Continuous
100
AcDbVertex
100
AcDb2dVertex
 10
775.1076459276772
 20
416.5838274943712
 30
0.0
  0
VERTEX
  5
78B9
330
78B5
100
AcDbEntity
  8
UMCL1
  6
Continuous
100
AcDbVertex
100
AcDb2dVertex
 10
779.7264480811945
 20
416.5838274943712
 30
0.0
  0
VERTEX
  5
78BA
330
78B5
100
AcDbEntity
  8
UMCL1
  6
Continuous
100
AcDbVertex
100
AcDb2dVertex
 10
782.035849157953
 20
420.5838274943712
 30
0.0
  0
VERTEX
  5
78BB
330
78B5
100
AcDbEntity
  8
UMCL1
  6
Continuous
100
AcDbVertex
100
AcDb2dVertex
 10
779.7264480811945
 20
424.5838274943712
 30
0.0
  0
SEQEND
  5
78BC
330
78B5
100
AcDbEntity
  8
UMCL1
  6
Continuous
  0
LINE
  5
78BD
330
1E
100
AcDbEntity
  8
UMCL1
100
AcDbLine
 10
784.9170470044358
 20
433.083827494371
 30
0.0
 11
789.9170470044358
 21
428.083827494371
 31
0.0
  0
LINE
  5
78BE
330
1E
100
AcDbEntity
  8
CENTER
  6
CENTER
100
AcDbLine
 10
800.4170470044362
 20
462.583827494371
 30
0.0
 11
838.4170470044363
 21
462.583827494371
 31
0.0
  0
POLYLINE
  5
78BF
330
1E
100
AcDbEntity
  8
UMCL1
  6
Continuous
100
AcDb2dPolyline
 66
     1
 10
0.0
 20
0.0
 30
0.0
 70
     1
  0
VERTEX
  5
78C0
330
78BF
100
AcDbEntity
  8
UMCL1
  6
Continuous
100
AcDbVertex
100
AcDb2dVertex
 10
812.4888437741603
 20
474.583827494371
 30
0.0
  0
VERTEX
  5
78C1
330
78BF
100
AcDbEntity
  8
UMCL1
  6
Continuous
100
AcDbVertex
100
AcDb2dVertex
 10
805.5606405438851
 20
462.583827494371
 30
0.0
  0
VERTEX
  5
78C2
330
78BF
100
AcDbEntity
  8
UMCL1
  6
Continuous
100
AcDbVertex
100
AcDb2dVertex
 10
812.4888437741603
 20
450.583827494371
 30
0.0
  0
VERTEX
  5
78C3
330
78BF
100
AcDbEntity
  8
UMCL1
  6
Continuous
100
AcDbVertex
100
AcDb2dVertex
 10
826.3452502347115
 20
450.583827494371
 30
0.0
  0
VERTEX
  5
78C4
330
78BF
100
AcDbEntity
  8
UMCL1
  6
Continuous
100
AcDbVertex
100
AcDb2dVertex
 10
833.2734534649869
 20
462.583827494371
 30
0.0
  0
VERTEX
  5
78C5
330
78BF
100
AcDbEntity
  8
UMCL1
  6
Continuous
100
AcDbVertex
100
AcDb2dVertex
 10
826.3452502347115
 20
474.583827494371
 30
0.0
  0
SEQEND
  5
78C6
330
78BF
100
AcDbEntity
  8
UMCL1
  6
Continuous
  0
LINE
  5
78C7
330
1E
100
AcDbEntity
  8
UMCL1
  6
Continuous
100
AcDbLine
 10
790.4170470044363
 20
511.583827494371
 30
0.0
 11
790.4170470044363
 21
481.5838274943709
 31
0.0
  0
LINE
  5
78C8
330
1E
100
AcDbEntity
  8
UMCL1
  6
Continuous
100
AcDbLine
 10
767.4170470044359
 20
497.9235734565265
 30
0.0
 11
767.4170470044359
 21
515.2440815322154
 31
0.0
  0
ARC
  5
78C9
330
1E
100
AcDbEntity
  8
UMCL1
100
AcDbCircle
 10
826.4170470044362
 20
469.5838274943709
 30
0.0
 40
12.0
100
AcDbArc
 50
0.0
 51
90.0
  0
CIRCLE
  5
78CA
330
1E
100
AcDbEntity
  8
UMCL1
  6
Continuous
100
AcDbCircle
 10
819.4170470044362
 20
462.583827494371
 30
0.0
 40
12.0
  0
ARC
  5
78CB
330
1E
100
AcDbEntity
  8
UMCL1
  6
Continuous
 62
     2
100
AcDbCircle
 10
819.4170470044362
 20
462.583827494371
 30
0.0
 40
7.2
100
AcDbArc
 50
69.11282536526009
 51
17.31224129214165
  0
CIRCLE
  5
78CC
330
1E
100
AcDbEntity
  8
UMCL1
  6
Continuous
100
AcDbCircle
 10
819.4170470044362
 20
462.583827494371
 30
0.0
 40
8.0
  0
LINE
  5
78CD
330
1E
100
AcDbEntity
  8
UMCL1
  6
Continuous
100
AcDbLine
 10
765.4170470044358
 20
531.5838274943709
 30
0.0
 11
765.4170470044358
 21
540.5838274943712
 31
0.0
  0
LINE
  5
78CE
330
1E
100
AcDbEntity
  8
UMCL1
100
AcDbLine
 10
360.5245235466166
 20
295.5838274943712
 30
0.0
 11
410.5245235466167
 21
295.5838274943712
 31
0.0
  0
LINE
  5
78CF
330
1E
100
AcDbEntity
  8
CENTER
  6
CENTER
100
AcDbLine
 10
384.5245235466167
 20
316.6825957820163
 30
0.0
 11
384.5245235466167
 21
291.2979803974008
 31
0.0
  0
LINE
  5
78D0
330
1E
100
AcDbEntity
  8
UMCL1
  6
HIDDEN
 62
     2
100
AcDbLine
 10
379.0245235466167
 20
301.5838274943712
 30
0.0
 11
379.0245235466167
 21
295.583827494371
 31
0.0
  0
LINE
  5
78D1
330
1E
100
AcDbEntity
  8
UMCL1
  6
HIDDEN
 62
     2
100
AcDbLine
 10
390.0245235466167
 20
301.5838274943712
 30
0.0
 11
390.0245235466167
 21
295.583827494371
 31
0.0
  0
LINE
  5
78D2
330
1E
100
AcDbEntity
  8
UMCL1
  6
Continuous
100
AcDbLine
 10
410.5245235466167
 20
342.4402339549222
 30
0.0
 11
410.5245235466167
 21
295.5838274943712
 31
0.0
  0
LINE
  5
78D3
330
1E
100
AcDbEntity
  8
UMCL1
100
AcDbLine
 10
365.0245235466167
 20
301.5838274943712
 30
0.0
 11
398.0245235466167
 21
301.5838274943712
 31
0.0
  0
LINE
  5
78D4
330
1E
100
AcDbEntity
  8
UMCL1
  6
Continuous
100
AcDbLine
 10
360.5245235466167
 20
297.0838274943712
 30
0.0
 11
360.5245235466167
 21
295.5838274943712
 31
0.0
  0
ARC
  5
78D5
330
1E
100
AcDbEntity
  8
UMCL1
100
AcDbCircle
 10
398.0245235466167
 20
308.0838274943712
 30
0.0
 40
6.5
100
AcDbArc
 50
270.0
 51
0.0
  0
ARC
  5
78D6
330
1E
100
AcDbEntity
  8
UMCL1
100
AcDbCircle
 10
365.0245235466167
 20
297.0838274943712
 30
0.0
 40
4.5
100
AcDbArc
 50
90.0
 51
180.0
  0
LINE
  5
78D7
330
1E
100
AcDbEntity
  8
CENTER
  6
CENTER
100
AcDbLine
 10
100.5245235466168
 20
316.6825957820163
 30
0.0
 11
100.5245235466168
 21
293.5671600500582
 31
0.0
  0
ARC
  5
78D8
330
1E
100
AcDbEntity
  8
UMCL1
100
AcDbCircle
 10
87.02452354661682
 20
308.0838274943712
 30
0.0
 40
6.5
100
AcDbArc
 50
180.0
 51
270.0
  0
LINE
  5
78D9
330
1E
100
AcDbEntity
  8
UMCL1
100
AcDbLine
 10
124.5245235466168
 20
295.5838274943712
 30
0.0
 11
74.52452354661682
 21
295.5838274943712
 31
0.0
  0
LINE
  5
78DA
330
1E
100
AcDbEntity
  8
UMCL1
100
AcDbLine
 10
120.0245235466168
 20
301.5838274943712
 30
0.0
 11
87.02452354661682
 21
301.5838274943712
 31
0.0
  0
ARC
  5
78DB
330
1E
100
AcDbEntity
  8
UMCL1
100
AcDbCircle
 10
120.0245235466168
 20
297.0838274943712
 30
0.0
 40
4.5
100
AcDbArc
 50
0.0
 51
90.0
  0
LINE
  5
78DC
330
1E
100
AcDbEntity
  8
UMCL1
  6
Continuous
100
AcDbLine
 10
124.5245235466168
 20
297.0838274943712
 30
0.0
 11
124.5245235466168
 21
295.5838274943712
 31
0.0
  0
LINE
  5
78DD
330
1E
100
AcDbEntity
  8
UMCL1
  6
HIDDEN
 62
     2
100
AcDbLine
 10
106.0245235466168
 20
301.5838274943712
 30
0.0
 11
106.0245235466168
 21
295.583827494371
 31
0.0
  0
LINE
  5
78DE
330
1E
100
AcDbEntity
  8
UMCL1
  6
HIDDEN
 62
     2
100
AcDbLine
 10
95.02452354661683
 20
301.5838274943712
 30
0.0
 11
95.02452354661683
 21
295.583827494371
 31
0.0
  0
LINE
  5
78DF
330
1E
100
AcDbEntity
  8
UMCL1
  6
Continuous
100
AcDbLine
 10
74.52452354661682
 20
342.4402339549222
 30
0.0
 11
74.52452354661682
 21
295.5838274943712
 31
0.0
  0
ARC
  5
78E0
330
1E
100
AcDbEntity
  8
UMCL1
100
AcDbCircle
 10
76.02452354661659
 20
341.0838274943712
 30
0.0
 40
4.5
100
AcDbArc
 50
0.0
 51
17.54313139446926
  0
LINE
  5
78E1
330
1E
100
AcDbEntity
  8
UMCL1
100
AcDbLine
 10
-204.1888574903369
 20
345.5838274943712
 30
0.0
 11
-29.99568117902345
 21
345.5838274943712
 31
0.0
  0
LINE
  5
78E2
330
1E
100
AcDbEntity
  8
UMCL1
  6
HIDDEN
 62
     2
100
AcDbLine
 10
-203.0922693346802
 20
345.5838274943712
 30
0.0
 11
-203.0922693346802
 21
321.5838274943712
 31
0.0
  0
ARC
  5
78E3
330
1E
100
AcDbEntity
  8
UMCL1
  6
HIDDEN
 62
     2
100
AcDbCircle
 10
-191.0922693346801
 20
321.5838274943712
 30
0.0
 40
12.0
100
AcDbArc
 50
180.0
 51
270.0
  0
LINE
  5
78E4
330
1E
100
AcDbEntity
  8
UMCL1
  6
HIDDEN
 62
     2
100
AcDbLine
 10
-191.0922693346801
 20
309.5838274943712
 30
0.0
 11
-43.09226933468017
 21
309.5838274943712
 31
0.0
  0
ARC
  5
78E5
330
1E
100
AcDbEntity
  8
UMCL1
  6
HIDDEN
 62
     2
100
AcDbCircle
 10
-43.09226933468017
 20
321.5838274943712
 30
0.0
 40
12.0
100
AcDbArc
 50
270.0
 51
0.0
  0
LINE
  5
78E6
330
1E
100
AcDbEntity
  8
UMCL1
  6
HIDDEN
 62
     2
100
AcDbLine
 10
-31.09226933468017
 20
345.5838274943712
 30
0.0
 11
-31.09226933468017
 21
321.5838274943712
 31
0.0
  0
LINE
  5
78E7
330
1E
100
AcDbEntity
  8
UMCL1
100
AcDbLine
 10
-229.5922693346802
 20
295.5838274943712
 30
0.0
 11
-4.592269334680167
 21
295.583827494371
 31
0.0
  0
LINE
  5
78E8
330
1E
100
AcDbEntity
  8
UMCL1
  6
HIDDEN
 62
     2
100
AcDbLine
 10
-229.5922693346802
 20
301.5838274943712
 30
0.0
 11
-4.592269334680167
 21
301.5838274943712
 31
0.0
  0
LINE
  5
78E9
330
1E
100
AcDbEntity
  8
UMCL1
  6
Continuous
100
AcDbLine
 10
420.0245235466168
 20
476.4402339549222
 30
0.0
 11
404.5245235466169
 21
476.4402339549222
 31
0.0
  0
LINE
  5
78EA
330
1E
100
AcDbEntity
  8
UMCL1
  6
Continuous
100
AcDbLine
 10
420.0245235466169
 20
448.72742103382
 30
0.0
 11
404.5245235466169
 21
448.72742103382
 31
0.0
  0
ARC
  5
78EB
330
1E
100
AcDbEntity
  8
UMCL1
  6
Continuous
100
AcDbCircle
 10
404.7745235466132
 20
462.5838274943707
 30
0.0
 40
16.75000000000346
100
AcDbArc
 50
335.5673023205558
 51
24.43269767944418
  0
LINE
  5
78EC
330
1E
100
AcDbEntity
  8
UMCL1
  6
Continuous
100
AcDbLine
 10
424.5245235466168
 20
469.0838274943709
 30
0.0
 11
424.5245235466169
 21
456.0838274943709
 31
0.0
  0
LINE
  5
78ED
330
1E
100
AcDbEntity
  8
UMCL1
  6
Continuous
100
AcDbLine
 10
423.0245235466168
 20
470.583827494371
 30
0.0
 11
423.0245235466169
 21
454.5838274943712
 31
0.0
  0
LINE
  5
78EE
330
1E
100
AcDbEntity
  8
UMCL1
  6
Continuous
100
AcDbLine
 10
421.5245235466168
 20
474.4402339549221
 30
0.0
 11
421.5245235466169
 21
450.72742103382
 31
0.0
  0
LINE
  5
78EF
330
1E
100
AcDbEntity
  8
UMCL1
  6
Continuous
100
AcDbLine
 10
408.5245235466169
 20
476.4402339549219
 30
0.0
 11
408.5245235466169
 21
448.72742103382
 31
0.0
  0
LINE
  5
78F0
330
1E
100
AcDbEntity
  8
UMCL1
100
AcDbLine
 10
423.0245235466169
 20
454.583827494371
 30
0.0
 11
421.5245235466169
 21
454.583827494371
 31
0.0
  0
LINE
  5
78F1
330
1E
100
AcDbEntity
  8
UMCL1
 62
     2
100
AcDbLine
 10
424.0245235466169
 20
455.583827494371
 30
0.0
 11
421.5245235466169
 21
455.583827494371
 31
0.0
  0
LINE
  5
78F2
330
1E
100
AcDbEntity
  8
UMCL1
  6
Continuous
100
AcDbLine
 10
424.5245235466169
 20
456.0838274943709
 30
0.0
 11
423.0245235466169
 21
454.583827494371
 31
0.0
  0
LINE
  5
78F3
330
1E
100
AcDbEntity
  8
UMCL1
  6
Continuous
100
AcDbLine
 10
420.0245235466168
 20
455.6556242640952
 30
0.0
 11
408.5245235466169
 21
455.6556242640954
 31
0.0
  0
LINE
  5
78F4
330
1E
100
AcDbEntity
  8
UMCL1
  6
Continuous
100
AcDbLine
 10
420.0245235466169
 20
448.72742103382
 30
0.0
 11
421.5245235466169
 21
450.72742103382
 31
0.0
  0
ARC
  5
78F5
330
1E
100
AcDbEntity
  8
UMCL1
  6
Continuous
100
AcDbCircle
 10
416.7745235466169
 20
452.1915226489577
 30
0.0
 40
4.749999999999908
100
AcDbArc
 50
313.1735511072573
 51
46.8264488927427
  0
LINE
  5
78F6
330
1E
100
AcDbEntity
  8
UMCL1
100
AcDbLine
 10
423.0245235466168
 20
470.583827494371
 30
0.0
 11
421.5245235466169
 21
470.583827494371
 31
0.0
  0
LINE
  5
78F7
330
1E
100
AcDbEntity
  8
UMCL1
 62
     2
100
AcDbLine
 10
424.0245235466168
 20
469.5838274943709
 30
0.0
 11
421.5245235466169
 21
469.5838274943709
 31
0.0
  0
LINE
  5
78F8
330
1E
100
AcDbEntity
  8
UMCL1
  6
Continuous
100
AcDbLine
 10
423.0245235466168
 20
470.583827494371
 30
0.0
 11
424.5245235466168
 21
469.0838274943709
 31
0.0
  0
LINE
  5
78F9
330
1E
100
AcDbEntity
  8
UMCL1
  6
Continuous
100
AcDbLine
 10
420.0245235466168
 20
469.5120307246465
 30
0.0
 11
408.5245235466169
 21
469.5120307246465
 31
0.0
  0
LINE
  5
78FA
330
1E
100
AcDbEntity
  8
UMCL1
  6
Continuous
100
AcDbLine
 10
420.0245235466168
 20
476.4402339549222
 30
0.0
 11
421.5245235466168
 21
474.4402339549221
 31
0.0
  0
ARC
  5
78FB
330
1E
100
AcDbEntity
  8
UMCL1
  6
Continuous
100
AcDbCircle
 10
416.7745235466169
 20
472.9761323397842
 30
0.0
 40
4.749999999999908
100
AcDbArc
 50
313.1735511072573
 51
46.8264488927427
  0
LINE
  5
78FC
330
1E
100
AcDbEntity
  8
UMCL2
100
AcDbLine
 10
852.417047004436
 20
291.6347988707746
 30
0.0
 11
852.417047004436
 21
286.0420007083906
 31
0.0
  0
LINE
  5
78FD
330
1E
100
AcDbEntity
  8
UMCL2
100
AcDbLine
 10
864.9170470044364
 20
293.2405103564954
 30
0.0
 11
864.9170470044364
 21
278.0976789215015
 31
0.0
  0
LINE
  5
78FE
330
1E
100
AcDbEntity
  8
UMCL2
100
AcDbLine
 10
100.5245235466168
 20
292.0712108776349
 30
0.0
 11
100.5245235466168
 21
285.9822661586702
 31
0.0
  0
TEXT
  5
78FF
330
1E
100
AcDbEntity
  8
UMCL2
100
AcDbText
 10
238.603094975188
 20
289.0838274943712
 30
0.0
 40
3.0
  1
284
 41
0.9
 51
15.0
  7
ROMANS
 72
     1
 11
242.5245235466166
 21
290.5838274943712
 31
0.0
100
AcDbText
 73
     2
  0
LINE
  5
7900
330
1E
100
AcDbEntity
  8
UMCL2
100
AcDbLine
 10
74.52452354661682
 20
271.5838274943712
 30
0.0
 11
410.5245235466168
 21
271.5838274943712
 31
0.0
  0
TEXT
  5
7901
330
1E
100
AcDbEntity
  8
UMCL2
100
AcDbText
 10
238.6673806894737
 20
273.0838274943713
 30
0.0
 40
3.0
  1
336
 41
0.9
 51
15.0
  7
ROMANS
 72
     1
 11
242.5245235466166
 21
274.5838274943712
 31
0.0
100
AcDbText
 73
     2
  0
LINE
  5
7902
330
1E
100
AcDbEntity
  8
UMCL2
100
AcDbLine
 10
55.52452354661636
 20
317.0838274943712
 30
0.0
 11
55.52452354661636
 21
262.0236103760324
 31
0.0
  0
LINE
  5
7903
330
1E
100
AcDbEntity
  8
UMCL2
100
AcDbLine
 10
55.52452354661636
 20
263.583827494371
 30
0.0
 11
429.524523546617
 21
263.583827494371
 31
0.0
  0
TEXT
  5
7904
330
1E
100
AcDbEntity
  8
UMCL2
100
AcDbText
 10
238.603094975188
 20
265.083827494371
 30
0.0
 40
3.0
  1
374
 41
0.9
 51
15.0
  7
ROMANS
 72
     1
 11
242.5245235466166
 21
266.583827494371
 31
0.0
100
AcDbText
 73
     2
  0
LINE
  5
7905
330
1E
100
AcDbEntity
  8
UMCL2
100
AcDbLine
 10
410.5245235466165
 20
279.5838274943712
 30
0.0
 11
360.5245235466166
 21
279.5838274943712
 31
0.0
  0
TEXT
  5
7906
330
1E
100
AcDbEntity
  8
UMCL2
100
AcDbText
 10
382.4929260373636
 20
281.0838274943712
 30
0.0
 40
3.0
  1
50
 41
0.9
 51
15.0
  7
ROMANS
 72
     1
 11
385.0643546087922
 21
282.5838274943712
 31
0.0
100
AcDbText
 73
     2
  0
LINE
  5
7907
330
1E
100
AcDbEntity
  8
UMCL2
100
AcDbLine
 10
124.5245235466168
 20
294.2586119849457
 30
0.0
 11
124.5245235466168
 21
288.6916371312937
 31
0.0
  0
LINE
  5
7908
330
1E
100
AcDbEntity
  8
UMCL2
100
AcDbLine
 10
74.52452354661682
 20
279.5838274943712
 30
0.0
 11
124.5245235466168
 21
279.5838274943712
 31
0.0
  0
SOLID
  5
7909
330
1E
100
AcDbEntity
  8
UMCL2
100
AcDbTrace
 10
77.52452354661682
 20
280.0838274943712
 30
0.0
 11
77.52452354661682
 21
279.0838274943713
 31
0.0
 12
74.52452354661682
 22
279.5838274943712
 32
0.0
 13
74.52452354661682
 23
279.5838274943712
 33
0.0
  0
TEXT
  5
790A
330
1E
100
AcDbEntity
  8
UMCL2
100
AcDbText
 10
96.70763407803121
 20
281.0838274943712
 30
0.0
 40
3.0
  1
50
 41
0.9
 51
15.0
  7
ROMANS
 72
     1
 11
99.27906264945978
 21
282.5838274943712
 31
0.0
100
AcDbText
 73
     2
  0
TEXT
  5
790B
330
1E
100
AcDbEntity
  8
UMCL2
100
AcDbText
 10
84.21830172620763
 20
289.0838274943712
 30
0.0
 40
3.0
  1
26
 41
0.9
 51
15.0
  7
ROMANS
 72
     1
 11
86.7897302976362
 21
290.5838274943712
 31
0.0
100
AcDbText
 73
     2
  0
TEXT
  5
790C
330
1E
100
AcDbEntity
  8
UMCL2
100
AcDbText
 10
394.2183017262074
 20
289.0838274943712
 30
0.0
 40
3.0
  1
26
 41
0.9
 51
15.0
  7
ROMANS
 72
     1
 11
396.789730297636
 21
290.5838274943712
 31
0.0
100
AcDbText
 73
     2
  0
LINE
  5
790D
330
1E
100
AcDbEntity
  8
UMCL2
100
AcDbLine
 10
124.5245235466168
 20
286.1846082682964
 30
0.0
 11
124.5245235466168
 21
277.7782002464324
 31
0.0
  0
LINE
  5
790E
330
1E
100
AcDbEntity
  8
UMCL2
100
AcDbLine
 10
685.4170470044363
 20
486.583827494371
 30
0.0
 11
685.4170470044363
 21
549.615950347442
 31
0.0
  0
LINE
  5
790F
330
1E
100
AcDbEntity
  8
UMCL2
100
AcDbLine
 10
819.4170470044362
 20
486.583827494371
 30
0.0
 11
819.4170470044362
 21
549.8494189015159
 31
0.0
  0
LINE
  5
7910
330
1E
100
AcDbEntity
  8
UMCL2
100
AcDbLine
 10
666.4170470044362
 20
474.583827494371
 30
0.0
 11
666.4170470044362
 21
557.7137976975495
 31
0.0
  0
LINE
  5
7911
330
1E
100
AcDbEntity
  8
UMCL2
100
AcDbLine
 10
838.4170470044363
 20
474.583827494371
 30
0.0
 11
838.4170470044363
 21
557.9242358899139
 31
0.0
  0
POLYLINE
  5
7912
330
1E
100
AcDbEntity
  8
UMCL2
100
AcDb2dPolyline
 66
     1
 10
0.0
 20
0.0
 30
0.0
 70
     1
  0
VERTEX
  5
7913
330
7912
100
AcDbEntity
  8
UMCL2
100
AcDbVertex
100
AcDb2dVertex
 10
746.7094579206515
 20
560.5651529997333
 30
0.0
  0
VERTEX
  5
7914
330
7912
100
AcDbEntity
  8
UMCL2
100
AcDbVertex
100
AcDb2dVertex
 10
746.7094579206515
 20
558.1630019624437
 30
0.0
  0
VERTEX
  5
7915
330
7912
100
AcDbEntity
  8
UMCL2
100
AcDbVertex
100
AcDb2dVertex
 10
749.545909043968
 20
558.1630019624437
 30
0.0
  0
VERTEX
  5
7916
330
7912
100
AcDbEntity
  8
UMCL2
100
AcDbVertex
100
AcDb2dVertex
 10
749.545909043968
 20
560.5651529997333
 30
0.0
  0
SEQEND
  5
7917
330
7912
100
AcDbEntity
  8
UMCL2
  0
LINE
  5
7918
330
1E
100
AcDbEntity
  8
UMCL2
100
AcDbLine
 10
80.52452354661681
 20
533.9124330320328
 30
0.0
 11
80.52452354661681
 21
550.3822451243982
 31
0.0
  0
LINE
  5
7919
330
1E
100
AcDbEntity
  8
UMCL2
100
AcDbLine
 10
404.5245235466166
 20
533.6741034089603
 30
0.0
 11
404.5245235466167
 21
550.6075609759623
 31
0.0
  0
LINE
  5
791A
330
1E
100
AcDbEntity
  8
UMCL2
100
AcDbLine
 10
589.5245235466168
 20
420.565264392444
 30
0.0
 11
589.5245235466167
 21
550.2024178017324
 31
0.0
  0
SOLID
  5
791B
330
1E
100
AcDbEntity
  8
UMCL2
100
AcDbTrace
 10
591.5937919181308
 20
397.8127573736299
 30
0.0
 11
590.7590433966678
 21
398.3633887438907
 31
0.0
 12
589.5245235466169
 22
395.5838274943715
 32
0.0
 13
589.5245235466169
 23
395.5838274943715
 33
0.0
  0
LINE
  5
791C
330
1E
100
AcDbEntity
  8
UMCL2
100
AcDbLine
 10
589.5245235466167
 20
395.5838274943713
 30
0.0
 11
618.9035678894698
 21
440.1219979505472
 31
0.0
  0
SOLID
  5
791D
330
1E
100
AcDbEntity
  8
UMCL2
100
AcDbTrace
 10
558.0986524634905
 20
423.271541207576
 30
0.0
 11
557.3039044896885
 21
422.6646016239786
 31
0.0
 12
559.5220972273822
 22
420.5838274943714
 32
0.0
 13
559.5220972273822
 23
420.5838274943714
 33
0.0
  0
LINE
  5
791E
330
1E
100
AcDbEntity
  8
UMCL2
100
AcDbLine
 10
559.5220972273826
 20
420.5838274943712
 30
0.0
 11
544.6010286222008
 21
440.1219979505469
 31
0.0
  0
LINE
  5
791F
330
1E
100
AcDbEntity
  8
UMCL2
100
AcDbLine
 10
867.3463387405368
 20
295.5838274943711
 30
0.0
 11
882.4551234898635
 21
295.5838274943711
 31
0.0
  0
LINE
  5
7920
330
1E
100
AcDbEntity
  8
UMCL2
100
AcDbLine
 10
848.4170470044364
 20
395.5838274943713
 30
0.0
 11
874.2327318627317
 21
395.5838274943715
 31
0.0
  0
LINE
  5
7921
330
1E
100
AcDbEntity
  8
UMCL2
100
AcDbLine
 10
872.9170470044364
 20
295.583827494371
 30
0.0
 11
872.9170470044364
 21
395.5838274943715
 31
0.0
  0
SOLID
  5
7922
330
1E
100
AcDbEntity
  8
UMCL2
100
AcDbTrace
 10
872.4170470044365
 20
298.5838274943715
 30
0.0
 11
873.4170470044364
 21
298.5838274943715
 31
0.0
 12
872.9170470044364
 22
295.5838274943715
 32
0.0
 13
872.9170470044364
 23
295.5838274943715
 33
0.0
  0
SOLID
  5
7923
330
1E
100
AcDbEntity
  8
UMCL2
100
AcDbTrace
 10
872.4170470044365
 20
392.583827494371
 30
0.0
 11
873.4170470044364
 21
392.583827494371
 31
0.0
 12
872.9170470044364
 22
395.583827494371
 32
0.0
 13
872.9170470044364
 23
395.583827494371
 33
0.0
  0
TEXT
  5
7924
330
1E
100
AcDbEntity
  8
UMCL2
100
AcDbText
 10
871.4170470044363
 20
341.533827494371
 30
0.0
 40
3.0
  1
100
 50
90.0
 41
0.9
 51
15.0
  7
ROMANS
 72
     1
 11
869.9170470044364
 21
345.583827494371
 31
0.0
100
AcDbText
 73
     2
  0
LINE
  5
7925
330
1E
100
AcDbEntity
  8
UMCL2
100
AcDbLine
 10
766.1332364216508
 20
540.5838274943715
 30
0.0
 11
883.9996236716347
 21
540.5838274943715
 31
0.0
  0
LINE
  5
7926
330
1E
100
AcDbEntity
  8
UMCL2
100
AcDbLine
 10
880.9170470044364
 20
295.583827494371
 30
0.0
 11
880.9170470044364
 21
540.5838274943715
 31
0.0
  0
SOLID
  5
7927
330
1E
100
AcDbEntity
  8
UMCL2
100
AcDbTrace
 10
880.396213671103
 20
298.7088274943715
 30
0.0
 11
881.4378803377699
 21
298.7088274943715
 31
0.0
 12
880.9170470044364
 22
295.5838274943715
 32
0.0
 13
880.9170470044364
 23
295.5838274943715
 33
0.0
  0
SOLID
  5
7928
330
1E
100
AcDbEntity
  8
UMCL2
100
AcDbTrace
 10
880.4170470044365
 20
537.5838274943714
 30
0.0
 11
881.4170470044359
 21
537.5838274943714
 31
0.0
 12
880.917047004436
 22
540.5838274943715
 32
0.0
 13
880.917047004436
 23
540.5838274943715
 33
0.0
  0
TEXT
  5
7929
330
1E
100
AcDbEntity
  8
UMCL2
100
AcDbText
 10
879.4170470044363
 20
414.2266846372284
 30
0.0
 40
3.0
  1
245
 50
90.0
 41
0.9
 51
15.0
  7
ROMANS
 72
     1
 11
877.9170470044364
 21
418.0838274943712
 31
0.0
100
AcDbText
 73
     2
  0
LINE
  5
792A
330
1E
100
AcDbEntity
  8
UMCL2
100
AcDbLine
 10
-147.0922693346802
 20
524.5838274943712
 30
0.0
 11
-147.0922693346799
 21
549.37009899303
 31
0.0
  0
LINE
  5
792B
330
1E
100
AcDbEntity
  8
UMCL2
100
AcDbLine
 10
-87.09226933468016
 20
524.5838274943712
 30
0.0
 11
-87.09226933467993
 21
549.352384379385
 31
0.0
  0
LINE
  5
792C
330
1E
100
AcDbEntity
  8
UMCL2
100
AcDbLine
 10
-147.0922693346799
 20
548.5838274943712
 30
0.0
 11
-87.09226933467993
 21
548.5838274943712
 31
0.0
  0
TEXT
  5
792D
330
1E
100
AcDbEntity
  8
UMCL2
100
AcDbText
 10
-119.7279836203942
 20
550.0838274943712
 30
0.0
 40
3.0
  1
60
 41
0.9
 51
15.0
  7
ROMANS
 72
     1
 11
-117.0922693346799
 21
551.5838274943712
 31
0.0
100
AcDbText
 73
     2
  0
LINE
  5
792E
330
1E
100
AcDbEntity
  8
UMCL2
100
AcDbLine
 10
-155.0922693346801
 20
513.9475132633783
 30
0.0
 11
-155.0922693346797
 21
557.5706593007957
 31
0.0
  0
LINE
  5
792F
330
1E
100
AcDbEntity
  8
UMCL2
100
AcDbLine
 10
-79.09226933468016
 20
513.8292417845447
 30
0.0
 11
-79.09226933467971
 21
557.7537899365336
 31
0.0
  0
LINE
  5
7930
330
1E
100
AcDbEntity
  8
UMCL2
100
AcDbLine
 10
-155.0922693346797
 20
556.5838274943712
 30
0.0
 11
-79.09226933467971
 21
556.5838274943714
 31
0.0
  0
TEXT
  5
7931
330
1E
100
AcDbEntity
  8
UMCL2
100
AcDbText
 10
-119.6636979061083
 20
558.0838274943712
 30
0.0
 40
3.0
  1
76
 41
0.9
 51
15.0
  7
ROMANS
 72
     1
 11
-117.0922693346797
 21
559.5838274943712
 31
0.0
100
AcDbText
 73
     2
  0
LINE
  5
7932
330
1E
100
AcDbEntity
  8
UMCL1
100
AcDbLine
 10
124.5245235466166
 20
847.3445944334107
 30
0.0
 11
74.52452354661659
 21
847.3445944334107
 31
0.0
  0
LINE
  5
7933
330
1E
100
AcDbEntity
  8
UMCL1
100
AcDbLine
 10
124.524523546617
 20
597.3445944334112
 30
0.0
 11
74.52452354661682
 21
597.3445944334112
 31
0.0
  0
LINE
  5
7934
330
1E
100
AcDbEntity
  8
UMCL1
100
AcDbLine
 10
360.5245235466169
 20
847.3445944334109
 30
0.0
 11
410.5245235466169
 21
847.3445944334107
 31
0.0
  0
LINE
  5
7935
330
1E
100
AcDbEntity
  8
UMCL1
100
AcDbLine
 10
360.5245235466166
 20
597.3445944334109
 30
0.0
 11
410.5245235466167
 21
597.3445944334112
 31
0.0
  0
LINE
  5
7936
330
1E
100
AcDbEntity
  8
UMCL1
  6
Continuous
100
AcDbLine
 10
410.5245235466169
 20
847.3445944334107
 30
0.0
 11
410.5245235466168
 21
803.2010008939616
 31
0.0
  0
LINE
  5
7937
330
1E
100
AcDbEntity
  8
CENTER
  6
CENTER
100
AcDbLine
 10
384.5245235466168
 20
845.3445944334108
 30
0.0
 11
384.5245235466168
 21
819.3445944334108
 31
0.0
  0
LINE
  5
7938
330
1E
100
AcDbEntity
  8
UMCL1
  6
Continuous
100
AcDbLine
 10
360.5245235466169
 20
847.3445944334109
 30
0.0
 11
360.5245235466169
 21
802.3445944334108
 31
0.0
  0
LINE
  5
7939
330
1E
100
AcDbEntity
  8
CENTER
  6
CENTER
100
AcDbLine
 10
371.524523546617
 20
832.3445944334107
 30
0.0
 11
397.5245235466169
 21
832.3445944334107
 31
0.0
  0
CIRCLE
  5
793A
330
1E
100
AcDbEntity
  8
UMCL1
100
AcDbCircle
 10
384.5245235466169
 20
832.3445944334107
 30
0.0
 40
5.5
  0
LINE
  5
793B
330
1E
100
AcDbEntity
  8
UMCL1
  6
Continuous
100
AcDbLine
 10
360.5245235466167
 20
642.3445944334112
 30
0.0
 11
360.5245235466166
 21
597.3445944334109
 31
0.0
  0
LINE
  5
793C
330
1E
100
AcDbEntity
  8
CENTER
  6
CENTER
100
AcDbLine
 10
371.524523546617
 20
612.3445944334112
 30
0.0
 11
397.5245235466169
 21
612.3445944334112
 31
0.0
  0
LINE
  5
793D
330
1E
100
AcDbEntity
  8
CENTER
  6
CENTER
100
AcDbLine
 10
384.5245235466168
 20
599.3445944334112
 30
0.0
 11
384.5245235466168
 21
625.3445944334112
 31
0.0
  0
CIRCLE
  5
793E
330
1E
100
AcDbEntity
  8
UMCL1
100
AcDbCircle
 10
384.5245235466169
 20
612.3445944334112
 30
0.0
 40
5.5
  0
LINE
  5
793F
330
1E
100
AcDbEntity
  8
UMCL1
  6
Continuous
100
AcDbLine
 10
410.5245235466168
 20
775.4881879728598
 30
0.0
 11
410.5245235466168
 21
759.8445944334107
 31
0.0
  0
LINE
  5
7940
330
1E
100
AcDbEntity
  8
UMCL1
  6
Continuous
100
AcDbLine
 10
410.5245235466167
 20
684.8445944334112
 30
0.0
 11
410.5245235466167
 21
669.2010008939619
 31
0.0
  0
LINE
  5
7941
330
1E
100
AcDbEntity
  8
UMCL1
  6
Continuous
100
AcDbLine
 10
410.5245235466167
 20
641.48818797286
 30
0.0
 11
410.5245235466167
 21
597.3445944334112
 31
0.0
  0
LINE
  5
7942
330
1E
100
AcDbEntity
  8
UMCL1
  6
Continuous
100
AcDbLine
 10
124.5245235466166
 20
847.3445944334109
 30
0.0
 11
124.5245235466166
 21
802.3445944334108
 31
0.0
  0
LINE
  5
7943
330
1E
100
AcDbEntity
  8
CENTER
  6
CENTER
100
AcDbLine
 10
100.5245235466168
 20
845.3445944334108
 30
0.0
 11
100.5245235466168
 21
819.3445944334108
 31
0.0
  0
CIRCLE
  5
7944
330
1E
100
AcDbEntity
  8
UMCL1
100
AcDbCircle
 10
100.5245235466166
 20
832.3445944334107
 30
0.0
 40
5.5
  0
LINE
  5
7945
330
1E
100
AcDbEntity
  8
UMCL1
  6
Continuous
100
AcDbLine
 10
80.52452354661658
 20
847.3445944334107
 30
0.0
 11
80.52452354661705
 21
597.3445944334109
 31
0.0
  0
LINE
  5
7946
330
1E
100
AcDbEntity
  8
UMCL1
  6
Continuous
100
AcDbLine
 10
74.52452354661659
 20
847.3445944334107
 30
0.0
 11
74.52452354661682
 21
803.2010008939616
 31
0.0
  0
LINE
  5
7947
330
1E
100
AcDbEntity
  8
UMCL1
  6
Continuous
100
AcDbLine
 10
74.52452354661682
 20
775.4881879728598
 30
0.0
 11
74.52452354661682
 21
759.8445944334107
 31
0.0
  0
LINE
  5
7948
330
1E
100
AcDbEntity
  8
UMCL1
  6
Continuous
100
AcDbLine
 10
74.52452354661682
 20
684.8445944334112
 30
0.0
 11
74.52452354661682
 21
669.2010008939619
 31
0.0
  0
LINE
  5
7949
330
1E
100
AcDbEntity
  8
UMCL1
  6
Continuous
100
AcDbLine
 10
74.52452354661682
 20
641.48818797286
 30
0.0
 11
74.52452354661682
 21
597.3445944334112
 31
0.0
  0
LINE
  5
794A
330
1E
100
AcDbEntity
  8
CENTER
  6
CENTER
100
AcDbLine
 10
100.5245235466168
 20
599.3445944334112
 30
0.0
 11
100.5245235466168
 21
625.3445944334112
 31
0.0
  0
CIRCLE
  5
794B
330
1E
100
AcDbEntity
  8
UMCL1
100
AcDbCircle
 10
100.5245235466166
 20
612.3445944334112
 30
0.0
 40
5.5
  0
LINE
  5
794C
330
1E
100
AcDbEntity
  8
CENTER
  6
CENTER
100
AcDbLine
 10
113.5245235466166
 20
612.3445944334112
 30
0.0
 11
87.52452354661659
 21
612.3445944334112
 31
0.0
  0
LINE
  5
794D
330
1E
100
AcDbEntity
  8
UMCL1
  6
Continuous
100
AcDbLine
 10
124.5245235466168
 20
642.3445944334112
 30
0.0
 11
124.524523546617
 21
597.3445944334109
 31
0.0
  0
LINE
  5
794E
330
1E
100
AcDbEntity
  8
CENTER
  6
CENTER
100
AcDbLine
 10
88.09647180861498
 20
832.3445944334107
 30
0.0
 11
114.0964718086149
 21
832.3445944334107
 31
0.0
  0
LINE
  5
794F
330
1E
100
AcDbEntity
  8
UMCL2
100
AcDbLine
 10
461.6945890883386
 20
337.012751280404
 30
0.0
 11
442.2640588091673
 21
337.012751280404
 31
0.0
  0
LINE
  5
7950
330
1E
100
AcDbEntity
  8
UMCL2
100
AcDbLine
 10
426.6579738806581
 20
601.280137184043
 30
0.0
 11
441.0480444849241
 21
601.280137184043
 31
0.0
  0
LINE
  5
7951
330
1E
100
AcDbEntity
  8
UMCL1
100
AcDbLine
 10
639.9170470044363
 20
301.5838274943712
 30
0.0
 11
663.5055042725561
 21
342.4402339549222
 31
0.0
  0
LINE
  5
7952
330
1E
100
AcDbEntity
  8
UMCL1
100
AcDbLine
 10
864.9170470044364
 20
301.5838274943712
 30
0.0
 11
841.3285897363167
 21
342.4402339549222
 31
0.0
  0
LINE
  5
7953
330
1E
100
AcDbEntity
  8
UMCL1
100
AcDbLine
 10
-229.5922693346802
 20
301.5838274943714
 30
0.0
 11
-204.1888574903369
 21
345.5838274943712
 31
0.0
  0
LINE
  5
7954
330
1E
100
AcDbEntity
  8
UMCL1
100
AcDbLine
 10
-4.592269334680167
 20
301.5838274943714
 30
0.0
 11
-29.99568117902345
 21
345.5838274943712
 31
0.0
  0
LINE
  5
7955
330
1E
100
AcDbEntity
  8
UMCL1
100
AcDbLine
 10
-229.5922693346802
 20
301.5838274943714
 30
0.0
 11
-229.5922693346802
 21
295.5838274943712
 31
0.0
  0
LINE
  5
7956
330
1E
100
AcDbEntity
  8
CENTER
  6
CENTER
100
AcDbLine
 10
-217.0922693346802
 20
316.6825957820165
 30
0.0
 11
-217.0922693346802
 21
291.297980397401
 31
0.0
  0
LINE
  5
7957
330
1E
100
AcDbEntity
  8
UMCL1
  6
HIDDEN
 62
     2
100
AcDbLine
 10
-211.5922693346802
 20
301.5838274943712
 30
0.0
 11
-211.5922693346802
 21
295.5838274943712
 31
0.0
  0
LINE
  5
7958
330
1E
100
AcDbEntity
  8
UMCL1
  6
HIDDEN
 62
     2
100
AcDbLine
 10
-222.5922693346802
 20
301.5838274943712
 30
0.0
 11
-222.5922693346802
 21
295.5838274943712
 31
0.0
  0
LINE
  5
7959
330
1E
100
AcDbEntity
  8
UMCL1
  6
HIDDEN
 62
     2
100
AcDbLine
 10
-22.59226933468062
 20
301.5838274943712
 30
0.0
 11
-22.59226933468062
 21
295.5838274943712
 31
0.0
  0
LINE
  5
795A
330
1E
100
AcDbEntity
  8
CENTER
  6
CENTER
100
AcDbLine
 10
-17.09226933468062
 20
316.6825957820165
 30
0.0
 11
-17.09226933468062
 21
291.297980397401
 31
0.0
  0
LINE
  5
795B
330
1E
100
AcDbEntity
  8
UMCL1
  6
HIDDEN
 62
     2
100
AcDbLine
 10
-11.59226933468062
 20
301.5838274943712
 30
0.0
 11
-11.59226933468062
 21
295.5838274943712
 31
0.0
  0
LINE
  5
795C
330
1E
100
AcDbEntity
  8
UMCL1
100
AcDbLine
 10
-4.592269334680167
 20
301.5838274943714
 30
0.0
 11
-4.592269334680167
 21
295.5838274943712
 31
0.0
  0
LINE
  5
795D
330
1E
100
AcDbEntity
  8
UMCL1
  6
Continuous
100
AcDbLine
 10
841.3285897363167
 20
342.4402339549222
 30
0.0
 11
663.5055042725561
 21
342.4402339549222
 31
0.0
  0
LINE
  5
795E
330
1E
100
AcDbEntity
  8
UMCL1
  6
Continuous
100
AcDbLine
 10
425.024523546617
 20
342.4402339549222
 30
0.0
 11
404.7338171346424
 21
342.4402339549222
 31
0.0
  0
LINE
  5
795F
330
1E
100
AcDbEntity
  8
UMCL1
  6
Continuous
100
AcDbLine
 10
413.5245235466171
 20
342.440233954922
 30
0.0
 11
413.5245235466171
 21
314.72742103382
 31
0.0
  0
LINE
  5
7960
330
1E
100
AcDbEntity
  8
UMCL1
  6
Continuous
100
AcDbLine
 10
426.524523546617
 20
340.4402339549222
 30
0.0
 11
426.5245235466172
 21
316.7274210338201
 31
0.0
  0
ARC
  5
7961
330
1E
100
AcDbEntity
  8
UMCL1
  6
Continuous
100
AcDbCircle
 10
409.7745235466135
 20
328.5838274943708
 30
0.0
 40
16.75000000000346
100
AcDbArc
 50
335.5673023205558
 51
24.43269767944418
  0
LINE
  5
7962
330
1E
100
AcDbEntity
  8
UMCL1
  6
Continuous
100
AcDbLine
 10
429.524523546617
 20
335.0838274943712
 30
0.0
 11
429.5245235466171
 21
322.0838274943712
 31
0.0
  0
LINE
  5
7963
330
1E
100
AcDbEntity
  8
UMCL1
  6
Continuous
100
AcDbLine
 10
428.024523546617
 20
336.5838274943712
 30
0.0
 11
428.0245235466171
 21
320.5838274943712
 31
0.0
  0
LINE
  5
7964
330
1E
100
AcDbEntity
  8
UMCL1
  6
Continuous
100
AcDbLine
 10
425.0245235466171
 20
314.72742103382
 30
0.0
 11
410.5245235466171
 21
314.72742103382
 31
0.0
  0
LINE
  5
7965
330
1E
100
AcDbEntity
  8
UMCL1
  6
Continuous
100
AcDbLine
 10
425.024523546617
 20
321.6556242640954
 30
0.0
 11
413.5245235466171
 21
321.6556242640954
 31
0.0
  0
ARC
  5
7966
330
1E
100
AcDbEntity
  8
UMCL1
  6
Continuous
100
AcDbCircle
 10
421.7745235466171
 20
318.1915226489577
 30
0.0
 40
4.749999999999908
100
AcDbArc
 50
313.1735511072573
 51
46.82644889274389
  0
LINE
  5
7967
330
1E
100
AcDbEntity
  8
UMCL1
  6
Continuous
100
AcDbLine
 10
425.0245235466171
 20
314.72742103382
 30
0.0
 11
426.5245235466172
 21
316.7274210338201
 31
0.0
  0
LINE
  5
7968
330
1E
100
AcDbEntity
  8
UMCL1
100
AcDbLine
 10
428.0245235466171
 20
320.5838274943712
 30
0.0
 11
426.5245235466172
 21
320.5838274943712
 31
0.0
  0
LINE
  5
7969
330
1E
100
AcDbEntity
  8
UMCL1
 62
     2
100
AcDbLine
 10
429.0245235466171
 20
321.5838274943712
 30
0.0
 11
426.5245235466172
 21
321.5838274943712
 31
0.0
  0
LINE
  5
796A
330
1E
100
AcDbEntity
  8
UMCL1
  6
Continuous
100
AcDbLine
 10
429.5245235466171
 20
322.0838274943712
 30
0.0
 11
428.0245235466171
 21
320.5838274943712
 31
0.0
  0
LINE
  5
796B
330
1E
100
AcDbEntity
  8
UMCL1
  6
Continuous
100
AcDbLine
 10
425.024523546617
 20
335.5120307246466
 30
0.0
 11
413.5245235466171
 21
335.5120307246466
 31
0.0
  0
LINE
  5
796C
330
1E
100
AcDbEntity
  8
UMCL1
  6
Continuous
100
AcDbLine
 10
425.024523546617
 20
342.4402339549222
 30
0.0
 11
426.524523546617
 21
340.4402339549222
 31
0.0
  0
ARC
  5
796D
330
1E
100
AcDbEntity
  8
UMCL1
  6
Continuous
100
AcDbCircle
 10
421.7745235466171
 20
338.9761323397843
 30
0.0
 40
4.749999999999908
100
AcDbArc
 50
313.1735511072573
 51
46.82644889274389
  0
LINE
  5
796E
330
1E
100
AcDbEntity
  8
UMCL1
100
AcDbLine
 10
428.024523546617
 20
336.5838274943712
 30
0.0
 11
426.5245235466172
 21
336.5838274943712
 31
0.0
  0
LINE
  5
796F
330
1E
100
AcDbEntity
  8
UMCL1
 62
     2
100
AcDbLine
 10
429.024523546617
 20
335.5838274943713
 30
0.0
 11
426.5245235466172
 21
335.5838274943713
 31
0.0
  0
LINE
  5
7970
330
1E
100
AcDbEntity
  8
UMCL1
  6
Continuous
100
AcDbLine
 10
428.024523546617
 20
336.5838274943712
 30
0.0
 11
429.524523546617
 21
335.0838274943712
 31
0.0
  0
ARC
  5
7971
330
1E
100
AcDbEntity
  8
UMCL1
100
AcDbCircle
 10
409.0245235466168
 20
341.0838274943712
 30
0.0
 40
4.5
100
AcDbArc
 50
162.4568686055307
 51
180.0
  0
LINE
  5
7972
330
1E
100
AcDbEntity
  8
UMCL2
100
AcDbLine
 10
74.52452354661682
 20
294.4312427637385
 30
0.0
 11
74.52452354661682
 21
269.4384333871221
 31
0.0
  0
SOLID
  5
7973
330
1E
100
AcDbEntity
  8
UMCL2
100
AcDbTrace
 10
77.52452354661773
 20
272.0838274943712
 30
0.0
 11
77.52452354661773
 21
271.0838274943712
 31
0.0
 12
74.5245235466175
 22
271.5838274943712
 32
0.0
 13
74.5245235466175
 23
271.5838274943712
 33
0.0
  0
SOLID
  5
7974
330
1E
100
AcDbEntity
  8
UMCL2
100
AcDbTrace
 10
58.52452354661727
 20
264.083827494371
 30
0.0
 11
58.52452354661727
 21
263.083827494371
 31
0.0
 12
55.52452354661705
 22
263.583827494371
 32
0.0
 13
55.52452354661705
 23
263.583827494371
 33
0.0
  0
SOLID
  5
7975
330
1E
100
AcDbEntity
  8
UMCL2
100
AcDbTrace
 10
77.52452354661773
 20
288.0838274943712
 30
0.0
 11
77.52452354661773
 21
287.0838274943712
 31
0.0
 12
74.52452354661772
 22
287.5838274943713
 32
0.0
 13
74.52452354661772
 23
287.5838274943713
 33
0.0
  0
SOLID
  5
7976
330
1E
100
AcDbEntity
  8
UMCL2
100
AcDbTrace
 10
103.5245235466175
 20
288.083827494371
 30
0.0
 11
103.5245235466175
 21
287.083827494371
 31
0.0
 12
100.5245235466175
 22
287.583827494371
 32
0.0
 13
100.5245235466175
 23
287.583827494371
 33
0.0
  0
SOLID
  5
7977
330
1E
100
AcDbEntity
  8
UMCL2
100
AcDbTrace
 10
97.52452354661592
 20
288.083827494371
 30
0.0
 11
97.52452354661592
 21
287.083827494371
 31
0.0
 12
100.5245235466159
 22
287.583827494371
 32
0.0
 13
100.5245235466159
 23
287.583827494371
 33
0.0
  0
SOLID
  5
7978
330
1E
100
AcDbEntity
  8
UMCL2
100
AcDbTrace
 10
121.5245235466177
 20
280.083827494371
 30
0.0
 11
121.5245235466177
 21
279.083827494371
 31
0.0
 12
124.5245235466177
 22
279.583827494371
 32
0.0
 13
124.5245235466177
 23
279.583827494371
 33
0.0
  0
SOLID
  5
7979
330
1E
100
AcDbEntity
  8
UMCL2
100
AcDbTrace
 10
407.5245235466177
 20
288.0838274943708
 30
0.0
 11
407.5245235466177
 21
287.0838274943708
 31
0.0
 12
410.5245235466177
 22
287.5838274943708
 32
0.0
 13
410.5245235466177
 23
287.5838274943708
 33
0.0
  0
SOLID
  5
797A
330
1E
100
AcDbEntity
  8
UMCL2
100
AcDbTrace
 10
407.5245235466166
 20
280.0838274943712
 30
0.0
 11
407.5245235466166
 21
279.0838274943713
 31
0.0
 12
410.5245235466165
 22
279.5838274943712
 32
0.0
 13
410.5245235466165
 23
279.5838274943712
 33
0.0
  0
SOLID
  5
797B
330
1E
100
AcDbEntity
  8
UMCL2
100
AcDbTrace
 10
407.5245235466159
 20
272.0838274943712
 30
0.0
 11
407.5245235466159
 21
271.0838274943712
 31
0.0
 12
410.5245235466159
 22
271.5838274943712
 32
0.0
 13
410.5245235466159
 23
271.5838274943712
 33
0.0
  0
SOLID
  5
797C
330
1E
100
AcDbEntity
  8
UMCL2
100
AcDbTrace
 10
426.5245235466164
 20
264.083827494371
 30
0.0
 11
426.5245235466164
 21
263.083827494371
 31
0.0
 12
429.5245235466163
 22
263.583827494371
 32
0.0
 13
429.5245235466163
 23
263.583827494371
 33
0.0
  0
SOLID
  5
797D
330
1E
100
AcDbEntity
  8
UMCL2
100
AcDbTrace
 10
381.5245235466159
 20
288.083827494371
 30
0.0
 11
381.5245235466159
 21
287.083827494371
 31
0.0
 12
384.5245235466162
 22
287.583827494371
 32
0.0
 13
384.5245235466162
 23
287.583827494371
 33
0.0
  0
SOLID
  5
797E
330
1E
100
AcDbEntity
  8
UMCL2
100
AcDbTrace
 10
387.5245235466177
 20
288.083827494371
 30
0.0
 11
387.5245235466177
 21
287.083827494371
 31
0.0
 12
384.5245235466178
 22
287.583827494371
 32
0.0
 13
384.5245235466178
 23
287.583827494371
 33
0.0
  0
SOLID
  5
797F
330
1E
100
AcDbEntity
  8
UMCL2
100
AcDbTrace
 10
363.5245235466159
 20
280.083827494371
 30
0.0
 11
363.5245235466159
 21
279.083827494371
 31
0.0
 12
360.5245235466159
 22
279.583827494371
 32
0.0
 13
360.5245235466159
 23
279.583827494371
 33
0.0
  0
LINE
  5
7980
330
1E
100
AcDbEntity
  8
UMCL2
100
AcDbLine
 10
74.52452354661682
 20
287.5838274943713
 30
0.0
 11
410.5245235466165
 21
287.583827494371
 31
0.0
  0
LINE
  5
7981
330
1E
100
AcDbEntity
  8
UMCL2
100
AcDbLine
 10
384.5245235466168
 20
292.0712108776349
 30
0.0
 11
384.5245235466168
 21
285.9822661586702
 31
0.0
  0
LINE
  5
7982
330
1E
100
AcDbEntity
  8
UMCL2
100
AcDbLine
 10
429.5245235466173
 20
317.0838274943712
 30
0.0
 11
429.5245235466173
 21
262.0236103760324
 31
0.0
  0
LINE
  5
7983
330
1E
100
AcDbEntity
  8
UMCL2
100
AcDbLine
 10
360.5245235466168
 20
294.2586119849457
 30
0.0
 11
360.5245235466168
 21
289.1380001237198
 31
0.0
  0
LINE
  5
7984
330
1E
100
AcDbEntity
  8
UMCL2
100
AcDbLine
 10
360.5245235466168
 20
286.2769463179266
 30
0.0
 11
360.5245235466168
 21
277.7782002464324
 31
0.0
  0
LINE
  5
7985
330
1E
100
AcDbEntity
  8
UMCL2
100
AcDbLine
 10
410.5245235466168
 20
294.4312427637385
 30
0.0
 11
410.5245235466168
 21
269.4384333871221
 31
0.0
  0
SOLID
  5
7986
330
1E
100
AcDbEntity
  8
UMCL2
100
AcDbTrace
 10
-152.0922693346788
 20
557.0838274943712
 30
0.0
 11
-152.0922693346788
 21
556.0838274943712
 31
0.0
 12
-155.0922693346788
 22
556.5838274943712
 32
0.0
 13
-155.0922693346788
 23
556.5838274943712
 33
0.0
  0
SOLID
  5
7987
330
1E
100
AcDbEntity
  8
UMCL2
100
AcDbTrace
 10
-144.092269334679
 20
549.0838274943712
 30
0.0
 11
-144.092269334679
 21
548.0838274943712
 31
0.0
 12
-147.092269334679
 22
548.5838274943712
 32
0.0
 13
-147.092269334679
 23
548.5838274943712
 33
0.0
  0
SOLID
  5
7988
330
1E
100
AcDbEntity
  8
UMCL2
100
AcDbTrace
 10
-82.09226933468153
 20
557.0838274943712
 30
0.0
 11
-82.09226933468153
 21
556.0838274943712
 31
0.0
 12
-79.0922693346813
 22
556.5838274943712
 32
0.0
 13
-79.0922693346813
 23
556.5838274943712
 33
0.0
  0
SOLID
  5
7989
330
1E
100
AcDbEntity
  8
UMCL2
100
AcDbTrace
 10
-90.09226933468131
 20
549.0838274943712
 30
0.0
 11
-90.09226933468131
 21
548.0838274943712
 31
0.0
 12
-87.09226933468107
 22
548.5838274943712
 32
0.0
 13
-87.09226933468107
 23
548.5838274943712
 33
0.0
  0
LINE
  5
798A
330
1E
100
AcDbEntity
  8
UMCL2
100
AcDbLine
 10
685.4170470044363
 20
548.5838274943715
 30
0.0
 11
819.4170470044362
 21
548.5838274943719
 31
0.0
  0
TEXT
  5
798B
330
1E
100
AcDbEntity
  8
UMCL2
100
AcDbText
 10
749.8450869514374
 20
550.0838274943716
 30
0.0
 40
3.0
  1
134
 41
0.9
 51
15.0
  7
ROMANS
 72
     1
 11
753.9593726657232
 21
551.5838274943717
 31
0.0
100
AcDbText
 73
     2
  0
LINE
  5
798C
330
1E
100
AcDbEntity
  8
UMCL2
100
AcDbLine
 10
666.4170470044362
 20
556.5838274943714
 30
0.0
 11
838.4170470044363
 21
556.5838274943721
 31
0.0
  0
TEXT
  5
798D
330
1E
100
AcDbEntity
  8
UMCL2
100
AcDbText
 10
749.9093726657236
 20
558.0838274943716
 30
0.0
 40
3.0
  1
172
 41
0.9
 51
15.0
  7
ROMANS
 72
     1
 11
753.9593726657236
 21
559.5838274943717
 31
0.0
100
AcDbText
 73
     2
  0
SOLID
  5
798E
330
1E
100
AcDbEntity
  8
UMCL2
100
AcDbTrace
 10
669.4170470044358
 20
557.0838274943715
 30
0.0
 11
669.4170470044358
 21
556.0838274943714
 31
0.0
 12
666.4170470044358
 22
556.5838274943714
 32
0.0
 13
666.4170470044358
 23
556.5838274943714
 33
0.0
  0
SOLID
  5
798F
330
1E
100
AcDbEntity
  8
UMCL2
100
AcDbTrace
 10
688.417047004436
 20
549.0838274943716
 30
0.0
 11
688.417047004436
 21
548.0838274943717
 31
0.0
 12
685.417047004436
 22
548.5838274943716
 32
0.0
 13
685.417047004436
 23
548.5838274943716
 33
0.0
  0
SOLID
  5
7990
330
1E
100
AcDbEntity
  8
UMCL2
100
AcDbTrace
 10
835.4170470044394
 20
557.0838274943719
 30
0.0
 11
835.4170470044394
 21
556.0838274943718
 31
0.0
 12
838.4170470044395
 22
556.5838274943719
 32
0.0
 13
838.4170470044395
 23
556.5838274943719
 33
0.0
  0
SOLID
  5
7991
330
1E
100
AcDbEntity
  8
UMCL2
100
AcDbTrace
 10
816.4170470044375
 20
549.0838274943721
 30
0.0
 11
816.4170470044375
 21
548.0838274943721
 31
0.0
 12
819.4170470044376
 22
548.5838274943721
 32
0.0
 13
819.4170470044376
 23
548.5838274943721
 33
0.0
  0
POLYLINE
  5
7992
330
1E
100
AcDbEntity
  8
UMCL2
100
AcDb2dPolyline
 66
     1
 10
0.0
 20
0.0
 30
0.0
 70
     1
  0
VERTEX
  5
7993
330
7992
100
AcDbEntity
  8
UMCL2
100
AcDbVertex
100
AcDb2dVertex
 10
746.7094579206517
 20
552.5651529997331
 30
0.0
  0
VERTEX
  5
7994
330
7992
100
AcDbEntity
  8
UMCL2
100
AcDbVertex
100
AcDb2dVertex
 10
746.7094579206517
 20
550.1630019624435
 30
0.0
  0
VERTEX
  5
7995
330
7992
100
AcDbEntity
  8
UMCL2
100
AcDbVertex
100
AcDb2dVertex
 10
749.5459090439681
 20
550.1630019624435
 30
0.0
  0
VERTEX
  5
7996
330
7992
100
AcDbEntity
  8
UMCL2
100
AcDbVertex
100
AcDb2dVertex
 10
749.5459090439681
 20
552.5651529997331
 30
0.0
  0
SEQEND
  5
7997
330
7992
100
AcDbEntity
  8
UMCL2
  0
LINE
  5
7998
330
1E
100
AcDbEntity
  8
UMCL2
100
AcDbLine
 10
80.52452354661681
 20
548.5838274943715
 30
0.0
 11
589.5245235466167
 21
548.5838274943721
 31
0.0
  0
SOLID
  5
7999
330
1E
100
AcDbEntity
  8
UMCL2
100
AcDbTrace
 10
83.52452354661636
 20
549.0838274943716
 30
0.0
 11
83.52452354661636
 21
548.0838274943717
 31
0.0
 12
80.52452354661637
 22
548.5838274943716
 32
0.0
 13
80.52452354661637
 23
548.5838274943716
 33
0.0
  0
SOLID
  5
799A
330
1E
100
AcDbEntity
  8
UMCL2
100
AcDbTrace
 10
586.524523546618
 20
549.0838274943721
 30
0.0
 11
586.524523546618
 21
548.0838274943721
 31
0.0
 12
589.524523546618
 22
548.5838274943721
 32
0.0
 13
589.524523546618
 23
548.5838274943721
 33
0.0
  0
SOLID
  5
799B
330
1E
100
AcDbEntity
  8
UMCL2
100
AcDbTrace
 10
401.5245235466168
 20
549.0838274943721
 30
0.0
 11
401.5245235466168
 21
548.0838274943721
 31
0.0
 12
404.5245235466167
 22
548.5838274943721
 32
0.0
 13
404.5245235466167
 23
548.5838274943721
 33
0.0
  0
SOLID
  5
799C
330
1E
100
AcDbEntity
  8
UMCL2
100
AcDbTrace
 10
407.5245235466168
 20
549.0838274943721
 30
0.0
 11
407.5245235466168
 21
548.0838274943721
 31
0.0
 12
404.5245235466167
 22
548.5838274943721
 32
0.0
 13
404.5245235466167
 23
548.5838274943721
 33
0.0
  0
TEXT
  5
799D
330
1E
100
AcDbEntity
  8
UMCL2
100
AcDbText
 10
492.6659953403552
 20
550.0838274943716
 30
0.0
 40
3.0
  1
185
 41
0.9
 51
15.0
  7
ROMANS
 72
     1
 11
496.7159953403552
 21
551.5838274943717
 31
0.0
100
AcDbText
 73
     2
  0
TEXT
  5
799E
330
1E
100
AcDbEntity
  8
UMCL2
100
AcDbText
 10
242.1501964771742
 20
550.0838274943716
 30
0.0
 40
3.0
  1
324
 41
0.9
 51
15.0
  7
ROMANS
 72
     1
 11
246.0716250486028
 21
551.5838274943717
 31
0.0
100
AcDbText
 73
     2
  0
LINE
  5
799F
330
1E
100
AcDbEntity
  8
UMCL2
100
AcDbLine
 10
864.9170470044364
 20
279.5838274943712
 30
0.0
 11
639.9170470044363
 21
279.5838274943713
 31
0.0
  0
TEXT
  5
79A0
330
1E
100
AcDbEntity
  8
UMCL2
100
AcDbText
 10
748.5757515584456
 20
281.0838274943712
 30
0.0
 40
3.0
  1
225
 41
0.9
 51
15.0
  7
ROMANS
 72
     1
 11
752.4328944155885
 21
282.5838274943712
 31
0.0
100
AcDbText
 73
     2
  0
TEXT
  5
79A1
330
1E
100
AcDbEntity
  8
UMCL2
100
AcDbText
 10
748.8400479257872
 20
289.0838274943712
 30
0.0
 40
3.0
  1
200
 41
0.9
 51
15.0
  7
ROMANS
 72
     1
 11
752.6971907829301
 21
290.5838274943712
 31
0.0
100
AcDbText
 73
     2
  0
SOLID
  5
79A2
330
1E
100
AcDbEntity
  8
UMCL2
100
AcDbTrace
 10
849.4170470044377
 20
288.0838274943709
 30
0.0
 11
849.4170470044377
 21
287.0838274943709
 31
0.0
 12
852.4170470044378
 22
287.5838274943709
 32
0.0
 13
852.4170470044378
 23
287.5838274943709
 33
0.0
  0
SOLID
  5
79A3
330
1E
100
AcDbEntity
  8
UMCL2
100
AcDbTrace
 10
861.9170470044364
 20
280.0838274943712
 30
0.0
 11
861.9170470044364
 21
279.0838274943713
 31
0.0
 12
864.9170470044364
 22
279.5838274943712
 32
0.0
 13
864.9170470044364
 23
279.5838274943712
 33
0.0
  0
LINE
  5
79A4
330
1E
100
AcDbEntity
  8
UMCL2
100
AcDbLine
 10
652.4170470044367
 20
287.583827494371
 30
0.0
 11
852.417047004436
 21
287.5838274943711
 31
0.0
  0
LINE
  5
79A5
330
1E
100
AcDbEntity
  8
UMCL2
100
AcDbLine
 10
652.4170470044367
 20
291.6347988707746
 30
0.0
 11
652.4170470044367
 21
286.0420007083906
 31
0.0
  0
LINE
  5
79A6
330
1E
100
AcDbEntity
  8
UMCL2
100
AcDbLine
 10
639.9170470044363
 20
293.2405103564954
 30
0.0
 11
639.9170470044363
 21
278.0976789215015
 31
0.0
  0
SOLID
  5
79A7
330
1E
100
AcDbEntity
  8
UMCL2
100
AcDbTrace
 10
655.4170470044351
 20
288.0838274943709
 30
0.0
 11
655.4170470044351
 21
287.0838274943709
 31
0.0
 12
652.4170470044351
 22
287.5838274943709
 32
0.0
 13
652.4170470044351
 23
287.5838274943709
 33
0.0
  0
SOLID
  5
79A8
330
1E
100
AcDbEntity
  8
UMCL2
100
AcDbTrace
 10
642.9170470044363
 20
280.0838274943712
 30
0.0
 11
642.9170470044363
 21
279.0838274943713
 31
0.0
 12
639.9170470044363
 22
279.5838274943712
 32
0.0
 13
639.9170470044363
 23
279.5838274943712
 33
0.0
  0
LINE
  5
79A9
330
1E
100
AcDbEntity
  8
UMCL1
100
AcDbLine
 10
120.5245235466168
 20
320.5838274943712
 30
0.0
 11
364.5245235466168
 21
320.5838274943712
 31
0.0
  0
LINE
  5
79AA
330
1E
100
AcDbEntity
  8
UMCL1
100
AcDbLine
 10
120.5245235466168
 20
336.5838274943712
 30
0.0
 11
364.5245235466169
 21
336.5838274943712
 31
0.0
  0
LINE
  5
79AB
330
1E
100
AcDbEntity
  8
UMCL1
100
AcDbLine
 10
120.5245235466168
 20
454.583827494371
 30
0.0
 11
364.5245235466169
 21
454.583827494371
 31
0.0
  0
LINE
  5
79AC
330
1E
100
AcDbEntity
  8
UMCL1
100
AcDbLine
 10
120.5245235466168
 20
470.583827494371
 30
0.0
 11
364.5245235466168
 21
470.583827494371
 31
0.0
  0
LINE
  5
79AD
330
1E
100
AcDbEntity
  8
UMCL1
  6
Continuous
100
AcDbLine
 10
427.5245235466169
 20
414.5838274943714
 30
0.0
 11
426.5245235466169
 21
413.5838274943714
 31
0.0
  0
LINE
  5
79AE
330
1E
100
AcDbEntity
  8
UMCL1
100
AcDbLine
 10
417.5245235466169
 20
413.5838274943714
 30
0.0
 11
426.5245235466169
 21
413.5838274943714
 31
0.0
  0
LINE
  5
79AF
330
1E
100
AcDbEntity
  8
UMCL1
  6
Continuous
100
AcDbLine
 10
427.5245235466169
 20
376.5838274943712
 30
0.0
 11
426.5245235466169
 21
377.5838274943712
 31
0.0
  0
LINE
  5
79B0
330
1E
100
AcDbEntity
  8
UMCL1
100
AcDbLine
 10
417.5245235466169
 20
377.5838274943712
 30
0.0
 11
426.5245235466169
 21
377.5838274943712
 31
0.0
  0
LINE
  5
79B1
330
1E
100
AcDbEntity
  8
UMCL1
100
AcDbLine
 10
427.5245235466169
 20
420.5838274943712
 30
0.0
 11
584.1632562453431
 21
420.5838274943712
 31
0.0
  0
LINE
  5
79B2
330
1E
100
AcDbEntity
  8
UMCL1
100
AcDbLine
 10
427.5245235466169
 20
370.5838274943712
 30
0.0
 11
584.1632562453433
 21
370.5838274943712
 31
0.0
  0
LINE
  5
79B3
330
1E
100
AcDbEntity
  8
UMCL1
  6
Continuous
100
AcDbLine
 10
120.5245235466168
 20
529.083827494371
 30
0.0
 11
364.5245235466167
 21
529.083827494371
 31
0.0
  0
LINE
  5
79B4
330
1E
100
AcDbEntity
  8
UMCL1
  6
Continuous
100
AcDbLine
 10
120.5245235466168
 20
484.083827494371
 30
0.0
 11
364.5245235466167
 21
484.083827494371
 31
0.0
  0
TEXT
  5
79B5
330
1E
100
AcDbEntity
  8
UMCL2
100
AcDbText
 10
442.9788450544009
 20
338.512751280404
 30
0.0
 40
3.0
  1
2-PT1/2
 41
0.9
 51
15.0
  7
ROMANS
 72
     1
 11
452.3002736258295
 21
340.012751280404
 31
0.0
100
AcDbText
 73
     2
  0
TEXT
  5
79B6
330
1E
100
AcDbEntity
  8
UMCL2
100
AcDbText
 10
427.9778514627389
 20
602.7801371840426
 30
0.0
 40
3.0
  1
4-%%c11
 41
0.9
 51
15.0
  7
ROMANS
 72
     1
 11
434.3421371770245
 21
604.2801371840425
 31
0.0
100
AcDbText
 73
     2
  0
LINE
  5
79B7
330
1E
100
AcDbEntity
  8
UMCL2
100
AcDbLine
 10
618.9035678894698
 20
440.1219979505472
 30
0.0
 11
603.0310597496783
 21
440.1219979505469
 31
0.0
  0
TEXT
  5
79B8
330
1E
100
AcDbEntity
  8
UMCL2
100
AcDbText
 10
603.7552223765515
 20
441.6219979505469
 30
0.0
 40
3.0
  1
PT1/2
 41
0.9
 51
15.0
  7
ROMANS
 72
     1
 11
610.1837938051229
 21
443.121997950547
 31
0.0
100
AcDbText
 73
     2
  0
LINE
  5
79B9
330
1E
100
AcDbEntity
  8
UMCL2
100
AcDbLine
 10
560.5772210291437
 20
440.1219979505469
 30
0.0
 11
544.6010286222008
 21
440.1219979505469
 31
0.0
  0
TEXT
  5
79BA
330
1E
100
AcDbEntity
  8
UMCL2
100
AcDbText
 10
548.651318282173
 20
441.6219979505469
 30
0.0
 40
3.0
  1
PT1/4
 41
0.9
 51
15.0
  7
ROMANS
 72
     1
 11
555.1441754250301
 21
443.121997950547
 31
0.0
100
AcDbText
 73
     2
  0
LINE
  5
79BB
330
1E
100
AcDbEntity
  8
UMCL1
  6
Continuous
100
AcDbLine
 10
584.1632562453431
 20
420.5838274943714
 30
0.0
 11
584.1632562453425
 21
370.5838274943712
 31
0.0
  0
CIRCLE
  5
79BC
330
1E
100
AcDbEntity
  8
UMCL1
  6
Continuous
100
AcDbCircle
 10
97.52452354661683
 20
385.5838274943712
 30
0.0
 40
9.250000000000113
  0
ARC
  5
79BD
330
1E
100
AcDbEntity
  8
UMCL1
  6
Continuous
 62
     2
100
AcDbCircle
 10
97.52452354661683
 20
385.5838274943712
 30
0.0
 40
10.50000000000011
100
AcDbArc
 50
73.82957132669226
 51
17.43408235220769
  0
LINE
  5
79BE
330
1E
100
AcDbEntity
  8
CENTER
  6
CENTER
100
AcDbLine
 10
384.524523546617
 20
416.2675196941008
 30
0.0
 11
384.524523546617
 21
378.2675196941009
 31
0.0
  0
CIRCLE
  5
79BF
330
1E
100
AcDbEntity
  8
UMCL1
  6
Continuous
100
AcDbCircle
 10
384.524523546617
 20
395.5838274943713
 30
0.0
 40
9.250000000000113
  0
ARC
  5
79C0
330
1E
100
AcDbEntity
  8
UMCL1
  6
Continuous
 62
     2
100
AcDbCircle
 10
384.524523546617
 20
395.5838274943713
 30
0.0
 40
10.50000000000011
100
AcDbArc
 50
73.82957132669226
 51
17.43408235220769
  0
LINE
  5
79C1
330
1E
100
AcDbEntity
  8
UMCL2
100
AcDbLine
 10
391.8958754268184
 20
388.1063164473562
 30
0.0
 11
442.2640588091673
 21
337.012751280404
 31
0.0
  0
SOLID
  5
79C2
330
1E
100
AcDbEntity
  8
UMCL2
100
AcDbTrace
 10
394.359011558079
 20
386.3222311358081
 30
0.0
 11
393.6472468012928
 21
385.6198132181857
 31
0.0
 12
391.8958754268187
 22
388.1063164473557
 32
0.0
 13
391.8958754268187
 23
388.1063164473557
 33
0.0
  0
SOLID
  5
79C3
330
1E
100
AcDbEntity
  8
UMCL2
100
AcDbTrace
 10
392.8023277987892
 20
610.4427693373698
 30
0.0
 11
392.5565424816817
 21
609.4734450480348
 31
0.0
 12
389.771462272231
 22
610.6954631440246
 32
0.0
 13
389.771462272231
 23
610.6954631440246
 33
0.0
  0
LINE
  5
79C4
330
1E
100
AcDbEntity
  8
UMCL2
100
AcDbLine
 10
389.7714622722322
 20
610.6954631440232
 30
0.0
 11
426.6579738806578
 21
601.2801371840428
 31
0.0
  0
LINE
  5
79C5
330
1E
100
AcDbEntity
  8
UMCL1
  6
Continuous
100
AcDbLine
 10
404.5245235466167
 20
511.583827494371
 30
0.0
 11
364.5245235466168
 21
511.583827494371
 31
0.0
  0
LINE
  5
79C6
330
1E
100
AcDbEntity
  8
CENTER
  6
CENTER
100
AcDbLine
 10
394.5947242201536
 20
519.5838274943715
 30
0.0
 11
373.9662968905163
 21
519.5838274943715
 31
0.0
  0
POLYLINE
  5
79C7
330
1E
100
AcDbEntity
  8
UMCL1
  6
Continuous
100
AcDb2dPolyline
 66
     1
 10
0.0
 20
0.0
 30
0.0
 70
     3
  0
VERTEX
  5
79C8
330
79C7
100
AcDbEntity
  8
UMCL1
  6
Continuous
100
AcDbVertex
100
AcDb2dVertex
 10
379.4431861178046
 20
521.6885863723796
 30
0.0
 42
0.1989123673796465
  0
VERTEX
  5
79C9
330
79C7
100
AcDbEntity
  8
UMCL1
  6
Continuous
100
AcDbVertex
100
AcDb2dVertex
 10
379.4431861178046
 20
517.479068616363
 30
0.0
 42
0.0984914033571552
 70
     1
  0
VERTEX
  5
79CA
330
79C7
100
AcDbEntity
  8
UMCL1
  6
Continuous
100
AcDbVertex
100
AcDb2dVertex
 10
380.6354362500907
 20
515.694740197845
 30
0.0
 42
0.0984914033571709
  0
VERTEX
  5
79CB
330
79C7
100
AcDbEntity
  8
UMCL1
  6
Continuous
100
AcDbVertex
100
AcDb2dVertex
 10
382.4197646686085
 20
514.5024900655592
 30
0.0
 42
0.198912367379703
  0
VERTEX
  5
79CC
330
79C7
100
AcDbEntity
  8
UMCL1
  6
Continuous
100
AcDbVertex
100
AcDb2dVertex
 10
386.6292824246249
 20
514.5024900655592
 30
0.0
 42
0.0984914033571709
 70
     1
  0
VERTEX
  5
79CD
330
79C7
100
AcDbEntity
  8
UMCL1
  6
Continuous
100
AcDbVertex
100
AcDb2dVertex
 10
388.4136108431427
 20
515.694740197845
 30
0.0
 42
0.0984914033571552
  0
VERTEX
  5
79CE
330
79C7
100
AcDbEntity
  8
UMCL1
  6
Continuous
100
AcDbVertex
100
AcDb2dVertex
 10
389.6058609754287
 20
517.479068616363
 30
0.0
 42
0.1989123673796465
  0
VERTEX
  5
79CF
330
79C7
100
AcDbEntity
  8
UMCL1
  6
Continuous
100
AcDbVertex
100
AcDb2dVertex
 10
389.6058609754287
 20
521.6885863723796
 30
0.0
 42
0.0984914033571552
 70
     1
  0
VERTEX
  5
79D0
330
79C7
100
AcDbEntity
  8
UMCL1
  6
Continuous
100
AcDbVertex
100
AcDb2dVertex
 10
388.4136108431427
 20
523.4729147908977
 30
0.0
 42
0.0984914033571709
  0
VERTEX
  5
79D1
330
79C7
100
AcDbEntity
  8
UMCL1
  6
Continuous
100
AcDbVertex
100
AcDb2dVertex
 10
386.6292824246249
 20
524.6651649231837
 30
0.0
 42
0.198912367379703
  0
VERTEX
  5
79D2
330
79C7
100
AcDbEntity
  8
UMCL1
  6
Continuous
100
AcDbVertex
100
AcDb2dVertex
 10
382.4197646686085
 20
524.6651649231837
 30
0.0
 42
0.0984914033571709
 70
     1
  0
VERTEX
  5
79D3
330
79C7
100
AcDbEntity
  8
UMCL1
  6
Continuous
100
AcDbVertex
100
AcDb2dVertex
 10
380.6354362500907
 20
523.4729147908977
 30
0.0
 42
0.0984914033571552
  0
SEQEND
  5
79D4
330
79C7
100
AcDbEntity
  8
UMCL1
  6
Continuous
  0
LINE
  5
79D5
330
1E
100
AcDbEntity
  8
CENTER
  6
CENTER
100
AcDbLine
 10
100.5245235466166
 20
530.1562254508722
 30
0.0
 11
100.5245235466166
 21
507.9213127927196
 31
0.0
  0
LINE
  5
79D6
330
1E
100
AcDbEntity
  8
UMCL1
  6
Continuous
100
AcDbLine
 10
120.5245235466166
 20
511.583827494371
 30
0.0
 11
80.52452354661658
 21
511.583827494371
 31
0.0
  0
POLYLINE
  5
79D7
330
1E
100
AcDbEntity
  8
UMCL1
  6
Continuous
100
AcDb2dPolyline
 66
     1
 10
0.0
 20
0.0
 30
0.0
 70
     3
  0
VERTEX
  5
79D8
330
79D7
100
AcDbEntity
  8
UMCL1
  6
Continuous
100
AcDbVertex
100
AcDb2dVertex
 10
95.44318611780454
 20
521.6885863723796
 30
0.0
 42
0.1989123673796465
  0
VERTEX
  5
79D9
330
79D7
100
AcDbEntity
  8
UMCL1
  6
Continuous
100
AcDbVertex
100
AcDb2dVertex
 10
95.44318611780454
 20
517.479068616363
 30
0.0
 42
0.0984914033571552
 70
     1
  0
VERTEX
  5
79DA
330
79D7
100
AcDbEntity
  8
UMCL1
  6
Continuous
100
AcDbVertex
100
AcDb2dVertex
 10
96.63543625009062
 20
515.694740197845
 30
0.0
 42
0.0984914033571709
  0
VERTEX
  5
79DB
330
79D7
100
AcDbEntity
  8
UMCL1
  6
Continuous
100
AcDbVertex
100
AcDb2dVertex
 10
98.41976466860842
 20
514.5024900655592
 30
0.0
 42
0.198912367379703
  0
VERTEX
  5
79DC
330
79D7
100
AcDbEntity
  8
UMCL1
  6
Continuous
100
AcDbVertex
100
AcDb2dVertex
 10
102.6292824246247
 20
514.5024900655592
 30
0.0
 42
0.0984914033571709
 70
     1
  0
VERTEX
  5
79DD
330
79D7
100
AcDbEntity
  8
UMCL1
  6
Continuous
100
AcDbVertex
100
AcDb2dVertex
 10
104.4136108431426
 20
515.694740197845
 30
0.0
 42
0.0984914033571552
  0
VERTEX
  5
79DE
330
79D7
100
AcDbEntity
  8
UMCL1
  6
Continuous
100
AcDbVertex
100
AcDb2dVertex
 10
105.6058609754286
 20
517.479068616363
 30
0.0
 42
0.1989123673796465
  0
VERTEX
  5
79DF
330
79D7
100
AcDbEntity
  8
UMCL1
  6
Continuous
100
AcDbVertex
100
AcDb2dVertex
 10
105.6058609754286
 20
521.6885863723796
 30
0.0
 42
0.0984914033571552
 70
     1
  0
VERTEX
  5
79E0
330
79D7
100
AcDbEntity
  8
UMCL1
  6
Continuous
100
AcDbVertex
100
AcDb2dVertex
 10
104.4136108431426
 20
523.4729147908977
 30
0.0
 42
0.0984914033571709
  0
VERTEX
  5
79E1
330
79D7
100
AcDbEntity
  8
UMCL1
  6
Continuous
100
AcDbVertex
100
AcDb2dVertex
 10
102.6292824246247
 20
524.6651649231837
 30
0.0
 42
0.198912367379703
  0
VERTEX
  5
79E2
330
79D7
100
AcDbEntity
  8
UMCL1
  6
Continuous
100
AcDbVertex
100
AcDb2dVertex
 10
98.41976466860842
 20
524.6651649231837
 30
0.0
 42
0.0984914033571709
 70
     1
  0
VERTEX
  5
79E3
330
79D7
100
AcDbEntity
  8
UMCL1
  6
Continuous
100
AcDbVertex
100
AcDb2dVertex
 10
96.63543625009062
 20
523.4729147908977
 30
0.0
 42
0.0984914033571552
  0
SEQEND
  5
79E4
330
79D7
100
AcDbEntity
  8
UMCL1
  6
Continuous
  0
LINE
  5
79E5
330
1E
100
AcDbEntity
  8
CENTER
  6
CENTER
100
AcDbLine
 10
110.5947242201534
 20
519.5838274943715
 30
0.0
 11
89.9662968905161
 21
519.5838274943715
 31
0.0
  0
LINE
  5
79E6
330
1E
100
AcDbEntity
  8
UMCL1
  6
Continuous
100
AcDbLine
 10
417.5245235466168
 20
428.083827494371
 30
0.0
 11
404.5245235466167
 21
428.083827494371
 31
0.0
  0
LINE
  5
79E7
330
1E
100
AcDbEntity
  8
UMCL1
  6
Continuous
100
AcDbLine
 10
417.5245235466174
 20
363.0838274943712
 30
0.0
 11
404.524523546617
 21
363.0838274943712
 31
0.0
  0
LINE
  5
79E8
330
1E
100
AcDbEntity
  8
UMCL1
  6
Continuous
100
AcDbLine
 10
417.5245235466166
 20
754.8445944334107
 30
0.0
 11
404.5245235466166
 21
754.8445944334107
 31
0.0
  0
LINE
  5
79E9
330
1E
100
AcDbEntity
  8
UMCL1
  6
Continuous
100
AcDbLine
 10
417.5245235466173
 20
689.844594433411
 30
0.0
 11
404.5245235466169
 21
689.844594433411
 31
0.0
  0
LINE
  5
79EA
330
1E
100
AcDbEntity
  8
CENTER
  6
CENTER
100
AcDbLine
 10
-140.8858745819261
 20
506.5838274943709
 30
0.0
 11
-92.59572098475246
 21
506.5838274943709
 31
0.0
  0
LINE
  5
79EB
330
1E
100
AcDbEntity
  8
UMCL1
  6
Continuous
100
AcDbLine
 10
74.52452354661637
 20
641.48818797286
 30
0.0
 11
74.52452354661637
 21
636.3445944334111
 31
0.0
  0
LINE
  5
79EC
330
1E
100
AcDbEntity
  8
UMCL1
  6
Continuous
100
AcDbLine
 10
74.52452354661659
 20
808.3445944334107
 30
0.0
 11
74.52452354661659
 21
803.2010008939616
 31
0.0
  0
LINE
  5
79ED
330
1E
100
AcDbEntity
  8
UMCL1
  6
Continuous
100
AcDbLine
 10
74.52452354661659
 20
775.4881879728598
 30
0.0
 11
74.52452354661637
 21
669.2010008939616
 31
0.0
  0
LINE
  5
79EE
330
1E
100
AcDbEntity
  8
CENTER
  6
CENTER
100
AcDbLine
 10
82.51189274570107
 20
385.5838274943712
 30
0.0
 11
113.5683637404211
 21
385.5838274943712
 31
0.0
  0
LINE
  5
79EF
330
1E
100
AcDbEntity
  8
CENTER
  6
CENTER
100
AcDbLine
 10
99.60657305200539
 20
405.5838274943712
 30
0.0
 11
115.4072337335296
 21
405.5838274943714
 31
0.0
  0
LINE
  5
79F0
330
1E
100
AcDbEntity
  8
CENTER
  6
CENTER
100
AcDbLine
 10
97.52452354661683
 20
400.7852322250475
 30
0.0
 11
97.52452354661683
 21
369.1250816793886
 31
0.0
  0
LINE
  5
79F1
330
1E
100
AcDbEntity
  8
CENTER
  6
CENTER
100
AcDbLine
 10
107.5245235466166
 20
413.5625661332276
 30
0.0
 11
107.5245235466166
 21
397.4894802675392
 31
0.0
  0
INSERT
  5
79F2
330
1E
100
AcDbEntity
  8
UMCL1
  6
Continuous
100
AcDbBlockReference
  2
11110_10
 10
107.5245235466166
 20
405.5838274943712
 30
0.0
  0
LINE
  5
79F3
330
1E
100
AcDbEntity
  8
CENTER
  6
CENTER
100
AcDbLine
 10
100.5245235466168
 20
704.3445944334109
 30
0.0
 11
100.5245235466168
 21
679.1298182408402
 31
0.0
  0
LINE
  5
79F4
330
1E
100
AcDbEntity
  8
CENTER
  6
CENTER
100
AcDbLine
 10
97.52452354661683
 20
655.3445944334112
 30
0.0
 11
97.52452354661683
 21
627.6280104153173
 31
0.0
  0
LINE
  5
79F5
330
1E
100
AcDbEntity
  8
CENTER
  6
CENTER
100
AcDbLine
 10
384.5245235466168
 20
766.5703538973
 30
0.0
 11
384.5245235466168
 21
738.2439650592739
 31
0.0
  0
LINE
  5
79F6
330
1E
100
AcDbEntity
  8
CENTER
  6
CENTER
100
AcDbLine
 10
384.5245235466167
 20
706.4388968902619
 30
0.0
 11
384.5245235466166
 21
678.1298710413846
 31
0.0
  0
LINE
  5
79F7
330
1E
100
AcDbEntity
  8
CENTER
  6
CENTER
100
AcDbLine
 10
384.5245235466168
 20
629.688691313343
 30
0.0
 11
384.5245235466168
 21
655.688691313343
 31
0.0
  0
ENDSEC
  0
SECTION
  2
OBJECTS
  0
DICTIONARY
  5
C
330
0
100
AcDbDictionary
281
     1
  3
ACAD_COLOR
350
628F
  3
ACAD_GROUP
350
D
  3
ACAD_IMAGE_DICT
350
3CB
  3
ACAD_LAYOUT
350
19
  3
ACAD_MATERIAL
350
628E
  3
ACAD_MLINESTYLE
350
16
  3
ACAD_PLOTSETTINGS
350
18
  3
ACAD_PLOTSTYLENAME
350
B31
  3
ACAD_TABLESTYLE
350
6290
  3
ACDBHEADERROUNDTRIPXREC
350
7AAA
  3
AcDbVariableDictionary
350
BD2
  3
ACMDICTIONARY
350
7C2
  3
AMG
350
7A8
  3
AMGSNAPSETTINGS
350
895
  3
DWGPROPS
350
7AA9
1001
ACAD
1000
TREAT_AS_HARD
1070
     0
  0
DICTIONARY
  5
6C50
330
2
100
AcDbDictionary
280
     1
281
     1
  3
ACAD_LAYERFILTERS
360
6C54
  3
ACLYDICTIONARY
360
6C53
  0
DICTIONARY
  5
708
330
1E
100
AcDbDictionary
280
     1
281
     1
  3
ACAD_LAYOUTSELFREF
360
4E3B
1001
ACAD
1000
TREAT_AS_HARD
1070
     1
  0
DICTIONARY
  5
70A
330
1A
100
AcDbDictionary
280
     1
281
     1
  3
ACAD_LAYOUTSELFREF
360
4E3A
1001
ACAD
1000
TREAT_AS_HARD
1070
     1
  0
DICTIONARY
  5
628F
102
{ACAD_REACTORS
330
C
102
}
330
C
100
AcDbDictionary
281
     1
  0
DICTIONARY
  5
D
102
{ACAD_REACTORS
330
C
102
}
330
C
100
AcDbDictionary
281
     1
1001
ACAD
1000
TREAT_AS_HARD
1070
     0
  0
DICTIONARY
  5
3CB
102
{ACAD_REACTORS
330
C
102
}
330
C
100
AcDbDictionary
281
     1
  3
PLOT
350
3CC
1001
ACAD
1000
TREAT_AS_HARD
1070
     0
  0
DICTIONARY
  5
19
102
{ACAD_REACTORS
330
C
102
}
330
C
100
AcDbDictionary
281
     1
  3
Layout1
350
B34
  3
Model
350
B33
1001
ACAD
1000
TREAT_AS_HARD
1070
     0
  0
DICTIONARY
  5
628E
102
{ACAD_REACTORS
330
C
102
}
330
C
100
AcDbDictionary
281
     1
  0
DICTIONARY
  5
16
102
{ACAD_REACTORS
330
C
102
}
330
C
100
AcDbDictionary
281
     1
  3
STANDARD
350
17
1001
ACAD
1000
TREAT_AS_HARD
1070
     0
  0
DICTIONARY
  5
18
102
{ACAD_REACTORS
330
C
102
}
330
C
100
AcDbDictionary
281
     1
1001
ACAD
1000
TREAT_AS_HARD
1070
     0
  0
ACDBDICTIONARYWDFLT
  5
B31
102
{ACAD_REACTORS
330
C
102
}
330
C
100
AcDbDictionary
281
     1
  3
Normal
350
B32
100
AcDbDictionaryWithDefault
340
B32
  0
DICTIONARY
  5
6290
102
{ACAD_REACTORS
330
C
102
}
330
C
100
AcDbDictionary
281
     1
  3
Standard
350
6291
  0
DICTIONARY
  5
7AAA
102
{ACAD_REACTORS
330
C
102
}
330
C
100
AcDbDictionary
281
     1
  0
DICTIONARY
  5
BD2
102
{ACAD_REACTORS
330
C
102
}
330
C
100
AcDbDictionary
281
     1
  3
CTABLESTYLE
350
6C72
  3
DIMASSOC
350
BD4
  3
INDEXCTL
350
BD3
  3
PROJECTNAME
350
6C73
  0
DICTIONARY
  5
7C2
102
{ACAD_REACTORS
330
C
102
}
330
C
100
AcDbDictionary
281
     1
  3
ACMSTDDICTIONARY
350
7C8
  3
AMDTSECTSYM_ARROWCOLOR
350
629C
1001
ACAD
1000
TREAT_AS_HARD
1070
     0
  0
DICTIONARY
  5
7A8
102
{ACAD_REACTORS
330
C
102
}
330
C
100
AcDbDictionary
281
     1
1001
ACAD
1000
TREAT_AS_HARD
1070
     0
  0
DICTIONARY
  5
895
102
{ACAD_REACTORS
330
C
102
}
330
C
100
AcDbDictionary
281
     1
1001
ACAD
1000
TREAT_AS_HARD
1070
     0
  0
XRECORD
  5
7AA9
102
{ACAD_REACTORS
330
C
102
}
330
C
100
AcDbXrecord
280
     1
  1
DWGPROPS COOKIE
  2

  3

  4

  6

  7

  8

  9

300
AmdtFileType=84
301
=
302
=
303
=
304
=
305
=
306
=
307
=
308
=
309
=
 40
0.4556387847222223
 41
2450294.602131481
 42
2453388.431963044
  1

 90
        1
  0
DICTIONARY
  5
6C54
102
{ACAD_REACTORS
330
6C50
102
}
330
6C50
100
AcDbDictionary
281
     1
  0
DICTIONARY
  5
6C53
102
{ACAD_REACTORS
330
6C50
102
}
330
6C50
100
AcDbDictionary
281
     1
1001
ACAD
1000
<All
  0
XRECORD
  5
4E3B
102
{ACAD_REACTORS
330
708
102
}
330
708
100
AcDbXrecord
280
     1
340
1E
  0
XRECORD
  5
4E3A
102
{ACAD_REACTORS
330
70A
102
}
330
70A
100
AcDbXrecord
280
     1
340
1A
  0
IMAGEDEF
  5
3CC
102
{ACAD_REACTORS
330
3CB
102
}
330
3CB
100
AcDbRasterImageDef
 90
        0
  1
D:\CHI\plot.bmp
 10
694.0
 20
470.0
 11
0.264550269889837
 21
0.264550269889837
280
     1
281
     2
  0
LAYOUT
  5
B34
102
{ACAD_XDICTIONARY
360
7AAD
102
}
102
{ACAD_REACTORS
330
19
102
}
330
19
100
AcDbPlotSettings
  1

  2
自動 PC-WM51 上的 Epson LQ-1070C+
  4

  6

 40
0.0
 41
0.0
 42
0.0
 43
0.0
 44
0.0
 45
0.0
 46
0.0
 47
0.0
 48
0.0
 49
0.0
140
0.0
141
0.0
142
1.0
143
1.0
 70
   688
 72
     0
 73
     0
 74
     5
  7

 75
    16
147
1.0
148
0.0
149
0.0
100
AcDbLayout
  1
Layout1
 70
     0
 71
     1
 10
0.0
 20
0.0
 11
12.0
 21
9.0
 12
101.9887994410416
 22
50.0
 32
155.412184630939
 14
1.000000000000000E+20
 24
1.000000000000000E+20
 34
1.000000000000000E+20
 15
-1.000000000000000E+20
 25
-1.000000000000000E+20
 35
-1.000000000000000E+20
146
0.0
 13
0.0
 23
0.0
 33
0.0
 16
1.0
 26
0.0
 36
0.0
 17
0.0
 27
1.0
 37
0.0
 76
     0
330
1A
  0
LAYOUT
  5
B33
102
{ACAD_XDICTIONARY
360
7AAB
102
}
102
{ACAD_REACTORS
330
19
102
}
330
19
100
AcDbPlotSettings
  1

  2
DWF eView (optimized for viewing).pc3
  4
ISO_A4_(297.00_x_210.00_MM)
  6

 40
5.793749809265136
 41
17.79375076293945
 42
5.79376220703125
 43
17.79374694824219
 44
297.0
 45
210.0
 46
29.85
 47
0.0
 48
0.0
 49
0.0
140
0.0
141
0.0
142
1.0
143
0.6382186722569885
 70
 11956
 72
     1
 73
     0
 74
     1
  7

 75
     0
147
1.566861082994661
148
-200.235718928552
149
46.05760240554945
100
AcDbLayout
  1
Model
 70
     1
 71
     0
 10
0.0
 20
0.0
 11
12.0
 21
9.0
 12
0.0
 22
0.0
 32
0.0
 14
0.0
 24
0.0
 34
0.0
 15
0.0
 25
0.0
 35
0.0
146
0.0
 13
0.0
 23
0.0
 33
0.0
 16
1.0
 26
0.0
 36
0.0
 17
0.0
 27
1.0
 37
0.0
 76
     0
330
1E
  0
MLINESTYLE
  5
17
102
{ACAD_REACTORS
330
16
102
}
330
16
100
AcDbMlineStyle
  2
STANDARD
 70
     0
  3

 62
   256
 51
90.0
 52
90.0
 71
     2
 49
0.5
 62
   256
  6
BYLAYER
 49
-0.5
 62
   256
  6
BYLAYER
  0
ACDBPLACEHOLDER
  5
B32
102
{ACAD_REACTORS
330
B31
102
}
330
B31
  0
TABLESTYLE
  5
6291
102
{ACAD_REACTORS
330
6290
102
}
330
6290
100
AcDbTableStyle
  3
Standard
 70
     0
 71
     0
 40
1.5
 41
1.5
280
     0
281
     0
  7
STANDARD
140
4.5
170
     2
 62
     0
 63
     7
283
     0
274
    -2
284
     1
 64
     0
275
    -2
285
     1
 65
     0
276
    -2
286
     1
 66
     0
277
    -2
287
     1
 67
     0
278
    -2
288
     1
 68
     0
279
    -2
289
     1
 69
     0
  7
STANDARD
140
6.0
170
     5
 62
     0
 63
     7
283
     0
274
    -2
284
     1
 64
     0
275
    -2
285
     1
 65
     0
276
    -2
286
     1
 66
     0
277
    -2
287
     1
 67
     0
278
    -2
288
     1
 68
     0
279
    -2
289
     1
 69
     0
  7
STANDARD
140
4.5
170
     5
 62
     0
 63
     7
283
     0
274
    -2
284
     1
 64
     0
275
    -2
285
     1
 65
     0
276
    -2
286
     1
 66
     0
277
    -2
287
     1
 67
     0
278
    -2
288
     1
 68
     0
279
    -2
289
     1
 69
     0
  0
DICTIONARYVAR
  5
6C72
102
{ACAD_REACTORS
330
BD2
102
}
330
BD2
100
DictionaryVariables
280
     0
  1
STANDARD
  0
DICTIONARYVAR
  5
BD4
102
{ACAD_REACTORS
330
BD2
102
}
330
BD2
100
DictionaryVariables
280
     0
  1
1
  0
DICTIONARYVAR
  5
BD3
102
{ACAD_REACTORS
330
BD2
102
}
330
BD2
100
DictionaryVariables
280
     0
  1
0
  0
DICTIONARYVAR
  5
6C73
102
{ACAD_REACTORS
330
BD2
102
}
330
BD2
100
DictionaryVariables
280
     0
  1

  0
DICTIONARY
  5
7C8
102
{ACAD_REACTORS
330
7C2
102
}
330
7C2
100
AcDbDictionary
281
     1
1001
ACAD
1000
TREAT_AS_HARD
1070
     0
  0
XRECORD
  5
629C
102
{ACAD_REACTORS
330
7C2
102
}
330
7C2
100
AcDbXrecord
280
     1
 90
-1023410169
  0
DICTIONARY
  5
7AAD
330
B34
100
AcDbDictionary
280
     1
281
     1
  3
ACAD_XREC_ROUNDTRIP
360
7AAE
  0
DICTIONARY
  5
7AAB
330
B33
100
AcDbDictionary
280
     1
281
     1
  3
ACAD_XREC_ROUNDTRIP
360
7AAC
  0
XRECORD
  5
7AAE
102
{ACAD_REACTORS
330
7AAD
102
}
330
7AAD
100
AcDbXrecord
280
     1
102
SHADEPLOT
 70
     0
102
SHADEPLOTRESLEVEL
 70
     2
102
SHADEPLOTCUSTOMDPI
 70
   300
  0
XRECORD
  5
7AAC
102
{ACAD_REACTORS
330
7AAB
102
}
330
7AAB
100
AcDbXrecord
280
     1
102
SHADEPLOT
 70
     0
102
SHADEPLOTRESLEVEL
 70
     2
102
SHADEPLOTCUSTOMDPI
 70
   300
  0
ENDSEC
  0
EOF
