  0
SECTION
  2
HEADER
  9
$ACADVER
  1
AC1015
  9
$ACADMAINTVER
 70
    20
  9
$DWGCODEPAGE
  3
ANSI_950
  9
$INSBASE
 10
0.0
 20
0.0
 30
0.0
  9
$EXTMIN
 10
-271.4488491595807
 20
61.21284468279395
 30
-0.0664155319500424
  9
$EXTMAX
 10
951.8652675066141
 20
890.9099008547778
 30
1088.268316332634
  9
$LIMMIN
 10
0.0
 20
0.0
  9
$LIMMAX
 10
396.0
 20
273.0
  9
$ORTHOMODE
 70
     1
  9
$REGENMODE
 70
     1
  9
$FILLMODE
 70
     1
  9
$QTEXTMODE
 70
     0
  9
$MIRRTEXT
 70
     1
  9
$LTSCALE
 40
25.0
  9
$ATTMODE
 70
     1
  9
$TEXTSIZE
 40
3.0
  9
$TRACEWID
 40
0.05
  9
$TEXTSTYLE
  7
DAYUS
  9
$CLAYER
  8
0
  9
$CELTYPE
  6
BYLAYER
  9
$CECOLOR
 62
   256
  9
$CELTSCALE
 40
1.0
  9
$DISPSILH
 70
     0
  9
$DIMSCALE
 40
1.0
  9
$DIMASZ
 40
2.0
  9
$DIMEXO
 40
1.0
  9
$DIMDLI
 40
5.0
  9
$DIMRND
 40
0.0
  9
$DIMDLE
 40
0.0
  9
$DIMEXE
 40
1.5
  9
$DIMTP
 40
0.1
  9
$DIMTM
 40
0.1
  9
$DIMTXT
 40
2.0
  9
$DIMCEN
 40
3.0
  9
$DIMTSZ
 40
0.0
  9
$DIMTOL
 70
     0
  9
$DIMLIM
 70
     0
  9
$DIMTIH
 70
     0
  9
$DIMTOH
 70
     0
  9
$DIMSE1
 70
     0
  9
$DIMSE2
 70
     0
  9
$DIMTAD
 70
     1
  9
$DIMZIN
 70
     8
  9
$DIMBLK
  1

  9
$DIMASO
 70
     1
  9
$DIMSHO
 70
     0
  9
$DIMPOST
  1

  9
$DIMAPOST
  1
"
  9
$DIMALT
 70
     0
  9
$DIMALTD
 70
     2
  9
$DIMALTF
 40
0.0393701
  9
$DIMLFAC
 40
1.0
  9
$DIMTOFL
 70
     1
  9
$DIMTVP
 40
0.0
  9
$DIMTIX
 70
     0
  9
$DIMSOXD
 70
     0
  9
$DIMSAH
 70
     0
  9
$DIMBLK1
  1

  9
$DIMBLK2
  1

  9
$DIMSTYLE
  2
AM_ISO
  9
$DIMCLRD
 70
   256
  9
$DIMCLRE
 70
   256
  9
$DIMCLRT
 70
   256
  9
$DIMTFAC
 40
0.71
  9
$DIMGAP
 40
0.6
  9
$DIMJUST
 70
     0
  9
$DIMSD1
 70
     0
  9
$DIMSD2
 70
     0
  9
$DIMTOLJ
 70
     0
  9
$DIMTZIN
 70
     8
  9
$DIMALTZ
 70
     0
  9
$DIMALTTZ
 70
     0
  9
$DIMUPT
 70
     0
  9
$DIMDEC
 70
     2
  9
$DIMTDEC
 70
     8
  9
$DIMALTU
 70
     2
  9
$DIMALTTD
 70
     2
  9
$DIMTXSTY
  7
STANDARD
  9
$DIMAUNIT
 70
     0
  9
$DIMADEC
 70
     0
  9
$DIMALTRND
 40
0.0
  9
$DIMAZIN
 70
     2
  9
$DIMDSEP
 70
    46
  9
$DIMATFIT
 70
     3
  9
$DIMFRAC
 70
     0
  9
$DIMLDRBLK
  1

  9
$DIMLUNIT
 70
     2
  9
$DIMLWD
 70
    -1
  9
$DIMLWE
 70
    -1
  9
$DIMTMOVE
 70
     0
  9
$LUNITS
 70
     2
  9
$LUPREC
 70
     2
  9
$SKETCHINC
 40
0.1
  9
$FILLETRAD
 40
2.5
  9
$AUNITS
 70
     0
  9
$AUPREC
 70
     0
  9
$MENU
  1
C:\CACAD\ACAD
  9
$ELEVATION
 40
0.0
  9
$PELEVATION
 40
0.0
  9
$THICKNESS
 40
0.0
  9
$LIMCHECK
 70
     0
  9
$CHAMFERA
 40
3.0
  9
$CHAMFERB
 40
3.0
  9
$CHAMFERC
 40
0.0
  9
$CHAMFERD
 40
0.0
  9
$SKPOLY
 70
     0
  9
$TDCREATE
 40
2450294.602131481
  9
$TDUCREATE
 40
2450294.268798149
  9
$TDUPDATE
 40
2453388.429960961
  9
$TDUUPDATE
 40
2453388.096627628
  9
$TDINDWG
 40
0.4555913773
  9
$TDUSRTIMER
 40
0.4555881250
  9
$USRTIMER
 70
     1
  9
$ANGBASE
 50
0.0
  9
$ANGDIR
 70
     0
  9
$PDMODE
 70
    65
  9
$PDSIZE
 40
8.3
  9
$PLINEWID
 40
0.0
  9
$SPLFRAME
 70
     0
  9
$SPLINETYPE
 70
     6
  9
$SPLINESEGS
 70
     8
  9
$HANDSEED
  5
8057
  9
$SURFTAB1
 70
     6
  9
$SURFTAB2
 70
     6
  9
$SURFTYPE
 70
     6
  9
$SURFU
 70
     6
  9
$SURFV
 70
     6
  9
$UCSBASE
  2

  9
$UCSNAME
  2

  9
$UCSORG
 10
0.0
 20
0.0
 30
0.0
  9
$UCSXDIR
 10
1.0
 20
0.0
 30
0.0
  9
$UCSYDIR
 10
0.0
 20
1.0
 30
0.0
  9
$UCSORTHOREF
  2

  9
$UCSORTHOVIEW
 70
     0
  9
$UCSORGTOP
 10
0.0
 20
0.0
 30
0.0
  9
$UCSORGBOTTOM
 10
0.0
 20
0.0
 30
0.0
  9
$UCSORGLEFT
 10
0.0
 20
0.0
 30
0.0
  9
$UCSORGRIGHT
 10
0.0
 20
0.0
 30
0.0
  9
$UCSORGFRONT
 10
0.0
 20
0.0
 30
0.0
  9
$UCSORGBACK
 10
0.0
 20
0.0
 30
0.0
  9
$PUCSBASE
  2

  9
$PUCSNAME
  2

  9
$PUCSORG
 10
0.0
 20
0.0
 30
0.0
  9
$PUCSXDIR
 10
1.0
 20
0.0
 30
0.0
  9
$PUCSYDIR
 10
0.0
 20
1.0
 30
0.0
  9
$PUCSORTHOREF
  2

  9
$PUCSORTHOVIEW
 70
     0
  9
$PUCSORGTOP
 10
0.0
 20
0.0
 30
0.0
  9
$PUCSORGBOTTOM
 10
0.0
 20
0.0
 30
0.0
  9
$PUCSORGLEFT
 10
0.0
 20
0.0
 30
0.0
  9
$PUCSORGRIGHT
 10
0.0
 20
0.0
 30
0.0
  9
$PUCSORGFRONT
 10
0.0
 20
0.0
 30
0.0
  9
$PUCSORGBACK
 10
0.0
 20
0.0
 30
0.0
  9
$USERI1
 70
     0
  9
$USERI2
 70
     0
  9
$USERI3
 70
     0
  9
$USERI4
 70
     0
  9
$USERI5
 70
     0
  9
$USERR1
 40
0.0
  9
$USERR2
 40
0.0
  9
$USERR3
 40
0.0
  9
$USERR4
 40
0.0
  9
$USERR5
 40
0.0
  9
$WORLDVIEW
 70
     1
  9
$SHADEDGE
 70
     3
  9
$SHADEDIF
 70
    70
  9
$TILEMODE
 70
     1
  9
$MAXACTVP
 70
    16
  9
$PINSBASE
 10
101.9887994410416
 20
50.0
 30
155.412184630939
  9
$PLIMCHECK
 70
     0
  9
$PEXTMIN
 10
1.000000000000000E+20
 20
1.000000000000000E+20
 30
1.000000000000000E+20
  9
$PEXTMAX
 10
-1.000000000000000E+20
 20
-1.000000000000000E+20
 30
-1.000000000000000E+20
  9
$PLIMMIN
 10
0.0
 20
0.0
  9
$PLIMMAX
 10
12.0
 20
9.0
  9
$UNITMODE
 70
     0
  9
$VISRETAIN
 70
     0
  9
$PLINEGEN
 70
     0
  9
$PSLTSCALE
 70
     0
  9
$TREEDEPTH
 70
  3020
  9
$CMLSTYLE
  2
STANDARD
  9
$CMLJUST
 70
     0
  9
$CMLSCALE
 40
1.0
  9
$PROXYGRAPHICS
 70
     1
  9
$MEASUREMENT
 70
     1
  9
$CELWEIGHT
370
    -1
  9
$ENDCAPS
280
     0
  9
$JOINSTYLE
280
     0
  9
$LWDISPLAY
290
     0
  9
$INSUNITS
 70
     4
  9
$HYPERLINKBASE
  1

  9
$STYLESHEET
  1
彩色出圖.ctb
  9
$XEDIT
290
     1
  9
$CEPSNTYPE
380
     0
  9
$PSTYLEMODE
290
     1
  9
$FINGERPRINTGUID
  2
{727C4F51-B094-446D-A919-594C4FA4BCB3}
  9
$VERSIONGUID
  2
{40AF493E-4BCD-4918-A2F5-03CC0F68D029}
  9
$EXTNAMES
290
     1
  9
$PSVPSCALE
 40
0.0
  9
$OLESTARTUP
290
     0
  0
ENDSEC
  0
SECTION
  2
CLASSES
  0
CLASS
  1
ACDBDICTIONARYWDFLT
  2
AcDbDictionaryWithDefault
  3
ObjectDBX Classes
 90
        0
280
     0
281
     0
  0
CLASS
  1
ACDBPLACEHOLDER
  2
AcDbPlaceHolder
  3
ObjectDBX Classes
 90
        0
280
     0
281
     0
  0
CLASS
  1
LAYOUT
  2
AcDbLayout
  3
ObjectDBX Classes
 90
        0
280
     0
281
     0
  0
CLASS
  1
IMAGEDEF
  2
AcDbRasterImageDef
  3
ISM
 90
        0
280
     0
281
     0
  0
CLASS
  1
ACME_DOCUMENT
  2
AcMeDbDoc
  3
AcMeServices
 90
        0
280
     0
281
     0
  0
CLASS
  1
AMGSETTINGSOBJ
  2
AmgSettingsObj
  3
"AcadM|Product Description: AutoCAD Mechanical 2000|Company: Autodesk"
 90
        0
280
     0
281
     0
  0
CLASS
  1
ACMESCOPE
  2
AcMeScope
  3
AcMeServices
 90
        0
280
     0
281
     0
  0
CLASS
  1
ACMECOMMANDHISTORY
  2
AcMeCommandHistory
  3
AcMeServices
 90
        0
280
     0
281
     0
  0
CLASS
  1
ACIMSYSVARMAN
  2
AcImSysVarManager
  3
AcMeServices
 90
        0
280
     0
281
     0
  0
CLASS
  1
ACIMREALSYSVAR
  2
AcImRealSysVar
  3
AcMeServices
 90
        0
280
     0
281
     0
  0
CLASS
  1
ACIMINTSYSVAR
  2
AcImIntSysVar
  3
AcMeServices
 90
        0
280
     0
281
     0
  0
CLASS
  1
ACMEDRAWINGMAN
  2
AcMeDrawingMan
  3
AcMeServices
 90
        0
280
     0
281
     0
  0
CLASS
  1
ACMEVIEW
  2
AcMeView
  3
AcMeServices
 90
        0
280
     0
281
     0
  0
CLASS
  1
ACDBENTITYCACHE
  2
AcMeEntityCache
  3
AcMeServices
 90
        0
280
     0
281
     0
  0
CLASS
  1
GSMANAGER
  2
AcMeGSManager
  3
AcMeServices
 90
        0
280
     0
281
     0
  0
CLASS
  1
AMDTINTERNALREACTOR
  2
AmdtInternalReactor
  3
AcMeServices
 90
        0
280
     0
281
     0
  0
CLASS
  1
ACMESTATEMGR
  2
AcMeStateMgr
  3
AcMeServices
 90
        0
280
     0
281
     0
  0
CLASS
  1
ACGREFMASTER
  2
AcGrefMaster
  3
AcAttribServices
 90
        0
280
     0
281
     0
  0
CLASS
  1
ACME_DATABASE
  2
AcMeDbDatabase
  3
AcMeServices
 90
        0
280
     0
281
     0
  0
CLASS
  1
ACRFINSADJUSTERMGR
  2
AcRfInsAdjusterMgr
  3
AcMeServices
 90
        0
280
     0
281
     0
  0
CLASS
  1
ACGREFACADMASTER
  2
AcGrefacadMaster
  3
AcGrefServices
 90
        0
280
     0
281
     0
  0
CLASS
  1
AMIMASTER
  2
AmiMaster
  3
AmiServices
 90
        0
280
     0
281
     0
  0
CLASS
  1
ACMDATADICTIONARY
  2
AcmDataDictionary
  3
"AcmSymBB|Product Description: AutoCAD Mechanical 2004 DX|Company: Autodesk"
 90
        0
280
     0
281
     0
  0
CLASS
  1
ACMDATAENTRYBLOCK
  2
AcmDataEntryBlock
  3
"AcmSymBB|Product Description: AutoCAD Mechanical 2004 DX|Company: Autodesk"
 90
    32768
280
     0
281
     0
  0
CLASS
  1
ACIMSTRSYSVAR
  2
AcImStrSysVar
  3
AcMeServices
 90
        0
280
     0
281
     0
  0
CLASS
  1
ACMSTANDARDANSI
  2
AcmStandardANSI
  3
"Amdt_StdImp|Product Description: AutoCAD Mechanical 2004 DX|Company: Autodesk"
 90
    32768
280
     0
281
     0
  0
CLASS
  1
AMGOBJPROPCFG
  2
AmgObjPropCfg
  3
"AmgLay|Product Description: AutoCAD Mechanical 2000|Company: Autodesk"
 90
        1
280
     0
281
     0
  0
CLASS
  1
ACMSURFSTANDARDANSI
  2
AcmSurfTextStdANSI
  3
"Amdt_StdImp|Product Description: AutoCAD Mechanical 2004 DX|Company: Autodesk"
 90
    32768
280
     0
281
     0
  0
CLASS
  1
ACMFCFSTANDARDANSI
  2
AcmFCFStdANSI
  3
"Amdt_StdImp|Product Description: AutoCAD Mechanical 2004 DX|Company: Autodesk"
 90
    32768
280
     0
281
     0
  0
CLASS
  1
ACMWELDSTANDARDANSI
  2
AcmWeldingStdANSI
  3
"Amdt_StdImp|Product Description: AutoCAD Mechanical 2004 DX|Company: Autodesk"
 90
    32768
280
     0
281
     0
  0
CLASS
  1
ACMIDSTANDARDANSI
  2
AcmIdStdANSI
  3
"Amdt_StdImp|Product Description: AutoCAD Mechanical 2004 DX|Company: Autodesk"
 90
    32768
280
     0
281
     0
  0
CLASS
  1
ACMDATUMSTANDARDANSI
  2
AcmDatumStdANSI
  3
"Amdt_StdImp|Product Description: AutoCAD Mechanical 2004 DX|Company: Autodesk"
 90
    32768
280
     0
281
     0
  0
CLASS
  1
ACMBOMSTANDARDANSI
  2
AcmBOMStdANSI
  3
"Amdt_StdImp|Product Description: AutoCAD Mechanical 2004 DX|Company: Autodesk"
 90
    32768
280
     0
281
     0
  0
CLASS
  1
ACMDETAILSTANDARDANSI
  2
AmdtDetailSymStdANSI
  3
"Amdt_StdImp|Product Description: AutoCAD Mechanical 2004 DX|Company: Autodesk"
 90
    32768
280
     0
281
     0
  0
CLASS
  1
ACMSECTIONSTANDARDANSI
  2
AmdtSectionSymStdANSI
  3
"Amdt_StdImp|Product Description: AutoCAD Mechanical 2004 DX|Company: Autodesk"
 90
    32768
280
     0
281
     0
  0
CLASS
  1
ACMCENTERLINESTANDARDANSI
  2
AmdtCenterLineStdANSI
  3
"Amdt_StdImp|Product Description: AutoCAD Mechanical 2004 DX|Company: Autodesk"
 90
    32768
280
     0
281
     0
  0
CLASS
  1
ACMNOTESTANDARDANSI
  2
AmdtNoteStdANSI
  3
"Amdt_StdImp|Product Description: AutoCAD Mechanical 2004 DX|Company: Autodesk"
 90
    32768
280
     0
281
     0
  0
CLASS
  1
ACAMGLAYSTD
  2
AcAmgLayStd
  3
"AcAmgLayStd|Product Description: AutoCAD Mechanical 2000|Company: Autodesk"
 90
        0
280
     0
281
     0
  0
CLASS
  1
ACAMGDIMSTD
  2
AcAmgDimStd
  3
"AcAmgDimStd|Product Description: AutoCAD Mechanical 2000|Company: Autodesk"
 90
        0
280
     0
281
     0
  0
CLASS
  1
ACAMGHOLECHARTSTDANSI
  2
AcAmgHoleChartStdANSI
  3
ACMSYMBB_MODULE_NAME
 90
    32768
280
     0
281
     0
  0
CLASS
  1
ACAMGTITLESTD
  2
AcAmgTitleStd
  3
"TITLEAPP"
 90
        0
280
     0
281
     0
  0
CLASS
  1
ACAMGFILTERDAT
  2
AcAmgFilterDat
  3
"AcadM|Product Description: AutoCAD Mechanical 2000|Company: Autodesk"
 90
    32768
280
     0
281
     0
  0
CLASS
  1
AMDTFORMULAUPDATEDISPATCHER
  2
AmdtFormulaUpdateDispatcher
  3
AcMeServices
 90
    32768
280
     0
281
     0
  0
CLASS
  1
LAYER_INDEX
  2
AcDbLayerIndex
  3
ObjectDBX Classes
 90
    32768
280
     0
281
     0
  0
CLASS
  1
IDBUFFER
  2
AcDbIdBuffer
  3
ObjectDBX Classes
 90
    32768
280
     0
281
     0
  0
CLASS
  1
DICTIONARYVAR
  2
AcDbDictionaryVar
  3
ObjectDBX Classes
 90
        0
280
     0
281
     0
  0
CLASS
  1
ACMSTANDARDISO
  2
AcmStandardISO
  3
"Amdt_StdImp|Product Description: AutoCAD Mechanical 2004 DX|Company: Autodesk"
 90
        0
280
     0
281
     0
  0
CLASS
  1
AMDTEDGESTANDARDISO
  2
AmdtEdgeStdISO
  3
"Amdt_StdImp|Product Description: AutoCAD Mechanical 2004 DX|Company: Autodesk"
 90
    32768
280
     0
281
     0
  0
CLASS
  1
ACMSURFSTANDARDISO
  2
AcmSurfTextStdISO
  3
"Amdt_StdImp|Product Description: AutoCAD Mechanical 2004 DX|Company: Autodesk"
 90
        0
280
     0
281
     0
  0
CLASS
  1
ACMFCFSTANDARDISO
  2
AcmFCFStdISO
  3
"Amdt_StdImp|Product Description: AutoCAD Mechanical 2004 DX|Company: Autodesk"
 90
        0
280
     0
281
     0
  0
CLASS
  1
ACMWELDSTANDARDISO
  2
AcmWeldingStdISO
  3
"Amdt_StdImp|Product Description: AutoCAD Mechanical 2004 DX|Company: Autodesk"
 90
        0
280
     0
281
     0
  0
CLASS
  1
ACMIDSTANDARDISO
  2
AcmIdStdISO
  3
"Amdt_StdImp|Product Description: AutoCAD Mechanical 2004 DX|Company: Autodesk"
 90
        0
280
     0
281
     0
  0
CLASS
  1
ACMDATUMSTANDARDISO
  2
AcmDatumStdISO
  3
"Amdt_StdImp|Product Description: AutoCAD Mechanical 2004 DX|Company: Autodesk"
 90
        0
280
     0
281
     0
  0
CLASS
  1
ACMBOMSTANDARDISO
  2
AcmBOMStdISO
  3
"Amdt_StdImp|Product Description: AutoCAD Mechanical 2004 DX|Company: Autodesk"
 90
        0
280
     0
281
     0
  0
CLASS
  1
ACMDETAILSTANDARDISO
  2
AmdtDetailSymStdISO
  3
"Amdt_StdImp|Product Description: AutoCAD Mechanical 2004 DX|Company: Autodesk"
 90
        0
280
     0
281
     0
  0
CLASS
  1
ACMSECTIONSTANDARDISO
  2
AmdtSectionSymStdISO
  3
"Amdt_StdImp|Product Description: AutoCAD Mechanical 2004 DX|Company: Autodesk"
 90
        0
280
     0
281
     0
  0
CLASS
  1
ACMCENTERLINESTANDARDISO
  2
AmdtCenterLineStdISO
  3
"Amdt_StdImp|Product Description: AutoCAD Mechanical 2004 DX|Company: Autodesk"
 90
        0
280
     0
281
     0
  0
CLASS
  1
ACMNOTESTANDARDISO
  2
AmdtNoteStdISO
  3
"Amdt_StdImp|Product Description: AutoCAD Mechanical 2004 DX|Company: Autodesk"
 90
        0
280
     0
281
     0
  0
CLASS
  1
ACAMGHOLECHARTSTDISO
  2
AcAmgHoleChartStdISO
  3
ACMSYMBB_MODULE_NAME
 90
        0
280
     0
281
     0
  0
CLASS
  1
AMDTNOTE
  2
AmdtNote
  3
"AcmSymBB|Product Description: AutoCAD Mechanical 2004 DX|Company: Autodesk"
 90
    33791
280
     0
281
     1
  0
CLASS
  1
STDPART2D
  2
AmgStdPart
  3
"AmgStdPart|Product Description: AutoCAD Mechanical 2000|Company: Autodesk"
 90
    33791
280
     0
281
     1
  0
CLASS
  1
TABLESTYLE
  2
AcDbTableStyle
  3
ObjectDBX Classes
 90
     2047
280
     0
281
     0
  0
CLASS
  1
AM_DRAWING_MGR
  2
AcDmDwgMgr
  3
AcMechDwgViewMgmt
 90
        0
280
     0
281
     0
  0
CLASS
  1
AM_DWG_DOCUMENT
  2
AcDmDwgDocument
  3
AcMechDwgViewMgmt
 90
        0
280
     0
281
     0
  0
CLASS
  1
AM_DWG_SHEET
  2
AcDmSheet
  3
AcMechDwgViewMgmt
 90
        0
280
     0
281
     0
  0
CLASS
  1
AM_VIEWDIMPARMAP
  2
AcDmViewDimParMap
  3
AcMechDwgViewMgmt
 90
        0
280
     0
281
     0
  0
CLASS
  1
AM_DWGMGR_NAME
  2
AcDmDwgMgrName
  3
AcMechDwgViewMgmt
 90
        0
280
     0
281
     0
  0
CLASS
  1
AMDTMENUSTATEMGR
  2
AmdtMenuStateMgr
  3
McadcomServices
 90
        0
280
     0
281
     0
  0
CLASS
  1
AMDTMCOMMENUSTATE
  2
AmdtMcomMenuState
  3
McadcomServices
 90
        0
280
     0
281
     0
  0
CLASS
  1
MAPIAMMOUDLE
  2
MApiAmModule
  3
MApiAmServices
 90
        0
280
     0
281
     0
  0
CLASS
  1
AMDTADMENUSTATE
  2
AmdtAdMenuState
  3
DesignerServices
 90
        0
280
     0
281
     0
  0
CLASS
  1
ADAPPL
  2
AcAdAppl
  3
DesignerServices
 90
        0
280
     0
281
     0
  0
CLASS
  1
DEPMGR
  2
AcAdDepMgr
  3
DesignerServices
 90
        0
280
     0
281
     0
  0
CLASS
  1
PARAMMGR
  2
AcAdParamMgr
  3
DesignerServices
 90
        0
280
     0
281
     0
  0
CLASS
  1
PARAMSCOPE
  2
AcAdParamScope
  3
DesignerServices
 90
        0
280
     0
281
     0
  0
CLASS
  1
NAMEDAPPL
  2
AcAdNamedAppl
  3
DesignerServices
 90
        0
280
     0
281
     0
  0
CLASS
  1
AMDTDMMENUSTATE
  2
AmdtDmMenuState
  3
AcMechDwgViewMgmt
 90
        0
280
     0
281
     0
  0
CLASS
  1
AMDTAMMENUSTATE
  2
AmdtAmMenuState
  3
DesignerAssemblies
 90
        0
280
     0
281
     0
  0
CLASS
  1
ACAMPROJECT
  2
AcAmProject
  3
DesignerAssemblies
 90
        0
280
     0
281
     0
  0
CLASS
  1
ACAMGRCOMPDEF
  2
AcAmGrCompDef
  3
DesignerAssemblies
 90
        0
280
     0
281
     0
  0
CLASS
  1
ACCMCONTEXT
  2
AcCmContext
  3
DesignerAssemblies
 90
        0
280
     0
281
     0
  0
CLASS
  1
ACAMCOMPDEF
  2
AcAmCompDef
  3
DesignerAssemblies
 90
        0
280
     0
281
     0
  0
CLASS
  1
ACAMCOMPDEFMGR
  2
AcAmCompDefMgr
  3
DesignerAssemblies
 90
        0
280
     0
281
     0
  0
CLASS
  1
AMCONTEXTMGR
  2
AcAmContextMgr
  3
DesignerAssemblies
 90
        0
280
     0
281
     0
  0
CLASS
  1
ACAMCONTEXTMODELER
  2
AcAmContextModeler
  3
DesignerAssemblies
 90
        0
280
     0
281
     0
  0
CLASS
  1
ACMTHREADLINESTANDARDISO
  2
AmdtThreadLineStdISO
  3
"Amdt_StdImp|Product Description: AutoCAD Mechanical 2004 DX|Company: Autodesk"
 90
        0
280
     0
281
     0
  0
CLASS
  1
ACMTHREADLINESTANDARDANSI
  2
AmdtThreadLineStdANSI
  3
"Amdt_StdImp|Product Description: AutoCAD Mechanical 2004 DX|Company: Autodesk"
 90
    32768
280
     0
281
     0
  0
CLASS
  1
CATALOGSTATE
  2
AcAmCatalogState
  3
DesignerAssemblies
 90
        0
280
     0
281
     0
  0
CLASS
  1
ACAMGRCOMPDEFSET
  2
AcAmGrCompDefSet
  3
DesignerAssemblies
 90
        0
280
     0
281
     0
  0
CLASS
  1
AMDTBROWSERDBTAB
  2
AmdtBrowserDbTab
  3
McadcomServices
 90
        0
280
     0
281
     0
  0
CLASS
  1
CBROWSERAPPOBJECT
  2
CBrowserAppObject
  3
McadcomServices
 90
        0
280
     0
281
     0
  0
CLASS
  1
DM_PLACEHOLDER
  2
AcDmSelsetPlaceholder
  3
AcMechDwgViewMgmt
 90
        0
280
     0
281
     0
  0
CLASS
  1
VAACXREFPANELOBJECT
  2
VaAcXREFPanelObject
  3
VAAC_ADDIN
 90
        0
280
     0
281
     0
  0
CLASS
  1
VAACIMAGEINVENTORY
  2
VaAcImageInventory
  3
VAAC_ADDIN
 90
        0
280
     0
281
     0
  0
CLASS
  1
SORTENTSTABLE
  2
AcDbSortentsTable
  3
ObjectDBX Classes
 90
    32768
280
     0
281
     0
  0
CLASS
  1
ACRFATTGENMGR
  2
AcRfAttGeneralMgr
  3
AcAttribServices
 90
        0
280
     0
281
     0
  0
CLASS
  1
AMDTEDGESTANDARDISO13715
  2
AmdtEdgeStdISO13715
  3
"Amdt_StdImp|Product Description: AutoCAD Mechanical 2004 DX|Company: Autodesk"
 90
        0
280
     0
281
     0
  0
CLASS
  1
AMDTNOTETEMPLATEDB
  2
AmdtNoteTemplateDB
  3
AMDT_STDIMP_MODULE_NAME
 90
        0
280
     0
281
     0
  0
ENDSEC
  0
SECTION
  2
TABLES
  0
TABLE
  2
VPORT
  5
8
330
0
100
AcDbSymbolTable
 70
     3
  0
VPORT
  5
8050
330
8
100
AcDbSymbolTableRecord
100
AcDbViewportTableRecord
  2
*Active
 70
     0
 10
0.0
 20
0.0
 11
1.0
 21
1.0
 12
340.2082063254409
 22
476.0468438636374
 13
0.0
 23
0.0
 14
2.5
 24
2.5
 15
10.0
 25
10.0
 16
0.0
 26
0.0
 36
1.0
 17
0.0
 27
0.0
 37
0.0
 40
839.4267830081025
 41
1.81766917293233
 42
50.0
 43
0.0
 44
0.0
 50
0.0
 51
0.0
 71
     0
 72
   100
 73
     1
 74
     1
 75
     0
 76
     0
 77
     0
 78
     0
281
     0
 65
     1
110
0.0
120
0.0
130
0.0
111
1.0
121
0.0
131
0.0
112
0.0
122
1.0
132
0.0
 79
     0
146
0.0
  0
ENDTAB
  0
TABLE
  2
LTYPE
  5
5
330
0
100
AcDbSymbolTable
 70
    16
  0
LTYPE
  5
13
330
5
100
AcDbSymbolTableRecord
100
AcDbLinetypeTableRecord
  2
BYBLOCK
 70
     0
  3

 72
    65
 73
     0
 40
0.0
  0
LTYPE
  5
14
330
5
100
AcDbSymbolTableRecord
100
AcDbLinetypeTableRecord
  2
BYLAYER
 70
     0
  3

 72
    65
 73
     0
 40
0.0
  0
LTYPE
  5
15
330
5
100
AcDbSymbolTableRecord
100
AcDbLinetypeTableRecord
  2
CONTINUOUS
 70
     0
  3
Solid line
 72
    65
 73
     0
 40
0.0
  0
LTYPE
  5
23
330
5
100
AcDbSymbolTableRecord
100
AcDbLinetypeTableRecord
  2
HIDDEN
 70
     0
  3
_ _ _ _ _ _ _ _ _ _ _ _ _ _ _ _ _ _ _ _ _ _ _
 72
    65
 73
     2
 40
0.375
 49
0.25
 74
     0
 49
-0.125
 74
     0
  0
LTYPE
  5
24
330
5
100
AcDbSymbolTableRecord
100
AcDbLinetypeTableRecord
  2
CENTER
 70
     0
  3
____ _ ____ _ ____ _ ____ _ ____ _ ____ _ ____
 72
    65
 73
     4
 40
2.0
 49
1.25
 74
     0
 49
-0.25
 74
     0
 49
0.25
 74
     0
 49
-0.25
 74
     0
  0
LTYPE
  5
7CE
330
5
100
AcDbSymbolTableRecord
100
AcDbLinetypeTableRecord
  2
AMCONSTR
 70
     0
  3
_______________________
 72
    65
 73
     2
 40
9999.0
 49
9999.0
 74
     0
 49
0.0
 74
     0
  0
LTYPE
  5
7CF
330
5
100
AcDbSymbolTableRecord
100
AcDbLinetypeTableRecord
  2
AM_ISO08W050X2
 70
     0
  3
__ . __ . __ . __ . __ . __
 72
    65
 73
     4
 40
9.0
 49
6.0
 74
     0
 49
-0.75
 74
     0
 49
1.5
 74
     0
 49
-0.75
 74
     0
  0
LTYPE
  5
7D4
330
5
100
AcDbSymbolTableRecord
100
AcDbLinetypeTableRecord
  2
PHANTOM2
 70
     0
  3
Phantom (.5x) ___ _ _ ___ _ _ ___ _ _ ___ _ _
 72
    65
 73
     6
 40
1.25
 49
0.625
 74
     0
 49
-0.125
 74
     0
 49
0.125
 74
     0
 49
-0.125
 74
     0
 49
0.125
 74
     0
 49
-0.125
 74
     0
  0
LTYPE
  5
7E3
330
5
100
AcDbSymbolTableRecord
100
AcDbLinetypeTableRecord
  2
ACANSTGB
 70
     0
  3
__ . . __ . .
 72
    65
 73
     6
 40
0.35433070866
 49
0.15748031496
 74
     0
 49
-0.03937007874
 74
     0
 49
0.03937007874
 74
     0
 49
-0.03937007874
 74
     0
 49
0.03937007874
 74
     0
 49
-0.03937007874
 74
     0
  0
LTYPE
  5
7E4
330
5
100
AcDbSymbolTableRecord
100
AcDbLinetypeTableRecord
  2
ACANSTGL
 70
     0
  3
_ _ _ _ _
 72
    65
 73
     2
 40
0.11811023622
 49
0.07874015748
 74
     0
 49
-0.03937007874
 74
     0
  0
LTYPE
  5
C13
330
5
100
AcDbSymbolTableRecord
100
AcDbLinetypeTableRecord
  2
ACISOWELD
 70
     0
  3
_ _ _ _ _
 72
    65
 73
     2
 40
2.0
 49
2.0
 74
     0
 49
-1.0
 74
     0
  0
LTYPE
  5
C14
330
5
100
AcDbSymbolTableRecord
100
AcDbLinetypeTableRecord
  2
ACISOTGB
 70
     0
  3
__ . . __ . .
 72
    65
 73
     6
 40
9.0
 49
4.0
 74
     0
 49
-1.0
 74
     0
 49
1.0
 74
     0
 49
-1.0
 74
     0
 49
1.0
 74
     0
 49
-1.0
 74
     0
  0
LTYPE
  5
C15
330
5
100
AcDbSymbolTableRecord
100
AcDbLinetypeTableRecord
  2
ACISOTGL
 70
     0
  3
_ _ _ _ _
 72
    65
 73
     2
 40
3.0
 49
2.0
 74
     0
 49
-1.0
 74
     0
  0
LTYPE
  5
16FD
330
5
100
AcDbSymbolTableRecord
100
AcDbLinetypeTableRecord
  2
AM_ISO02W050
 70
     0
  3
__ __ __ __ __ __ __ __ __ __ __ __ __ __ __
 72
    65
 73
     2
 40
7.5
 49
6.0
 74
     0
 49
-1.5
 74
     0
  0
LTYPE
  5
16FE
330
5
100
AcDbSymbolTableRecord
100
AcDbLinetypeTableRecord
  2
AM_ISO08W050
 70
     0
  3
____ . ____ . ____ . ____ . ____ . ____ . ____
 72
    65
 73
     4
 40
18.0
 49
12.0
 74
     0
 49
-1.5
 74
     0
 49
3.0
 74
     0
 49
-1.5
 74
     0
  0
LTYPE
  5
16FF
330
5
100
AcDbSymbolTableRecord
100
AcDbLinetypeTableRecord
  2
AM_ISO09W050
 70
     0
  3
_____ . . _____ . . _____ . . ____ .. ____
 72
    65
 73
     6
 40
22.5
 49
12.0
 74
     0
 49
-1.5
 74
     0
 49
3.0
 74
     0
 49
-1.5
 74
     0
 49
3.0
 74
     0
 49
-1.5
 74
     0
  0
LTYPE
  5
1700
330
5
100
AcDbSymbolTableRecord
100
AcDbLinetypeTableRecord
  2
AM_ISO02W050x2
 70
     0
  3
 _ _ _ _ _ _ _ _ _ _ _ _
 72
    65
 73
     2
 40
3.75
 49
3.0
 74
     0
 49
-0.75
 74
     0
  0
LTYPE
  5
1701
330
5
100
AcDbSymbolTableRecord
100
AcDbLinetypeTableRecord
  2
Amzigzag
 70
     0
  3
/\/-/\/-/\/-/\/-/\/-/\/
 72
    65
 73
     2
 40
11.0001
 49
0.0001
 74
     4
 75
   135
340
7D2
 46
0.04
 50
0.0
 44
0.0
 45
0.0
 49
-11.0
 74
     0
  0
ENDTAB
  0
TABLE
  2
LAYER
  5
2
102
{ACAD_XDICTIONARY
360
6C50
102
}
330
0
100
AcDbSymbolTable
 70
     7
  0
LAYER
  5
10
330
2
100
AcDbSymbolTableRecord
100
AcDbLayerTableRecord
  2
0
 70
     0
 62
     7
  6
CONTINUOUS
370
    -3
390
B32
  0
LAYER
  5
26
330
2
100
AcDbSymbolTableRecord
100
AcDbLayerTableRecord
  2
DEFPOINTS
 70
     0
 62
     7
  6
CONTINUOUS
290
     0
370
    -3
390
B32
  0
LAYER
  5
516
330
2
100
AcDbSymbolTableRecord
100
AcDbLayerTableRecord
  2
ASHADE
 70
     0
 62
     7
  6
CONTINUOUS
370
    -3
390
B32
  0
LAYER
  5
7F7
330
2
100
AcDbSymbolTableRecord
100
AcDbLayerTableRecord
  2
LOGO
 70
     0
 62
     7
  6
CONTINUOUS
370
    -3
390
B32
  0
LAYER
  5
2E05
330
2
100
AcDbSymbolTableRecord
100
AcDbLayerTableRecord
  2
CENTER
 70
     0
 62
     1
  6
CENTER
370
    -3
390
B32
  0
LAYER
  5
62F0
330
2
100
AcDbSymbolTableRecord
100
AcDbLayerTableRecord
  2
UMCL2
 70
     0
 62
     5
  6
CONTINUOUS
370
    -3
390
B32
  0
LAYER
  5
62F1
330
2
100
AcDbSymbolTableRecord
100
AcDbLayerTableRecord
  2
UMCL1
 70
     0
 62
     7
  6
CONTINUOUS
370
    -3
390
B32
  0
ENDTAB
  0
TABLE
  2
STYLE
  5
3
330
0
100
AcDbSymbolTable
 70
    10
  0
STYLE
  5
11
330
3
100
AcDbSymbolTableRecord
100
AcDbTextStyleTableRecord
  2
STANDARD
 70
     0
 40
0.0
 41
1.0
 50
0.0
 71
     0
 42
3.5
  3
ISOCP.SHX
  4

  0
STYLE
  5
22
330
3
100
AcDbSymbolTableRecord
100
AcDbTextStyleTableRecord
  2
DAYUS
 70
     0
 40
0.0
 41
1.0
 50
0.0
 71
     0
 42
3.0
  3
simplex
  4
dayus
  0
STYLE
  5
27B
330
3
100
AcDbSymbolTableRecord
100
AcDbTextStyleTableRecord
  2
CHINESET
 70
     0
 40
0.0
 41
1.0
 50
0.0
 71
     0
 42
4.0
  3
simplex.shx
  4
chineset.shx
  0
STYLE
  5
7D2
330
3
100
AcDbSymbolTableRecord
100
AcDbTextStyleTableRecord
  2

 70
     1
 40
0.0
 41
1.0
 50
0.0
 71
     0
 42
4.0
  3
ltypeshp.shx
  4

  0
STYLE
  5
7D7
330
3
100
AcDbSymbolTableRecord
100
AcDbTextStyleTableRecord
  2
ACANSTS
 70
     0
 40
1.0
 41
1.0
 50
0.0
 71
     0
 42
4.0
  3
romans.shx
  4
chineset.shx
  0
STYLE
  5
7E2
330
3
100
AcDbSymbolTableRecord
100
AcDbTextStyleTableRecord
  2
ACANSGDT
 70
     0
 40
0.0
 41
1.0
 50
0.0
 71
     0
 42
4.0
  3
amgdtans.shx
  4

  0
STYLE
  5
C19
330
3
100
AcDbSymbolTableRecord
100
AcDbTextStyleTableRecord
  2
ACISOTS
 70
     0
 40
1.0
 41
1.0
 50
0.0
 71
     0
 42
2.5
  3
isocp.shx
  4
chineset.shx
  0
STYLE
  5
C1A
330
3
100
AcDbSymbolTableRecord
100
AcDbTextStyleTableRecord
  2
ACISOGDT
 70
     0
 40
0.0
 41
1.0
 50
0.0
 71
     0
 42
2.5
  3
amgdt.shx
  4

  0
STYLE
  5
7336
330
3
100
AcDbSymbolTableRecord
100
AcDbTextStyleTableRecord
  2
ROMANS
 70
     0
 40
0.0
 41
1.0
 50
0.0
 71
     0
 42
3.0
  3
ROMANS.SHX
  4
OBK
  0
ENDTAB
  0
TABLE
  2
VIEW
  5
6
330
0
100
AcDbSymbolTable
 70
     0
  0
ENDTAB
  0
TABLE
  2
UCS
  5
7
330
0
100
AcDbSymbolTable
 70
     0
  0
ENDTAB
  0
TABLE
  2
APPID
  5
9
330
0
100
AcDbSymbolTable
 70
    29
  0
APPID
  5
12
330
9
100
AcDbSymbolTableRecord
100
AcDbRegAppTableRecord
  2
ACAD
 70
     0
  0
APPID
  5
514
330
9
100
AcDbSymbolTableRecord
100
AcDbRegAppTableRecord
  2
AVE_RENDER
 70
     0
  0
APPID
  5
515
330
9
100
AcDbSymbolTableRecord
100
AcDbRegAppTableRecord
  2
AVE_ENTITY_MATERIAL
 70
     0
  0
APPID
  5
522
330
9
100
AcDbSymbolTableRecord
100
AcDbRegAppTableRecord
  2
AVE_FINISH
 70
     0
  0
APPID
  5
523
330
9
100
AcDbSymbolTableRecord
100
AcDbRegAppTableRecord
  2
AVE_MATERIAL
 70
     0
  0
APPID
  5
524
330
9
100
AcDbSymbolTableRecord
100
AcDbRegAppTableRecord
  2
AVE_GLOBAL
 70
     0
  0
APPID
  5
7AD
330
9
100
AcDbSymbolTableRecord
100
AcDbRegAppTableRecord
  2
MCAD_NO_VIS
 70
     0
  0
APPID
  5
7AE
330
9
100
AcDbSymbolTableRecord
100
AcDbRegAppTableRecord
  2
ACAD_TEMP_GRAPHIC
 70
     0
  0
APPID
  5
7BF
330
9
100
AcDbSymbolTableRecord
100
AcDbRegAppTableRecord
  2
ACATTRIBSERVICES
 70
     0
  0
APPID
  5
C22
330
9
100
AcDbSymbolTableRecord
100
AcDbRegAppTableRecord
  2
GENIUS_GENODEF_13
 70
     0
  0
APPID
  5
C23
330
9
100
AcDbSymbolTableRecord
100
AcDbRegAppTableRecord
  2
GENIUS_GENOREF_13
 70
     0
  0
APPID
  5
C24
330
9
100
AcDbSymbolTableRecord
100
AcDbRegAppTableRecord
  2
GENIUS_GENOBJ-N-CEN_13
 70
     0
  0
APPID
  5
16D2
330
9
100
AcDbSymbolTableRecord
100
AcDbRegAppTableRecord
  2
GENIUS_GENDTOL_13
 70
     0
  0
APPID
  5
353F
330
9
100
AcDbSymbolTableRecord
100
AcDbRegAppTableRecord
  2
GENIUS_GENDIMSH_14
 70
     0
  0
APPID
  5
4D84
330
9
100
AcDbSymbolTableRecord
100
AcDbRegAppTableRecord
  2
GEVID1082602174
 70
     0
  0
APPID
  5
4D85
330
9
100
AcDbSymbolTableRecord
100
AcDbRegAppTableRecord
  2
GEVDC
 70
     0
  0
APPID
  5
4D88
330
9
100
AcDbSymbolTableRecord
100
AcDbRegAppTableRecord
  2
GENIUS_GENBH_13
 70
     0
  0
APPID
  5
4D8E
330
9
100
AcDbSymbolTableRecord
100
AcDbRegAppTableRecord
  2
GENIUS_GENOLIS_13
 70
     0
  0
APPID
  5
4D8F
330
9
100
AcDbSymbolTableRecord
100
AcDbRegAppTableRecord
  2
GENIUS_GENOENT_13
 70
     0
  0
APPID
  5
4D90
330
9
100
AcDbSymbolTableRecord
100
AcDbRegAppTableRecord
  2
GENIUS_GENOBJ-NBEHI-BHF_13
 70
     0
  0
APPID
  5
4D92
330
9
100
AcDbSymbolTableRecord
100
AcDbRegAppTableRecord
  2
GENIUS_GENOBJ-NBEHI-BHB_13
 70
     0
  0
APPID
  5
5F39
330
9
100
AcDbSymbolTableRecord
100
AcDbRegAppTableRecord
  2
GEVID1082701535
 70
     0
  0
APPID
  5
5F3B
330
9
100
AcDbSymbolTableRecord
100
AcDbRegAppTableRecord
  2
GEVRADREF
 70
     0
  0
APPID
  5
62C2
330
9
100
AcDbSymbolTableRecord
100
AcDbRegAppTableRecord
  2
AD_DRAW
 70
     0
  0
APPID
  5
62E0
330
9
100
AcDbSymbolTableRecord
100
AcDbRegAppTableRecord
  2
DESIGNERASSEMBLIES
 70
     0
  0
APPID
  5
62E6
330
9
100
AcDbSymbolTableRecord
100
AcDbRegAppTableRecord
  2
ACADM_DIM_EDIT
 70
     0
  0
APPID
  5
62E7
330
9
100
AcDbSymbolTableRecord
100
AcDbRegAppTableRecord
  2
AMDT_DM_ADJ
 70
     0
  0
APPID
  5
67CA
330
9
100
AcDbSymbolTableRecord
100
AcDbRegAppTableRecord
  2
GENIUS_GENREC_14
 70
     0
  0
APPID
  5
67CB
330
9
100
AcDbSymbolTableRecord
100
AcDbRegAppTableRecord
  2
GENIUS_GENOBJ-N-REC_13
 70
     0
  0
ENDTAB
  0
TABLE
  2
DIMSTYLE
  5
A
330
0
100
AcDbSymbolTable
 70
    15
100
AcDbDimStyleTable
 71
     1
340
C1B
  0
DIMSTYLE
105
7E8
330
A
100
AcDbSymbolTableRecord
100
AcDbDimStyleTableRecord
  2
AM_ANSI
 70
     0
  4
mm
 41
0.1
 42
0.05
 43
0.5
 44
0.1
 47
0.1
 48
0.1
 78
     7
140
0.12
141
0.0
146
0.71
147
0.06
176
   256
177
   256
178
     2
274
     4
284
     7
340
11
  0
DIMSTYLE
105
7E9
330
A
100
AcDbSymbolTableRecord
100
AcDbDimStyleTableRecord
  2
AM_ANSI$3
 70
     0
  4
mm
 41
0.1
 42
0.05
 43
0.5
 44
0.1
 47
0.1
 48
0.1
 78
     7
140
0.12
141
0.0
146
0.71
147
0.06
176
   256
177
   256
178
     2
274
     4
284
     7
288
     1
340
11
  0
DIMSTYLE
105
7EA
330
A
100
AcDbSymbolTableRecord
100
AcDbDimStyleTableRecord
  2
AM_ANSI$4
 70
     0
  4
mm
 41
0.1
 42
0.05
 43
0.5
 44
0.1
 47
0.1
 48
0.1
 78
     7
140
0.12
141
0.0
146
0.71
147
0.06
176
   256
177
   256
178
     2
274
     4
284
     7
288
     1
340
11
  0
DIMSTYLE
105
7EB
330
A
100
AcDbSymbolTableRecord
100
AcDbDimStyleTableRecord
  2
AM_ANSI$7
 70
     0
  4
mm
 41
0.1
 42
0.05
 43
0.5
 44
0.1
 47
0.1
 48
0.1
 78
     7
140
0.24
141
0.0
146
0.71
147
0.06
176
   256
177
   256
178
     2
274
     4
284
     7
340
11
  0
DIMSTYLE
105
7EC
330
A
100
AcDbSymbolTableRecord
100
AcDbDimStyleTableRecord
  2
AM_ANSI$SF
 70
     0
  4
mm
 41
0.1
 42
0.05
 43
0.5
 44
0.1
 47
0.1
 48
0.1
 75
     1
 76
     1
 78
     7
140
0.12
141
0.0
146
0.71
147
0.06
176
   256
177
   256
178
     2
274
     4
284
     7
340
11
  0
DIMSTYLE
105
7F1
330
A
100
AcDbSymbolTableRecord
100
AcDbDimStyleTableRecord
  2
AM_ANSI$SH
 70
     0
  4
mm
 41
0.1
 42
0.05
 43
0.5
 44
0.1
 47
0.1
 48
0.1
 75
     1
 76
     1
 78
     7
140
0.12
141
0.0
146
0.71
147
0.06
173
     1
176
   256
177
   256
178
     2
274
     4
284
     7
340
11
341
7ED
343
7ED
  0
DIMSTYLE
105
C1B
330
A
100
AcDbSymbolTableRecord
100
AcDbDimStyleTableRecord
  2
AM_ISO
 70
     0
  4
"
 41
2.0
 42
1.0
 43
5.0
 44
1.5
 47
0.1
 48
0.1
 73
     0
 74
     0
 77
     1
 78
     8
 79
     2
140
2.0
141
3.0
143
0.0393701
146
0.71
147
0.6
172
     1
176
   256
177
   256
178
   256
271
     2
272
     2
283
     0
284
     8
340
11
371
    -1
372
    -1
  0
DIMSTYLE
105
C1C
330
A
100
AcDbSymbolTableRecord
100
AcDbDimStyleTableRecord
  2
AM_ISO$3
 70
     0
  4
"
 41
2.0
 42
1.0
 43
5.0
 44
1.5
 47
0.1
 48
0.1
 73
     0
 77
     1
 78
     8
 79
     2
140
2.0
141
3.0
143
0.0393701
146
0.71
147
0.6
176
   256
177
   256
178
   256
271
     2
272
     2
283
     0
284
     8
288
     1
289
     0
340
11
371
    -1
372
    -1
  0
DIMSTYLE
105
C1D
330
A
100
AcDbSymbolTableRecord
100
AcDbDimStyleTableRecord
  2
AM_ISO$4
 70
     0
  4
"
 41
2.0
 42
1.0
 43
5.0
 44
1.5
 47
0.1
 48
0.1
 73
     0
 77
     1
 78
     8
 79
     2
140
2.0
141
3.0
143
0.0393701
146
0.71
147
0.6
176
   256
177
   256
178
   256
271
     2
272
     2
283
     0
284
     8
288
     1
289
     0
340
11
371
    -1
372
    -1
  0
DIMSTYLE
105
C1E
330
A
100
AcDbSymbolTableRecord
100
AcDbDimStyleTableRecord
  2
AM_ISO$6
 70
     0
  4
"
 41
2.0
 42
1.0
 43
5.0
 44
1.5
 47
0.1
 48
0.1
 73
     0
 74
     0
 78
     8
 79
     2
140
2.0
141
3.0
143
0.0393701
146
0.71
147
0.6
172
     1
176
   256
177
   256
178
   256
271
     2
272
     2
283
     0
284
     8
340
11
371
    -1
372
    -1
  0
DIMSTYLE
105
C1F
330
A
100
AcDbSymbolTableRecord
100
AcDbDimStyleTableRecord
  2
AM_ISO$7
 70
     0
  4
"
 41
2.0
 42
1.0
 43
5.0
 44
1.5
 47
0.1
 48
0.1
 73
     0
 74
     0
 77
     1
 78
     8
 79
     2
140
5.0
141
3.0
143
0.0393701
146
0.71
147
0.6
172
     1
176
   256
177
   256
178
   256
271
     2
272
     2
283
     0
284
     8
340
11
371
    -1
372
    -1
  0
DIMSTYLE
105
C20
330
A
100
AcDbSymbolTableRecord
100
AcDbDimStyleTableRecord
  2
AM_ISO$SF
 70
     0
  4
"
 41
2.5
 42
1.0
 43
10.0
 44
1.0
 47
0.1
 48
0.1
 73
     0
 74
     0
 75
     1
 76
     1
 77
     1
 78
     8
 79
     2
140
3.5
141
0.0
143
0.0393701
146
0.71
147
1.5
172
     1
176
   256
177
   256
178
     2
271
     2
272
     3
274
     4
283
     0
284
     8
340
11
371
    -1
372
    -1
  0
DIMSTYLE
105
C21
330
A
100
AcDbSymbolTableRecord
100
AcDbDimStyleTableRecord
  2
AM_ISO$SH
 70
     0
  4
"
 41
2.5
 42
1.0
 43
10.0
 44
1.0
 47
0.1
 48
0.1
 73
     0
 74
     0
 75
     1
 76
     1
 77
     1
 78
     8
 79
     2
140
3.5
141
0.0
143
0.0393701
144
2.0
146
0.71
147
1.5
172
     1
173
     1
176
   256
177
   256
178
     2
271
     2
272
     3
274
     4
283
     0
284
     8
340
11
341
7ED
343
7ED
371
    -1
372
    -1
  0
DIMSTYLE
105
62F4
330
A
100
AcDbSymbolTableRecord
100
AcDbDimStyleTableRecord
  2
Standard
 70
     0
340
11
  0
ENDTAB
  0
TABLE
  2
BLOCK_RECORD
  5
1
330
0
100
AcDbSymbolTable
 70
     5
  0
BLOCK_RECORD
  5
1E
102
{ACAD_XDICTIONARY
360
708
102
}
330
1
100
AcDbSymbolTableRecord
100
AcDbBlockTableRecord
  2
*MODEL_SPACE
340
B33
  0
BLOCK_RECORD
  5
1A
102
{ACAD_XDICTIONARY
360
70A
102
}
330
1
100
AcDbSymbolTableRecord
100
AcDbBlockTableRecord
  2
*PAPER_SPACE
340
B34
  0
BLOCK_RECORD
  5
517
330
1
100
AcDbSymbolTableRecord
100
AcDbBlockTableRecord
  2
AVE_RENDER
340
0
102
{BLKREFS
331
51A
331
51B
331
51C
331
51D
331
51E
331
51F
331
520
331
521
102
}
  0
BLOCK_RECORD
  5
525
330
1
100
AcDbSymbolTableRecord
100
AcDbBlockTableRecord
  2
AVE_GLOBAL
340
0
102
{BLKREFS
331
528
102
}
  0
BLOCK_RECORD
  5
7ED
330
1
100
AcDbSymbolTableRecord
100
AcDbBlockTableRecord
  2
GENAXEH
340
0
  0
ENDTAB
  0
ENDSEC
  0
SECTION
  2
BLOCKS
  0
BLOCK
  5
29
330
1E
100
AcDbEntity
  8
0
100
AcDbBlockBegin
  2
*MODEL_SPACE
 70
     0
 10
0.0
 20
0.0
 30
0.0
  3
*MODEL_SPACE
  1

  0
ENDBLK
  5
2A
330
1E
100
AcDbEntity
  8
0
100
AcDbBlockEnd
  0
BLOCK
  5
27
330
1A
100
AcDbEntity
 67
     1
  8
0
100
AcDbBlockBegin
  2
*PAPER_SPACE
 70
     0
 10
0.0
 20
0.0
 30
0.0
  3
*PAPER_SPACE
  1

  0
ENDBLK
  5
28
330
1A
100
AcDbEntity
 67
     1
  8
0
100
AcDbBlockEnd
  0
BLOCK
  5
518
330
517
100
AcDbEntity
  8
0
100
AcDbBlockBegin
  2
AVE_RENDER
 70
     0
 10
0.0
 20
0.0
 30
0.0
  3
AVE_RENDER
  1
AVE_RENDER
  0
ENDBLK
  5
519
330
517
100
AcDbEntity
  8
0
100
AcDbBlockEnd
  0
BLOCK
  5
526
330
525
100
AcDbEntity
  8
0
100
AcDbBlockBegin
  2
AVE_GLOBAL
 70
     0
 10
0.0
 20
0.0
 30
0.0
  3
AVE_GLOBAL
  1
AVE_GLOBAL
  0
ENDBLK
  5
527
330
525
100
AcDbEntity
  8
0
100
AcDbBlockEnd
  0
BLOCK
  5
7EF
330
7ED
100
AcDbEntity
  8
0
100
AcDbBlockBegin
  2
GENAXEH
 70
     0
 10
0.0
 20
0.0
 30
0.0
  3
GENAXEH
  1

  0
LINE
  5
7EE
330
7ED
100
AcDbEntity
  8
0
100
AcDbLine
 10
-1.0
 20
0.0
 30
0.0
 11
1.0
 21
0.0
 31
0.0
  0
ENDBLK
  5
7F0
330
7ED
100
AcDbEntity
  8
0
100
AcDbBlockEnd
  0
ENDSEC
  0
SECTION
  2
ENTITIES
  0
INSERT
  5
51A
330
1E
100
AcDbEntity
  8
ASHADE
 62
     1
100
AcDbBlockReference
  2
AVE_RENDER
 10
0.0
 20
0.0
 30
0.0
1001
AVE_RENDER
1002
{
1070
     7
1000
Pref
1070
    30
1070
    20
1070
     1
1070
     0
1000

1070
    10
1070
     1
1070
    10
1040
1.0
1070
     1
1040
0.3
1040
0.7
1040
0.0
1040
10.0
1010
-1.0
1020
-1.0
1030
-1.0
1040
0.3
1070
    49
1070
     0
1070
     0
1010
1.0
1020
1.0
1030
1.0
1040
45.0
1070
     1
1070
     0
1000
WCS
1040
0.0
1070
     0
1040
10.0
1002
}
  0
INSERT
  5
51B
330
1E
100
AcDbEntity
  8
ASHADE
 62
     3
100
AcDbBlockReference
  2
AVE_RENDER
 10
0.0
 20
0.0
 30
0.0
1001
AVE_RENDER
1002
{
1070
     0
1000
Full Opt
1070
     0
1070
     1
1070
     1
1070
     1
1070
     0
1070
     0
1070
     0
1070
     1
1070
     1
1040
0.0001
1040
0.0001
1002
}
  0
INSERT
  5
51C
330
1E
100
AcDbEntity
  8
ASHADE
 62
     4
100
AcDbBlockReference
  2
AVE_RENDER
 10
0.0
 20
0.0
 30
0.0
1001
AVE_RENDER
1002
{
1070
     0
1000
Quick Opt
1070
     0
1070
     1
1070
     1
1070
     1
1070
     0
1070
     0
1070
     1
1002
}
  0
INSERT
  5
51D
330
1E
100
AcDbEntity
  8
ASHADE
 62
     5
100
AcDbBlockReference
  2
AVE_RENDER
 10
0.0
 20
0.0
 30
0.0
1001
AVE_RENDER
1002
{
1070
     1
1000
Scanl Opt
1070
     2
1070
     0
1070
     2
1040
2.0
1040
4.0
1070
     0
1070
     1
1070
     0
1040
0.03
1002
}
  0
INSERT
  5
51E
330
1E
100
AcDbEntity
  8
ASHADE
 62
     6
100
AcDbBlockReference
  2
AVE_RENDER
 10
0.0
 20
0.0
 30
0.0
1001
AVE_RENDER
1002
{
1070
     2
1000
Raytr Opt
1070
     2
1070
     0
1070
     2
1040
2.0
1040
4.0
1070
     0
1070
     1
1070
     1
1040
0.03
1070
     3
1040
0.03
1002
}
  0
INSERT
  5
51F
330
1E
100
AcDbEntity
  8
ASHADE
 62
     7
100
AcDbBlockReference
  2
AVE_RENDER
 10
0.0
 20
0.0
 30
0.0
1001
AVE_RENDER
1002
{
1070
     0
1000
RFile Opt
1070
     1
1070
   640
1070
   480
1070
 10000
1070
     1
1070
     8
1070
     8
1070
     0
1070
     0
1070
     0
1070
     0
1070
     0
1070
     0
1070
     0
1002
}
  0
INSERT
  5
520
330
1E
100
AcDbEntity
  8
ASHADE
 62
     8
100
AcDbBlockReference
  2
AVE_RENDER
 10
0.0
 20
0.0
 30
0.0
1001
AVE_RENDER
1002
{
1070
     0
1000
Fog Opt
1070
     0
1070
     0
1040
0.0
1040
1.0
1040
0.0
1040
1.0
1010
0.5
1020
0.5
1030
0.5
1002
}
  0
INSERT
  5
521
330
1E
100
AcDbEntity
  8
ASHADE
 62
     9
100
AcDbBlockReference
  2
AVE_RENDER
 10
0.0
 20
0.0
 30
0.0
1001
AVE_RENDER
1002
{
1070
     0
1000
BG Opt
1070
     0
1070
     1
1010
0.0
1020
0.0
1030
0.0
1010
1.0
1020
0.0
1030
0.0
1010
0.0
1020
1.0
1030
0.0
1010
0.0
1020
0.0
1030
1.0
1040
0.5
1040
0.33
1040
0.0
1000

1070
     1
1000

1070
     1
1070
     1
1040
1.0
1040
1.0
1040
0.0
1040
0.0
1070
     0
1002
}
  0
INSERT
  5
528
330
1E
100
AcDbEntity
  8
ASHADE
 62
     1
100
AcDbBlockReference
  2
AVE_GLOBAL
 10
0.0
 20
0.0
 30
0.0
1001
AVE_MATERIAL
1002
{
1000
*整體*
1000
2
1000
整體修飾.
1002
{
1002
}
1002
{
1070
    63
1002
{
1002
{
1010
-1.0
1020
-1.0
1030
-1.0
1002
}
1040
0.1000000014901161
1000

1040
0.0
1002
{
1002
}
1040
0.0
1002
{
1002
}
1040
0.0
1002
}
1002
{
1002
{
1010
-1.0
1020
-1.0
1030
-1.0
1002
}
1040
0.6999999880790711
1000

1040
0.0
1002
{
1002
}
1040
0.0
1002
{
1002
}
1040
0.0
1002
}
1002
{
1002
{
1010
-1.0
1020
-1.0
1030
-1.0
1002
}
1040
0.2000000029802322
1000

1040
0.0
1002
{
1002
}
1040
0.0
1002
{
1002
}
1040
0.0
1002
}
1002
{
1070
     0
1002
{
1070
     1
1002
{
1040
1.0
1040
1.0
1000

1040
0.0
1002
{
1002
}
1040
0.0
1002
{
1002
}
1040
0.0
1002
}
1002
}
1040
1.0
1040
0.0
1040
0.0
1002
}
1002
{
1040
1.0
1040
1.0
1000

1040
0.0
1002
{
1002
}
1040
0.0
1002
{
1002
}
1040
0.0
1002
}
1002
{
1040
0.5
1040
1.0
1000

1040
0.0
1002
{
1002
}
1040
0.0
1002
{
1002
}
1040
0.0
1002
}
1002
{
1070
     0
1040
0.0
1002
{
1002
}
1040
1.0
1002
{
1002
}
1040
0.0
1002
}
1002
{
1040
0.0
1002
{
1002
{
1010
0.0
1020
0.0
1030
0.0
1002
}
1040
1.0
1000

1040
0.0
1002
{
1002
}
1040
0.0
1002
{
1002
}
1040
0.0
1002
}
1002
}
1002
{
1002
{
1070
     1
1002
{
1040
0.0
1040
1.0
1000

1040
0.0
1002
{
1002
}
1040
0.0
1002
{
1002
}
1040
0.0
1002
}
1002
}
1040
0.0
1002
{
1002
}
1010
1.0
1020
0.0
1030
0.0
1010
0.0
1020
1.0
1030
0.0
1010
0.0
1020
0.0
1030
1.0
1070
     0
1002
}
1002
{
1002
{
1040
1.0
1040
1.0
1002
{
1070
     1
1002
{
1040
1.0
1040
1.0
1000

1040
0.0
1002
{
1002
}
1040
0.0
1002
{
1002
}
1040
0.0
1002
}
1002
}
1002
}
1070
     0
1040
0.0
1002
{
1002
}
1002
}
1002
{
1002
}
1002
}
1002
{
1071
        3
1070
     3
1070
     0
1002
{
1070
     2
1070
     0
1070
     0
1040
0.0
1002
}
1070
     0
1070
     2
1002
{
1002
}
1002
}
1002
{
1040
8030.0
1040
190.3000030517578
1040
0.3050000071525574
1040
228.0
1040
545.0
1040
14.0
1040
17.39999961853027
1040
0.4560000002384186
1002
}
1002
}
  0
TEXT
  5
2F4E
330
1E
100
AcDbEntity
  8
LOGO
 62
     7
100
AcDbText
 10
103.5341917913216
 20
154.5415927146333
 30
0.0
 40
22.13872941176471
  1
Order example:
 41
0.8
  7
CHINESET
100
AcDbText
  0
TEXT
  5
2F4F
330
1E
100
AcDbEntity
  8
LOGO
 62
     7
100
AcDbText
 10
107.506062927634
 20
185.7083398439834
 30
0.0
 40
33.20809411764706
  1
訂購代號:
  7
CHINESET
100
AcDbText
  0
LINE
  5
2F50
330
1E
100
AcDbEntity
  8
LOGO
 62
     1
100
AcDbLine
 10
951.7906034775391
 20
227.2810974592994
 30
0.0
 11
-271.3741965224633
 21
227.2810974592994
 31
0.0
  0
LINE
  5
2F51
330
1E
100
AcDbEntity
  8
LOGO
 62
     1
100
AcDbLine
 10
951.7906034775391
 20
61.24062687106391
 30
0.0
 11
-271.3741965224633
 21
61.24062687106391
 31
0.0
  0
LINE
  5
2F62
330
1E
100
AcDbEntity
  8
0
 62
     4
100
AcDbLine
 10
951.7906034775377
 20
227.2810974592994
 30
0.0
 11
-271.3741965224617
 21
227.2810974592994
 31
0.0
  0
LINE
  5
2F64
330
1E
100
AcDbEntity
  8
LOGO
 62
     1
100
AcDbLine
 10
93.91483877165502
 20
61.24062687106391
 30
0.0
 11
93.91483877165502
 21
227.2810974592994
 31
0.0
  0
LINE
  5
2F65
330
1E
100
AcDbEntity
  8
LOGO
 62
     1
100
AcDbLine
 10
-271.3741965224633
 20
61.24062687106391
 30
0.0
 11
-271.3741965224633
 21
227.2810974592994
 31
0.0
  0
TEXT
  5
2F66
330
1E
100
AcDbEntity
  8
LOGO
  6
Continuous
 62
     5
100
AcDbText
 10
-226.3694149678131
 20
93.85902674120449
 30
0.0
 40
24.9060705882353
  1
金器工業股份有限公司
  7
CHINESET
100
AcDbText
  0
TEXT
  5
2F67
330
1E
100
AcDbEntity
  8
LOGO
  6
Continuous
 62
     5
100
AcDbText
 10
-258.8078151500933
 20
68.94807651584568
 30
0.0
 40
16.60404705882353
  1
MINDMAN INDUSTRIAL CO.,LTD
 41
0.85
  7
CHINESET
100
AcDbText
  0
LINE
  5
2F68
330
1E
100
AcDbEntity
  8
LOGO
 62
     1
100
AcDbLine
 10
93.91483877165502
 20
194.073003341653
 30
0.0
 11
-149.6111847577563
 21
194.073003341653
 31
0.0
  0
LINE
  5
2F69
330
1E
100
AcDbEntity
  8
LOGO
 62
     1
100
AcDbLine
 10
93.91483877165502
 20
160.864909224005
 30
0.0
 11
-149.6111847577563
 21
160.864909224005
 31
0.0
  0
LINE
  5
2F6A
330
1E
100
AcDbEntity
  8
LOGO
 62
     1
100
AcDbLine
 10
93.91483877165502
 20
127.6568151063584
 30
0.0
 11
-271.3741965224633
 21
127.6568151063584
 31
0.0
  0
SOLID
  5
2F6B
330
1E
100
AcDbEntity
  8
LOGO
 62
     5
100
AcDbTrace
 10
-254.1472312242449
 20
155.2586799416611
 30
0.0
 11
-246.968076966205
 21
155.2586799416584
 31
0.0
 12
-217.0136747171369
 22
223.3368668713571
 32
0.0
 13
-209.8345204590974
 23
223.3368668713515
 33
0.0
  0
SOLID
  5
2F6C
330
1E
100
AcDbEntity
  8
LOGO
 62
     5
100
AcDbTrace
 10
-243.9973924456315
 20
155.2586799416611
 30
0.0
 11
-236.8182381875931
 21
155.2586799416611
 31
0.0
 12
-209.8345204590974
 22
217.8906119169782
 32
0.0
 13
-217.0136747171369
 23
191.5670463041614
 33
0.0
  0
SOLID
  5
2F6D
330
1E
100
AcDbEntity
  8
LOGO
 62
     2
100
AcDbTrace
 10
-246.968076966205
 20
155.2586799416584
 30
0.0
 11
-243.9973924456315
 21
155.2586799416611
 31
0.0
 12
-209.8345204590974
 22
223.3368668713515
 32
0.0
 13
-206.8638359385265
 23
223.3368668713515
 33
0.0
  0
SOLID
  5
2F6E
330
1E
100
AcDbEntity
  8
LOGO
 62
     5
100
AcDbTrace
 10
-265.657176044162
 20
130.5029756035927
 30
0.0
 11
-263.1816056103512
 21
130.5029756035927
 31
0.0
 12
-256.2102065857494
 22
142.8808277726249
 32
0.0
 13
-253.7346361519435
 23
142.8808277726249
 33
0.0
  0
SOLID
  5
2F6F
330
1E
100
AcDbEntity
  8
LOGO
 62
     5
100
AcDbTrace
 10
-256.2102065857494
 20
142.8808277726249
 30
0.0
 11
-253.7346361519435
 21
142.8808277726249
 31
0.0
 12
-256.2102065857494
 22
130.5029756035927
 32
0.0
 13
-253.7346361519435
 23
130.5029756035927
 33
0.0
  0
SOLID
  5
2F70
330
1E
100
AcDbEntity
  8
LOGO
 62
     5
100
AcDbTrace
 10
-256.2102065857494
 20
130.5029756035927
 30
0.0
 11
-253.7346361519435
 21
130.5029756035927
 31
0.0
 12
-246.7632371273325
 22
142.8808277726249
 32
0.0
 13
-244.2876666935283
 23
142.8808277726249
 33
0.0
  0
SOLID
  5
2F71
330
1E
100
AcDbEntity
  8
LOGO
 62
     5
100
AcDbTrace
 10
-246.7632371273325
 20
142.8808277726249
 30
0.0
 11
-244.2876666935283
 21
142.8808277726249
 31
0.0
 12
-246.7632371273325
 22
130.5029756035927
 32
0.0
 13
-244.2876666935283
 23
130.5029756035927
 33
0.0
  0
POLYLINE
  5
2F72
330
1E
100
AcDbEntity
  8
LOGO
 62
     5
100
AcDb2dPolyline
 66
     1
 10
0.0
 20
0.0
 30
0.0
 40
2.479537694117647
 41
2.479537694117647
  0
VERTEX
  5
2F73
330
2F72
100
AcDbEntity
  8
LOGO
 62
     5
100
AcDbVertex
100
AcDb2dVertex
 10
-163.7829594998175
 20
137.9296869050109
 30
0.0
 42
1.0
  0
VERTEX
  5
2F74
330
2F72
100
AcDbEntity
  8
LOGO
 62
     5
100
AcDbVertex
100
AcDb2dVertex
 10
-171.2215725821716
 20
137.9296869050109
 30
0.0
 42
1.0
  0
SEQEND
  5
2F75
330
2F72
100
AcDbEntity
  8
LOGO
 62
     5
  0
POLYLINE
  5
2F76
330
1E
100
AcDbEntity
  8
LOGO
 62
     5
100
AcDb2dPolyline
 66
     1
 10
0.0
 20
0.0
 30
0.0
 70
     1
  0
VERTEX
  5
2F77
330
2F76
100
AcDbEntity
  8
LOGO
 62
     5
100
AcDbVertex
100
AcDb2dVertex
 10
-185.2436891119196
 20
136.6919016881081
 30
0.0
 42
1.000000057330635
  0
VERTEX
  5
2F78
330
2F76
100
AcDbEntity
  8
LOGO
 62
     5
100
AcDbVertex
100
AcDb2dVertex
 10
-177.816977810497
 20
136.6919016881081
 30
0.0
 42
1.000000057330635
  0
SEQEND
  5
2F79
330
2F76
100
AcDbEntity
  8
LOGO
 62
     5
  0
CIRCLE
  5
2F7A
330
1E
100
AcDbEntity
  8
LOGO
 62
     5
100
AcDbCircle
 10
-181.5303334612072
 20
136.6919016881081
 30
0.0
 40
3.713355650710589
  0
POLYLINE
  5
2F7B
330
1E
100
AcDbEntity
  8
LOGO
 62
     5
100
AcDb2dPolyline
 66
     1
 10
0.0
 20
0.0
 30
0.0
 70
     1
 40
2.479537694117647
 41
2.479537694117647
  0
VERTEX
  5
2F7C
330
2F7B
100
AcDbEntity
  8
LOGO
 62
     5
100
AcDbVertex
100
AcDb2dVertex
 10
-186.4894088494436
 20
136.6919016881081
 30
0.0
 42
1.0
  0
VERTEX
  5
2F7D
330
2F7B
100
AcDbEntity
  8
LOGO
 62
     5
100
AcDbVertex
100
AcDb2dVertex
 10
-176.5712580729732
 20
136.6919016881081
 30
0.0
 42
1.0
  0
SEQEND
  5
2F7E
330
2F7B
100
AcDbEntity
  8
LOGO
 62
     5
  0
LINE
  5
2F7F
330
1E
100
AcDbEntity
  8
LOGO
 62
     5
100
AcDbLine
 10
-162.5511251733815
 20
130.5029756035927
 30
0.0
 11
-162.5511251733815
 21
137.9296869050109
 31
0.0
  0
SOLID
  5
2F80
330
1E
100
AcDbEntity
  8
LOGO
 62
     5
100
AcDbTrace
 10
-177.8172253675352
 20
142.8808277726249
 30
0.0
 11
-175.3416549337307
 21
142.8808277726249
 31
0.0
 12
-177.8172253675352
 22
130.5029756035927
 32
0.0
 13
-175.3416549337307
 23
130.5029756035927
 33
0.0
  0
SOLID
  5
2F81
330
1E
100
AcDbEntity
  8
LOGO
 62
     5
100
AcDbTrace
 10
-172.4534069086114
 20
130.5029756035927
 30
0.0
 11
-169.9778364748013
 21
130.5029756035927
 31
0.0
 12
-172.4534069086114
 22
142.8808277726249
 32
0.0
 13
-169.9778364748013
 23
142.8808277726249
 33
0.0
  0
SOLID
  5
2F82
330
1E
100
AcDbEntity
  8
LOGO
 62
     5
100
AcDbTrace
 10
-165.0266956071873
 20
137.9296869050109
 30
0.0
 11
-162.5511251733815
 21
137.9296869050109
 31
0.0
 12
-165.0266956071873
 22
130.5029756035927
 32
0.0
 13
-162.5511251733815
 23
130.5029756035927
 33
0.0
  0
LINE
  5
2F83
330
1E
100
AcDbEntity
  8
LOGO
 62
     1
100
AcDbLine
 10
-149.6111847577563
 20
127.6568151063584
 30
0.0
 11
-149.6111847577563
 21
227.2810974592994
 31
0.0
  0
SOLID
  5
2F84
330
1E
100
AcDbEntity
  8
LOGO
 62
     5
100
AcDbTrace
 10
-172.700963951992
 20
217.8906119169782
 30
0.0
 11
-179.8801182100319
 21
191.5670463041614
 31
0.0
 12
-172.700963951992
 22
155.2586799416584
 32
0.0
 13
-179.8801182100319
 23
155.2586799416584
 33
0.0
  0
SOLID
  5
2F85
330
1E
100
AcDbEntity
  8
LOGO
 62
     5
100
AcDbTrace
 10
-169.7302794314212
 20
155.2586799416584
 30
0.0
 11
-162.5511251733815
 21
155.2586799416584
 31
0.0
 12
-169.7302794314212
 22
223.3368668713515
 32
0.0
 13
-162.5511251733815
 23
223.3368668713571
 33
0.0
  0
SOLID
  5
2F86
330
1E
100
AcDbEntity
  8
LOGO
 62
     2
100
AcDbTrace
 10
-172.700963951992
 20
223.3368668713571
 30
0.0
 11
-169.7302794314212
 21
223.3368668713515
 31
0.0
 12
-172.700963951992
 22
155.2586799416584
 32
0.0
 13
-169.7302794314212
 23
155.2586799416584
 33
0.0
  0
POLYLINE
  5
2F87
330
1E
100
AcDbEntity
  8
LOGO
 62
     5
100
AcDb2dPolyline
 66
     1
 10
0.0
 20
0.0
 30
0.0
 40
2.479537694117647
 41
2.479537694117647
  0
VERTEX
  5
2F88
330
2F87
100
AcDbEntity
  8
LOGO
 62
     5
100
AcDbVertex
100
AcDb2dVertex
 10
-199.2663007557485
 20
137.9296869050109
 30
0.0
 42
1.0
  0
VERTEX
  5
2F89
330
2F87
100
AcDbEntity
  8
LOGO
 62
     5
100
AcDbVertex
100
AcDb2dVertex
 10
-206.7049138381026
 20
137.9296869050109
 30
0.0
 42
1.0
  0
SEQEND
  5
2F8A
330
2F87
100
AcDbEntity
  8
LOGO
 62
     5
  0
POLYLINE
  5
2F8B
330
1E
100
AcDbEntity
  8
LOGO
 62
     5
100
AcDb2dPolyline
 66
     1
 10
0.0
 20
0.0
 30
0.0
 40
2.479537694117647
 41
2.479537694117647
  0
VERTEX
  5
2F8C
330
2F8B
100
AcDbEntity
  8
LOGO
 62
     5
100
AcDbVertex
100
AcDb2dVertex
 10
-191.8395894543287
 20
137.9296869050109
 30
0.0
 42
1.0
  0
VERTEX
  5
2F8D
330
2F8B
100
AcDbEntity
  8
LOGO
 62
     5
100
AcDbVertex
100
AcDb2dVertex
 10
-199.2782025366837
 20
137.9296869050109
 30
0.0
 42
1.0
  0
SEQEND
  5
2F8E
330
2F8B
100
AcDbEntity
  8
LOGO
 62
     5
  0
POLYLINE
  5
2F8F
330
1E
100
AcDbEntity
  8
LOGO
 62
     5
100
AcDb2dPolyline
 66
     1
 10
0.0
 20
0.0
 30
0.0
 40
2.479537694117647
 41
2.479537694117647
  0
VERTEX
  5
2F90
330
2F8F
100
AcDbEntity
  8
LOGO
 62
     5
100
AcDbVertex
100
AcDb2dVertex
 10
-227.322930710259
 20
137.9296869050109
 30
0.0
 42
1.0
  0
VERTEX
  5
2F91
330
2F8F
100
AcDbEntity
  8
LOGO
 62
     5
100
AcDbVertex
100
AcDb2dVertex
 10
-234.761543792612
 20
137.9296869050109
 30
0.0
 42
1.0
  0
SEQEND
  5
2F92
330
2F8F
100
AcDbEntity
  8
LOGO
 62
     5
  0
SOLID
  5
2F93
330
1E
100
AcDbEntity
  8
LOGO
 62
     5
100
AcDbTrace
 10
-235.9933781190471
 20
142.8808277726249
 30
0.0
 11
-233.5178076852435
 21
142.8808277726249
 31
0.0
 12
-235.9933781190471
 22
130.5029756035927
 32
0.0
 13
-233.5178076852435
 23
130.5029756035927
 33
0.0
  0
SOLID
  5
2F94
330
1E
100
AcDbEntity
  8
LOGO
 62
     5
100
AcDbTrace
 10
-228.566666817628
 20
137.9296869050109
 30
0.0
 11
-226.0910963838191
 21
137.9296869050109
 31
0.0
 12
-228.566666817628
 22
130.5029756035927
 32
0.0
 13
-226.0910963838191
 23
130.5029756035927
 33
0.0
  0
POLYLINE
  5
2F95
330
1E
100
AcDbEntity
  8
LOGO
 62
     5
100
AcDb2dPolyline
 66
     1
 10
0.0
 20
0.0
 30
0.0
 70
     1
 40
2.479537694117647
 41
2.479537694117647
  0
VERTEX
  5
2F96
330
2F95
100
AcDbEntity
  8
LOGO
 62
     5
100
AcDbVertex
100
AcDb2dVertex
 10
-221.9727501053751
 20
136.6919016881081
 30
0.0
 42
1.0
  0
VERTEX
  5
2F97
330
2F95
100
AcDbEntity
  8
LOGO
 62
     5
100
AcDbVertex
100
AcDb2dVertex
 10
-212.0545993289047
 20
136.6919016881081
 30
0.0
 42
1.0
  0
SEQEND
  5
2F98
330
2F95
100
AcDbEntity
  8
LOGO
 62
     5
  0
SOLID
  5
2F99
330
1E
100
AcDbEntity
  8
LOGO
 62
     5
100
AcDbTrace
 10
-213.3005666234676
 20
146.5941834233374
 30
0.0
 11
-210.8249961896636
 21
146.5941834233374
 31
0.0
 12
-213.3005666234676
 22
130.5029756035927
 32
0.0
 13
-210.8249961896636
 23
130.5029756035927
 33
0.0
  0
SOLID
  5
2F9A
330
1E
100
AcDbEntity
  8
LOGO
 62
     5
100
AcDbTrace
 10
-207.9367481645372
 20
142.8808277726249
 30
0.0
 11
-205.4611777307314
 21
142.8808277726249
 31
0.0
 12
-207.9367481645372
 22
130.5029756035927
 32
0.0
 13
-205.4611777307314
 23
130.5029756035927
 33
0.0
  0
SOLID
  5
2F9B
330
1E
100
AcDbEntity
  8
LOGO
 62
     5
100
AcDbTrace
 10
-200.5100368631174
 20
137.9296869050109
 30
0.0
 11
-198.0344664293118
 21
137.9296869050109
 31
0.0
 12
-200.5100368631174
 22
130.5029756035927
 32
0.0
 13
-198.0344664293118
 23
130.5029756035927
 33
0.0
  0
SOLID
  5
2F9C
330
1E
100
AcDbEntity
  8
LOGO
 62
     5
100
AcDbTrace
 10
-193.0833255616976
 20
137.9296869050109
 30
0.0
 11
-190.6077551278936
 21
137.9296869050109
 31
0.0
 12
-193.0833255616976
 22
130.502975603587
 32
0.0
 13
-190.6077551278936
 23
130.502975603587
 33
0.0
  0
SOLID
  5
2F9D
330
1E
100
AcDbEntity
  8
LOGO
 62
     5
100
AcDbTrace
 10
-241.3571965779795
 20
144.6137270762885
 30
0.0
 11
-238.8816261441671
 21
144.6137270762885
 31
0.0
 12
-241.3571965779795
 22
146.5941834233374
 32
0.0
 13
-238.8816261441671
 23
146.5941834233374
 33
0.0
  0
SOLID
  5
2F9E
330
1E
100
AcDbEntity
  8
LOGO
 62
     5
100
AcDbTrace
 10
-241.3571965779795
 20
142.8808277726249
 30
0.0
 11
-238.8816261441671
 21
142.8808277726249
 31
0.0
 12
-241.3571965779795
 22
130.502975603587
 32
0.0
 13
-238.8816261441671
 23
130.5029756035927
 33
0.0
  0
SOLID
  5
2F9F
330
1E
100
AcDbEntity
  8
LOGO
 62
     5
100
AcDbTrace
 10
-217.0136747171369
 20
155.2586799416611
 30
0.0
 11
-209.8345204590974
 21
155.2586799416611
 31
0.0
 12
-217.0136747171369
 22
191.5670463041614
 32
0.0
 13
-209.8345204590974
 23
217.8906119169782
 33
0.0
  0
SOLID
  5
2FA0
330
1E
100
AcDbEntity
  8
LOGO
 62
     5
100
AcDbTrace
 10
-206.8638359385265
 20
223.3368668713515
 30
0.0
 11
-199.6846816804868
 21
223.3368668713571
 31
0.0
 12
-206.8638359385265
 22
160.7049348960348
 32
0.0
 13
-199.6846816804868
 23
187.0285005088512
 33
0.0
  0
SOLID
  5
2FA1
330
1E
100
AcDbEntity
  8
LOGO
 62
     2
100
AcDbTrace
 10
-209.8345204590974
 20
223.3368668713515
 30
0.0
 11
-206.8638359385265
 21
223.3368668713515
 31
0.0
 12
-209.8345204590974
 22
155.2586799416611
 32
0.0
 13
-206.8638359385265
 23
155.2586799416611
 33
0.0
  0
SOLID
  5
2FA2
330
1E
100
AcDbEntity
  8
LOGO
 62
     5
100
AcDbTrace
 10
-206.8638359385265
 20
160.7049348960348
 30
0.0
 11
-199.6846816804868
 21
187.0285005088512
 31
0.0
 12
-172.700963951992
 22
223.3368668713571
 32
0.0
 13
-179.8801182100319
 23
223.3368668713571
 33
0.0
  0
SOLID
  5
2FA3
330
1E
100
AcDbEntity
  8
LOGO
 62
     5
100
AcDbTrace
 10
-206.8638359385265
 20
155.2586799416611
 30
0.0
 11
-199.6846816804868
 21
155.2586799416611
 31
0.0
 12
-172.700963951992
 22
217.8906119169782
 32
0.0
 13
-179.8801182100319
 23
191.5670463041614
 33
0.0
  0
SOLID
  5
2FA4
330
1E
100
AcDbEntity
  8
LOGO
 62
     2
100
AcDbTrace
 10
-209.8345204590974
 20
155.2586799416611
 30
0.0
 11
-206.8638359385265
 21
155.2586799416611
 31
0.0
 12
-172.700963951992
 22
223.3368668713571
 32
0.0
 13
-169.7302794314212
 23
223.3368668713515
 33
0.0
  0
TEXT
  5
2FA5
330
1E
100
AcDbEntity
  8
LOGO
 62
     6
100
AcDbText
 10
8.130000088177425
 20
135.9588386357699
 30
0.0
 40
16.60404705882353
  1
m/m
  7
CHINESET
 72
     1
 11
37.38474966800936
 21
144.2608621651817
 31
0.0
100
AcDbText
 73
     2
  0
TEXT
  5
2FA6
330
1E
100
AcDbEntity
  8
LOGO
 62
     6
100
AcDbText
 10
8.130000088177432
 20
202.3750268710647
 30
0.0
 40
16.60404705882353
  1
1 : 1
  7
CHINESET
 72
     1
 11
37.38474966800936
 21
210.6770504004765
 31
0.0
100
AcDbText
 73
     2
  0
LINE
  5
2FA7
330
1E
100
AcDbEntity
  8
LOGO
 62
     1
100
AcDbLine
 10
-16.77880828716866
 20
127.6568151063584
 30
0.0
 11
-16.77880828716866
 21
227.2810974592994
 31
0.0
  0
CIRCLE
  5
2FA8
330
1E
100
AcDbEntity
  8
LOGO
  6
Continuous
 62
     6
100
AcDbCircle
 10
13.96566164362002
 20
177.5044724609927
 30
0.0
 40
9.640700537565503
  0
CIRCLE
  5
2FA9
330
1E
100
AcDbEntity
  8
LOGO
  6
Continuous
 62
     6
100
AcDbCircle
 10
13.96566164362002
 20
177.5044724609927
 30
0.0
 40
5.648597072081442
  0
LINE
  5
2FAA
330
1E
100
AcDbEntity
  8
LOGO
 62
     6
100
AcDbLine
 10
74.54894248126811
 20
167.8637719234268
 30
0.0
 11
74.54894248126811
 21
187.1451729985587
 31
0.0
  0
LINE
  5
2FAB
330
1E
100
AcDbEntity
  8
LOGO
 62
     6
100
AcDbLine
 10
44.32589969861465
 20
171.8558753889117
 30
0.0
 11
44.32589969861465
 21
183.1530695330752
 31
0.0
  0
LINE
  5
2FAC
330
1E
100
AcDbEntity
  8
LOGO
  6
Continuous
 62
     6
100
AcDbLine
 10
44.32589969861465
 20
183.1530695330752
 30
0.0
 11
74.54894248126811
 21
187.1451729985587
 31
0.0
  0
LINE
  5
2FAD
330
1E
100
AcDbEntity
  8
LOGO
  6
Continuous
 62
     6
100
AcDbLine
 10
44.32589969861465
 20
171.8558753889117
 30
0.0
 11
74.54894248126811
 21
167.8637719234268
 31
0.0
  0
LINE
  5
2FE5
330
1E
100
AcDbEntity
  8
LOGO
 62
     6
100
AcDbLine
 10
638.5282458944734
 20
135.9588386357707
 30
0.0
 11
638.5282458944734
 21
75.07733275341678
 31
0.0
  0
LINE
  5
2FE6
330
1E
100
AcDbEntity
  8
LOGO
 62
     6
100
AcDbLine
 10
494.3198610821091
 20
135.9588386357707
 30
0.0
 11
494.3198610821091
 21
75.07733275341678
 31
0.0
  0
LINE
  5
2FE7
330
1E
100
AcDbEntity
  8
LOGO
 62
     6
100
AcDbLine
 10
444.0591485802935
 20
135.9588386357707
 30
0.0
 11
444.0591485802935
 21
75.07733275341678
 31
0.0
  0
LINE
  5
2FE8
330
1E
100
AcDbEntity
  8
LOGO
 62
     6
100
AcDbLine
 10
333.3655015214708
 20
135.9588386357707
 30
0.0
 11
333.3655015214708
 21
75.07733275341678
 31
0.0
  0
LINE
  5
2FE9
330
1E
100
AcDbEntity
  8
LOGO
 62
     6
100
AcDbLine
 10
444.0591485802935
 20
75.07733275341678
 30
0.0
 11
333.3655015214708
 21
75.07733275341678
 31
0.0
  0
LINE
  5
2FEA
330
1E
100
AcDbEntity
  8
LOGO
 62
     6
100
AcDbLine
 10
638.5282458944734
 20
75.07733275341678
 30
0.0
 11
494.3198610821091
 21
75.07733275341678
 31
0.0
  0
LINE
  5
2FEB
330
1E
100
AcDbEntity
  8
LOGO
  6
Continuous
 62
     7
100
AcDbLine
 10
463.7103966094
 20
185.5945373360149
 30
0.0
 11
485.7056205886622
 21
185.5945373360149
 31
0.0
  0
LINE
  5
2FEC
330
1E
100
AcDbEntity
  8
LOGO
 62
     6
100
AcDbLine
 10
455.1285132861758
 20
210.6770504004765
 30
0.0
 11
322.2961368155879
 21
210.6770504004765
 31
0.0
  0
LINE
  5
2FED
330
1E
100
AcDbEntity
  8
LOGO
 62
     6
100
AcDbLine
 10
455.1285132861758
 20
160.864909224005
 30
0.0
 11
322.2961368155879
 21
160.864909224005
 31
0.0
  0
LINE
  5
2FEE
330
1E
100
AcDbEntity
  8
LOGO
 62
     6
100
AcDbLine
 10
322.2961368155879
 20
210.6770504004765
 30
0.0
 11
322.2961368155879
 21
160.864909224005
 31
0.0
  0
LINE
  5
2FEF
330
1E
100
AcDbEntity
  8
LOGO
 62
     6
100
AcDbLine
 10
455.1285132861758
 20
210.6770504004765
 30
0.0
 11
455.1285132861758
 21
160.864909224005
 31
0.0
  0
LINE
  5
2FF0
330
1E
100
AcDbEntity
  8
LOGO
 62
     6
100
AcDbLine
 10
388.7123250508815
 20
160.864909224005
 30
0.0
 11
388.7123250508815
 21
135.9588386357707
 31
0.0
  0
TEXT
  5
2FF1
330
1E
100
AcDbEntity
  8
LOGO
  6
Continuous
 62
     7
100
AcDbText
 10
335.3421737903773
 20
171.9342739298876
 30
0.0
 40
27.67341176470588
  1
MHBD
  7
CHINESET
 72
     1
 11
388.7123250508815
 21
185.7709798122406
 31
0.0
100
AcDbText
 73
     2
  0
LINE
  5
2FF2
330
1E
100
AcDbEntity
  8
LOGO
 62
     6
100
AcDbLine
 10
444.0591485802935
 20
135.9588386357707
 30
0.0
 11
333.3655015214708
 21
135.9588386357707
 31
0.0
  0
LINE
  5
2FF3
330
1E
100
AcDbEntity
  8
LOGO
 62
     6
100
AcDbLine
 10
638.5282458944734
 20
210.6770504004765
 30
0.0
 11
494.3198610821091
 21
210.6770504004765
 31
0.0
  0
LINE
  5
2FF4
330
1E
100
AcDbEntity
  8
LOGO
 62
     6
100
AcDbLine
 10
638.5282458944734
 20
135.9588386357707
 30
0.0
 11
494.3198610821091
 21
135.9588386357707
 31
0.0
  0
LINE
  5
2FF5
330
1E
100
AcDbEntity
  8
LOGO
 62
     6
100
AcDbLine
 10
638.5282458944734
 20
160.864909224005
 30
0.0
 11
494.3198610821091
 21
160.864909224005
 31
0.0
  0
TEXT
  5
2FF6
330
1E
100
AcDbEntity
  8
LOGO
  6
Continuous
 62
     7
100
AcDbText
 10
530.8439526479555
 20
171.6204556966982
 30
0.0
 40
27.67341176470588
  1
250
  7
CHINESET
 72
     1
 11
566.4240534882917
 21
185.4571615790511
 31
0.0
100
AcDbText
 73
     2
  0
LINE
  5
2FF7
330
1E
100
AcDbEntity
  8
LOGO
 62
     6
100
AcDbLine
 10
566.4240534882917
 20
160.864909224005
 30
0.0
 11
566.4240534882917
 21
135.9588386357707
 31
0.0
  0
LINE
  5
2FF8
330
1E
100
AcDbEntity
  8
LOGO
 62
     6
100
AcDbLine
 10
494.3198610821091
 20
210.6770504004765
 30
0.0
 11
494.3198610821091
 21
160.864909224005
 31
0.0
  0
LINE
  5
2FFD
330
1E
100
AcDbEntity
  8
LOGO
 62
     6
100
AcDbLine
 10
638.5282458944734
 20
210.6770504004765
 30
0.0
 11
638.5282458944734
 21
160.864909224005
 31
0.0
  0
LINE
  5
2FFE
330
1E
100
AcDbEntity
  8
LOGO
 62
     1
100
AcDbLine
 10
951.7906034775391
 20
61.24062687106391
 30
0.0
 11
951.7906034775391
 21
227.2810974592994
 31
0.0
  0
TEXT
  5
3075
330
1E
100
AcDbEntity
  8
LOGO
 62
     6
100
AcDbText
 10
-135.920258455235
 20
202.3831981540661
 30
1088.201890665704
 40
16.60404705882353
  1
比例 Scale:
 41
0.9
  7
CHINESET
 72
     4
 11
-83.19499652246191
 21
210.6770504004765
 31
1088.201890665704
100
AcDbText
  0
TEXT
  5
3076
330
1E
100
AcDbEntity
  8
LOGO
 62
     6
100
AcDbText
 10
-130.1162545056552
 20
169.4004952592061
 30
1088.201890665704
 40
16.60404705882353
  1
投影 View:
 41
0.9
  7
CHINESET
 72
     4
 11
-83.19499652246191
 21
177.4689562828281
 31
1088.201890665704
100
AcDbText
  0
TEXT
  5
3077
330
1E
100
AcDbEntity
  8
LOGO
 62
     6
100
AcDbText
 10
-128.4929124048148
 20
135.9588386357699
 30
1088.201890665704
 40
16.60404705882353
  1
單位 Unit:
 41
0.9
  7
CHINESET
 72
     4
 11
-83.19499652246191
 21
144.2608621651817
 31
1088.201890665704
100
AcDbText
  0
TEXT
  5
3078
330
1E
100
AcDbEntity
  8
LOGO
  6
Continuous
 62
     6
100
AcDbText
 10
362.3566947987807
 20
81.99568569459342
 30
1088.201890665704
 40
13.83670588235294
  1
Model
  7
CHINESET
 72
     4
 11
388.7123250508815
 21
88.91403863576988
 31
1088.201890665704
100
AcDbText
  0
TEXT
  5
3079
330
1E
100
AcDbEntity
  8
LOGO
  6
Continuous
 62
     6
100
AcDbText
 10
541.7156501269472
 20
81.99568569459342
 30
1088.201890665704
 40
13.83670588235294
  1
Ratio
  7
CHINESET
 72
     4
 11
566.4240534882917
 21
88.91403863576988
 31
1088.201890665704
100
AcDbText
  0
TEXT
  5
307B
330
1E
100
AcDbEntity
  8
LOGO
 62
     6
100
AcDbText
 10
366.5735956391168
 20
106.0846279826897
 30
1088.201890665704
 40
22.13872941176471
  1
型式
  7
CHINESET
 72
     4
 11
388.7123250508815
 21
116.5874504004757
 31
1088.201890665704
100
AcDbText
  0
TEXT
  5
307C
330
1E
100
AcDbEntity
  8
LOGO
 62
     6
100
AcDbText
 10
533.9077946647623
 20
105.759592503301
 30
1088.201890665704
 40
22.13872941176471
  1
增壓比
  7
CHINESET
 72
     4
 11
566.4240534882917
 21
116.5874504004757
 31
1088.201890665704
100
AcDbText
  0
LWPOLYLINE
  5
67C9
330
1E
100
AcDbEntity
  8
0
 62
     4
100
AcDbPolyline
 90
        4
 70
     1
 43
0.0
 10
-271.3741965224618
 20
890.8555223705404
 10
951.7906034775386
 20
890.8555223705404
 10
951.7906034775386
 20
227.2810974592995
 10
-271.3741965224618
 20
227.2810974592997
1001
GENIUS_GENREC_14
1002
{
1000
PYDIR
1011
-271.3741965224618
1021
227.2810974592995
1031
0.0
1002
}
1002
{
1000
PXDIR
1011
951.7906034775386
1021
890.8555223705404
1031
0.0
1002
}
1002
{
1000
PORI
1011
-271.3741965224618
1021
890.8555223705404
1031
0.0
1002
}
1002
{
1000
PINS
1011
-271.3741965224618
1021
890.8555223705404
1031
0.0
1002
}
1002
{
1000
PINS2
1011
951.7906034775386
1021
227.2810974592996
1031
0.0
1002
}
1002
{
1000
C
1070
     1
1002
}
1001
GENIUS_GENODEF_13
1002
{
1000
HIER
1070
     0
1002
}
1002
{
1000
MANEDIT
1070
     0
1002
}
1002
{
1000
NOSEL
1070
     0
1002
}
1002
{
1000
BEHIND
1070
     0
1002
}
1002
{
1000
OTHER
1070
     0
1002
}
1002
{
1000
REACTOR
1002
}
1001
GENIUS_GENOBJ-N-REC_13
1002
{
1000
OWNER
1000
GEN
1002
}
  0
LINE
  5
7CDD
330
1E
100
AcDbEntity
  8
UMCL1
100
AcDbLine
 10
109.1444873336204
 20
491.4334836600034
 30
0.0
 11
353.1444873336204
 21
491.4334836600034
 31
0.0
  0
LINE
  5
7CDE
330
1E
100
AcDbEntity
  8
UMCL1
100
AcDbLine
 10
109.1444873336204
 20
331.4334836600037
 30
0.0
 11
353.1444873336203
 21
331.4334836600037
 31
0.0
  0
LINE
  5
7CDF
330
1E
100
AcDbEntity
  8
CENTER
  6
CENTER
100
AcDbLine
 10
63.14448733362041
 20
411.4334836600037
 30
0.0
 11
582.1444873336202
 21
411.4334836600037
 31
0.0
  0
LINE
  5
7CE0
330
1E
100
AcDbEntity
  8
UMCL1
100
AcDbLine
 10
109.1444873336204
 20
632.6613743402053
 30
0.0
 11
353.1444873336203
 21
632.6613743402044
 31
0.0
  0
LINE
  5
7CE1
330
1E
100
AcDbEntity
  8
UMCL1
100
AcDbLine
 10
109.1444873336204
 20
648.6613743402053
 30
0.0
 11
353.1444873336203
 21
648.6613743402044
 31
0.0
  0
LINE
  5
7CE2
330
1E
100
AcDbEntity
  8
UMCL1
100
AcDbLine
 10
109.1444873336204
 20
766.6613743402051
 30
0.0
 11
353.1444873336203
 21
766.6613743402042
 31
0.0
  0
LINE
  5
7CE3
330
1E
100
AcDbEntity
  8
UMCL1
100
AcDbLine
 10
109.1444873336204
 20
782.6613743402051
 30
0.0
 11
353.1444873336203
 21
782.6613743402043
 31
0.0
  0
LINE
  5
7CE4
330
1E
100
AcDbEntity
  8
CENTER
  6
CENTER
100
AcDbLine
 10
43.10791455106709
 20
774.6613743402049
 30
0.0
 11
417.1719834266197
 21
774.6613743402049
 31
0.0
  0
LINE
  5
7CE5
330
1E
100
AcDbEntity
  8
CENTER
  6
CENTER
100
AcDbLine
 10
43.10791455106687
 20
640.6613743402053
 30
0.0
 11
417.1719834266197
 21
640.6613743402053
 31
0.0
  0
LINE
  5
7CE6
330
1E
100
AcDbEntity
  8
UMCL1
100
AcDbLine
 10
109.1444873336204
 20
787.6613743402049
 30
0.0
 11
353.1444873336204
 21
787.6613743402049
 31
0.0
  0
LINE
  5
7CE7
330
1E
100
AcDbEntity
  8
UMCL1
100
AcDbLine
 10
109.1444873336204
 20
627.6613743402053
 30
0.0
 11
353.1444873336203
 21
627.6613743402053
 31
0.0
  0
LINE
  5
7CE8
330
1E
100
AcDbEntity
  8
CENTER
  6
CENTER
100
AcDbLine
 10
65.14448733362041
 20
707.6613743402051
 30
0.0
 11
582.1444873336202
 21
707.6613743402051
 31
0.0
  0
LINE
  5
7CE9
330
1E
100
AcDbEntity
  8
UMCL1
100
AcDbLine
 10
-196.8056291364359
 20
485.4334836600035
 30
0.0
 11
-196.8056291364359
 21
361.4334836600037
 31
0.0
  0
LINE
  5
7CEA
330
1E
100
AcDbEntity
  8
UMCL1
100
AcDbLine
 10
-24.80562913643598
 20
485.4334836600035
 30
0.0
 11
-24.80562913643598
 21
361.4334836600037
 31
0.0
  0
LINE
  5
7CEB
330
1E
100
AcDbEntity
  8
CENTER
  6
CENTER
100
AcDbLine
 10
-110.805629136436
 20
507.2885354024361
 30
0.0
 11
-110.805629136436
 21
322.4334836600037
 31
0.0
  0
LINE
  5
7CEC
330
1E
100
AcDbEntity
  8
CENTER
  6
CENTER
100
AcDbLine
 10
-62.80562913643598
 20
344.4334836600037
 30
0.0
 11
-24.80562913643598
 21
344.4334836600037
 31
0.0
  0
LINE
  5
7CED
330
1E
100
AcDbEntity
  8
CENTER
  6
CENTER
100
AcDbLine
 10
-177.805629136436
 20
363.4334836600037
 30
0.0
 11
-177.805629136436
 21
325.4334836600037
 31
0.0
  0
POLYLINE
  5
7CEE
330
1E
100
AcDbEntity
  8
UMCL1
  6
Continuous
100
AcDb2dPolyline
 66
     1
 10
0.0
 20
0.0
 30
0.0
 70
     1
  0
VERTEX
  5
7CEF
330
7CEE
100
AcDbEntity
  8
UMCL1
  6
Continuous
100
AcDbVertex
100
AcDb2dVertex
 10
-184.7338323667115
 20
356.4334836600037
 30
0.0
  0
VERTEX
  5
7CF0
330
7CEE
100
AcDbEntity
  8
UMCL1
  6
Continuous
100
AcDbVertex
100
AcDb2dVertex
 10
-191.6620355969869
 20
344.4334836600037
 30
0.0
  0
VERTEX
  5
7CF1
330
7CEE
100
AcDbEntity
  8
UMCL1
  6
Continuous
100
AcDbVertex
100
AcDb2dVertex
 10
-184.7338323667115
 20
332.4334836600038
 30
0.0
  0
VERTEX
  5
7CF2
330
7CEE
100
AcDbEntity
  8
UMCL1
  6
Continuous
100
AcDbVertex
100
AcDb2dVertex
 10
-170.8774259061604
 20
332.4334836600038
 30
0.0
  0
VERTEX
  5
7CF3
330
7CEE
100
AcDbEntity
  8
UMCL1
  6
Continuous
100
AcDbVertex
100
AcDb2dVertex
 10
-163.949222675885
 20
344.4334836600037
 30
0.0
  0
VERTEX
  5
7CF4
330
7CEE
100
AcDbEntity
  8
UMCL1
  6
Continuous
100
AcDbVertex
100
AcDb2dVertex
 10
-170.8774259061604
 20
356.4334836600037
 30
0.0
  0
SEQEND
  5
7CF5
330
7CEE
100
AcDbEntity
  8
UMCL1
  6
Continuous
  0
LINE
  5
7CF6
330
1E
100
AcDbEntity
  8
CENTER
  6
CENTER
100
AcDbLine
 10
-196.8056291364359
 20
344.4334836600037
 30
0.0
 11
-158.805629136436
 21
344.4334836600037
 31
0.0
  0
CIRCLE
  5
7CF7
330
1E
100
AcDbEntity
  8
UMCL1
  6
Continuous
100
AcDbCircle
 10
-177.805629136436
 20
344.4334836600037
 30
0.0
 40
12.0
  0
CIRCLE
  5
7CF8
330
1E
100
AcDbEntity
  8
UMCL1
  6
Continuous
100
AcDbCircle
 10
-177.805629136436
 20
344.4334836600037
 30
0.0
 40
8.0
  0
ARC
  5
7CF9
330
1E
100
AcDbEntity
  8
UMCL1
  6
Continuous
 62
     2
100
AcDbCircle
 10
-177.805629136436
 20
344.4334836600037
 30
0.0
 40
7.2
100
AcDbArc
 50
69.11282536526009
 51
17.31224129214165
  0
LINE
  5
7CFA
330
1E
100
AcDbEntity
  8
CENTER
  6
CENTER
100
AcDbLine
 10
-43.80562913643598
 20
363.4334836600037
 30
0.0
 11
-43.80562913643598
 21
325.4334836600037
 31
0.0
  0
CIRCLE
  5
7CFB
330
1E
100
AcDbEntity
  8
UMCL1
  6
Continuous
100
AcDbCircle
 10
-43.80562913643598
 20
344.4334836600037
 30
0.0
 40
8.0
  0
POLYLINE
  5
7CFC
330
1E
100
AcDbEntity
  8
UMCL1
  6
Continuous
100
AcDb2dPolyline
 66
     1
 10
0.0
 20
0.0
 30
0.0
 70
     1
  0
VERTEX
  5
7CFD
330
7CFC
100
AcDbEntity
  8
UMCL1
  6
Continuous
100
AcDbVertex
100
AcDb2dVertex
 10
-50.73383236671157
 20
356.4334836600037
 30
0.0
  0
VERTEX
  5
7CFE
330
7CFC
100
AcDbEntity
  8
UMCL1
  6
Continuous
100
AcDbVertex
100
AcDb2dVertex
 10
-57.66203559698692
 20
344.4334836600037
 30
0.0
  0
VERTEX
  5
7CFF
330
7CFC
100
AcDbEntity
  8
UMCL1
  6
Continuous
100
AcDbVertex
100
AcDb2dVertex
 10
-50.73383236671157
 20
332.4334836600038
 30
0.0
  0
VERTEX
  5
7D00
330
7CFC
100
AcDbEntity
  8
UMCL1
  6
Continuous
100
AcDbVertex
100
AcDb2dVertex
 10
-36.8774259061604
 20
332.4334836600038
 30
0.0
  0
VERTEX
  5
7D01
330
7CFC
100
AcDbEntity
  8
UMCL1
  6
Continuous
100
AcDbVertex
100
AcDb2dVertex
 10
-29.94922267588504
 20
344.4334836600037
 30
0.0
  0
VERTEX
  5
7D02
330
7CFC
100
AcDbEntity
  8
UMCL1
  6
Continuous
100
AcDbVertex
100
AcDb2dVertex
 10
-36.8774259061604
 20
356.4334836600037
 30
0.0
  0
SEQEND
  5
7D03
330
7CFC
100
AcDbEntity
  8
UMCL1
  6
Continuous
  0
CIRCLE
  5
7D04
330
1E
100
AcDbEntity
  8
UMCL1
  6
Continuous
100
AcDbCircle
 10
-43.80562913643598
 20
344.4334836600037
 30
0.0
 40
12.0
  0
ARC
  5
7D05
330
1E
100
AcDbEntity
  8
UMCL1
  6
Continuous
 62
     2
100
AcDbCircle
 10
-43.80562913643598
 20
344.4334836600037
 30
0.0
 40
7.2
100
AcDbArc
 50
69.11282536526009
 51
17.31224129214165
  0
LINE
  5
7D06
330
1E
100
AcDbEntity
  8
UMCL1
  6
Continuous
100
AcDbLine
 10
69.14448733362019
 20
497.4334836600035
 30
0.0
 11
69.14448733361997
 21
323.9334836600037
 31
0.0
  0
LINE
  5
7D07
330
1E
100
AcDbEntity
  8
UMCL1
  6
Continuous
100
AcDbLine
 10
48.64448733361996
 20
330.5770771994525
 30
0.0
 11
63.14448733361996
 21
330.5770771994525
 31
0.0
  0
LINE
  5
7D08
330
1E
100
AcDbEntity
  8
UMCL1
  6
Continuous
100
AcDbLine
 10
48.64448733361996
 20
358.2898901205547
 30
0.0
 11
68.93519374559446
 21
358.2898901205547
 31
0.0
  0
LINE
  5
7D09
330
1E
100
AcDbEntity
  8
CENTER
  6
CENTER
100
AcDbLine
 10
39.10791455106687
 20
344.4334836600037
 30
0.0
 11
423.6982746873056
 21
344.4334836600039
 31
0.0
  0
LINE
  5
7D0A
330
1E
100
AcDbEntity
  8
UMCL1
  6
Continuous
100
AcDbLine
 10
60.14448733361996
 20
358.2898901205544
 30
0.0
 11
60.14448733361996
 21
330.5770771994525
 31
0.0
  0
LINE
  5
7D0B
330
1E
100
AcDbEntity
  8
UMCL1
  6
Continuous
100
AcDbLine
 10
47.14448733361996
 20
356.2898901205547
 30
0.0
 11
47.14448733361996
 21
332.5770771994525
 31
0.0
  0
ARC
  5
7D0C
330
1E
100
AcDbEntity
  8
UMCL1
  6
Continuous
100
AcDbCircle
 10
63.8944873336236
 20
344.4334836600033
 30
0.0
 40
16.75000000000346
100
AcDbArc
 50
155.5673023205492
 51
204.4326976794442
  0
LINE
  5
7D0D
330
1E
100
AcDbEntity
  8
UMCL1
  6
Continuous
100
AcDbLine
 10
45.64448733361996
 20
352.4334836600037
 30
0.0
 11
45.64448733361996
 21
336.4334836600037
 31
0.0
  0
LINE
  5
7D0E
330
1E
100
AcDbEntity
  8
UMCL1
  6
Continuous
100
AcDbLine
 10
44.14448733361996
 20
350.9334836600037
 30
0.0
 11
44.14448733361996
 21
337.9334836600037
 31
0.0
  0
LINE
  5
7D0F
330
1E
100
AcDbEntity
  8
UMCL1
  6
Continuous
100
AcDbLine
 10
48.64448733361996
 20
337.5052804297279
 30
0.0
 11
60.14448733361996
 21
337.5052804297279
 31
0.0
  0
ARC
  5
7D10
330
1E
100
AcDbEntity
  8
UMCL1
  6
Continuous
100
AcDbCircle
 10
51.89448733361996
 20
334.0411788145902
 30
0.0
 40
4.749999999999908
100
AcDbArc
 50
133.1735511072561
 51
226.8264488927427
  0
LINE
  5
7D11
330
1E
100
AcDbEntity
  8
UMCL1
  6
Continuous
100
AcDbLine
 10
48.64448733361996
 20
330.5770771994525
 30
0.0
 11
47.14448733361996
 21
332.5770771994525
 31
0.0
  0
LINE
  5
7D12
330
1E
100
AcDbEntity
  8
UMCL1
  6
Continuous
100
AcDbLine
 10
44.14448733361996
 20
337.9334836600037
 30
0.0
 11
45.64448733361996
 21
336.4334836600037
 31
0.0
  0
LINE
  5
7D13
330
1E
100
AcDbEntity
  8
UMCL1
 62
     2
100
AcDbLine
 10
44.64448733361996
 20
337.4334836600037
 30
0.0
 11
47.14448733361996
 21
337.4334836600037
 31
0.0
  0
LINE
  5
7D14
330
1E
100
AcDbEntity
  8
UMCL1
100
AcDbLine
 10
45.64448733361996
 20
336.4334836600037
 30
0.0
 11
47.14448733361996
 21
336.4334836600037
 31
0.0
  0
LINE
  5
7D15
330
1E
100
AcDbEntity
  8
UMCL1
  6
Continuous
100
AcDbLine
 10
48.64448733361996
 20
351.3616868902791
 30
0.0
 11
60.14448733361996
 21
351.3616868902791
 31
0.0
  0
LINE
  5
7D16
330
1E
100
AcDbEntity
  8
UMCL1
  6
Continuous
100
AcDbLine
 10
45.64448733361996
 20
352.4334836600037
 30
0.0
 11
44.14448733361996
 21
350.9334836600037
 31
0.0
  0
LINE
  5
7D17
330
1E
100
AcDbEntity
  8
UMCL1
 62
     2
100
AcDbLine
 10
44.64448733361996
 20
351.4334836600037
 30
0.0
 11
47.14448733361996
 21
351.4334836600037
 31
0.0
  0
LINE
  5
7D18
330
1E
100
AcDbEntity
  8
UMCL1
  6
Continuous
100
AcDbLine
 10
48.64448733361996
 20
358.2898901205547
 30
0.0
 11
47.14448733361996
 21
356.2898901205547
 31
0.0
  0
ARC
  5
7D19
330
1E
100
AcDbEntity
  8
UMCL1
  6
Continuous
100
AcDbCircle
 10
51.89448733361996
 20
354.8257885054168
 30
0.0
 40
4.749999999999908
100
AcDbArc
 50
133.1735511072561
 51
226.8264488927427
  0
LINE
  5
7D1A
330
1E
100
AcDbEntity
  8
UMCL1
100
AcDbLine
 10
45.64448733361996
 20
352.4334836600037
 30
0.0
 11
47.14448733361996
 21
352.4334836600037
 31
0.0
  0
LINE
  5
7D1B
330
1E
100
AcDbEntity
  8
UMCL1
100
AcDbLine
 10
109.1444873336204
 20
325.4334836600037
 30
0.0
 11
69.14448733362042
 21
325.4334836600037
 31
0.0
  0
LINE
  5
7D1C
330
1E
100
AcDbEntity
  8
UMCL1
  6
Continuous
100
AcDbLine
 10
53.64448733362019
 20
464.5770771994525
 30
0.0
 11
69.14448733362019
 21
464.5770771994525
 31
0.0
  0
LINE
  5
7D1D
330
1E
100
AcDbEntity
  8
UMCL1
  6
Continuous
100
AcDbLine
 10
53.64448733362019
 20
492.2898901205546
 30
0.0
 11
69.14448733362019
 21
492.2898901205546
 31
0.0
  0
LINE
  5
7D1E
330
1E
100
AcDbEntity
  8
CENTER
  6
CENTER
100
AcDbLine
 10
45.10791455106709
 20
478.4334836600034
 30
0.0
 11
417.8568304285298
 21
478.4334836600034
 31
0.0
  0
LINE
  5
7D1F
330
1E
100
AcDbEntity
  8
UMCL1
  6
Continuous
100
AcDbLine
 10
65.14448733362019
 20
492.2898901205544
 30
0.0
 11
65.14448733362019
 21
464.5770771994525
 31
0.0
  0
LINE
  5
7D20
330
1E
100
AcDbEntity
  8
UMCL1
  6
Continuous
100
AcDbLine
 10
52.14448733362019
 20
490.2898901205547
 30
0.0
 11
52.14448733362019
 21
466.5770771994525
 31
0.0
  0
LINE
  5
7D21
330
1E
100
AcDbEntity
  8
UMCL1
  6
Continuous
100
AcDbLine
 10
49.14448733362019
 20
484.9334836600035
 30
0.0
 11
49.14448733362019
 21
471.9334836600035
 31
0.0
  0
LINE
  5
7D22
330
1E
100
AcDbEntity
  8
UMCL1
  6
Continuous
100
AcDbLine
 10
50.64448733362019
 20
486.4334836600034
 30
0.0
 11
50.64448733362019
 21
470.4334836600037
 31
0.0
  0
ARC
  5
7D23
330
1E
100
AcDbEntity
  8
UMCL1
  6
Continuous
100
AcDbCircle
 10
68.89448733362383
 20
478.4334836600033
 30
0.0
 40
16.75000000000346
100
AcDbArc
 50
155.5673023205492
 51
204.4326976794442
  0
ARC
  5
7D24
330
1E
100
AcDbEntity
  8
UMCL1
  6
Continuous
100
AcDbCircle
 10
56.89448733362019
 20
468.0411788145902
 30
0.0
 40
4.749999999999908
100
AcDbArc
 50
133.1735511072573
 51
226.8264488927427
  0
LINE
  5
7D25
330
1E
100
AcDbEntity
  8
UMCL1
  6
Continuous
100
AcDbLine
 10
53.64448733362019
 20
464.5770771994525
 30
0.0
 11
52.14448733362019
 21
466.5770771994525
 31
0.0
  0
LINE
  5
7D26
330
1E
100
AcDbEntity
  8
UMCL1
  6
Continuous
100
AcDbLine
 10
53.64448733362019
 20
471.5052804297276
 30
0.0
 11
65.14448733362019
 21
471.5052804297279
 31
0.0
  0
LINE
  5
7D27
330
1E
100
AcDbEntity
  8
UMCL1
  6
Continuous
100
AcDbLine
 10
49.14448733362019
 20
471.9334836600035
 30
0.0
 11
50.64448733362019
 21
470.4334836600034
 31
0.0
  0
LINE
  5
7D28
330
1E
100
AcDbEntity
  8
UMCL1
 62
     2
100
AcDbLine
 10
49.64448733362019
 20
471.4334836600035
 30
0.0
 11
52.14448733362019
 21
471.4334836600035
 31
0.0
  0
LINE
  5
7D29
330
1E
100
AcDbEntity
  8
UMCL1
100
AcDbLine
 10
50.64448733362019
 20
470.4334836600034
 30
0.0
 11
52.14448733362019
 21
470.4334836600034
 31
0.0
  0
LINE
  5
7D2A
330
1E
100
AcDbEntity
  8
UMCL1
  6
Continuous
100
AcDbLine
 10
53.64448733362019
 20
485.3616868902791
 30
0.0
 11
65.14448733362019
 21
485.3616868902791
 31
0.0
  0
ARC
  5
7D2B
330
1E
100
AcDbEntity
  8
UMCL1
  6
Continuous
100
AcDbCircle
 10
56.89448733362019
 20
488.8257885054168
 30
0.0
 40
4.749999999999908
100
AcDbArc
 50
133.1735511072573
 51
226.8264488927427
  0
LINE
  5
7D2C
330
1E
100
AcDbEntity
  8
UMCL1
  6
Continuous
100
AcDbLine
 10
50.64448733362019
 20
486.4334836600034
 30
0.0
 11
49.14448733362019
 21
484.9334836600035
 31
0.0
  0
LINE
  5
7D2D
330
1E
100
AcDbEntity
  8
UMCL1
 62
     2
100
AcDbLine
 10
49.64448733362019
 20
485.4334836600035
 30
0.0
 11
52.14448733362019
 21
485.4334836600035
 31
0.0
  0
LINE
  5
7D2E
330
1E
100
AcDbEntity
  8
UMCL1
100
AcDbLine
 10
50.64448733362019
 20
486.4334836600034
 30
0.0
 11
52.14448733362019
 21
486.4334836600034
 31
0.0
  0
LINE
  5
7D2F
330
1E
100
AcDbEntity
  8
UMCL1
  6
Continuous
100
AcDbLine
 10
53.64448733362019
 20
492.2898901205546
 30
0.0
 11
52.14448733362019
 21
490.2898901205547
 31
0.0
  0
LINE
  5
7D30
330
1E
100
AcDbEntity
  8
UMCL1
100
AcDbLine
 10
109.1444873336202
 20
497.4334836600035
 30
0.0
 11
69.14448733362019
 21
497.4334836600035
 31
0.0
  0
LINE
  5
7D31
330
1E
100
AcDbEntity
  8
CENTER
  6
CENTER
100
AcDbLine
 10
-62.80562913643598
 20
478.4334836600034
 30
0.0
 11
-24.80562913643598
 21
478.4334836600034
 31
0.0
  0
ARC
  5
7D32
330
1E
100
AcDbEntity
  8
UMCL1
100
AcDbCircle
 10
-36.80562913643598
 20
485.4334836600035
 30
0.0
 40
12.0
100
AcDbArc
 50
0.0
 51
90.0
  0
LINE
  5
7D33
330
1E
100
AcDbEntity
  8
CENTER
  6
CENTER
100
AcDbLine
 10
-203.9893442270604
 20
411.4334836600037
 30
0.0
 11
-17.55674891461876
 21
411.4334836600037
 31
0.0
  0
LINE
  5
7D34
330
1E
100
AcDbEntity
  8
UMCL1
100
AcDbLine
 10
-184.805629136436
 20
497.4334836600035
 30
0.0
 11
-36.80562913643598
 21
497.4334836600035
 31
0.0
  0
LINE
  5
7D35
330
1E
100
AcDbEntity
  8
CENTER
  6
CENTER
100
AcDbLine
 10
-177.805629136436
 20
497.4334836600035
 30
0.0
 11
-177.805629136436
 21
459.4334836600035
 31
0.0
  0
POLYLINE
  5
7D36
330
1E
100
AcDbEntity
  8
UMCL1
  6
CENTER
100
AcDb2dPolyline
 66
     1
 10
0.0
 20
0.0
 30
0.0
 70
     1
  0
VERTEX
  5
7D37
330
7D36
100
AcDbEntity
  8
UMCL1
  6
CENTER
100
AcDbVertex
100
AcDb2dVertex
 10
-184.7338323667115
 20
490.4334836600034
 30
0.0
  0
VERTEX
  5
7D38
330
7D36
100
AcDbEntity
  8
UMCL1
  6
CENTER
100
AcDbVertex
100
AcDb2dVertex
 10
-191.6620355969869
 20
478.4334836600034
 30
0.0
  0
VERTEX
  5
7D39
330
7D36
100
AcDbEntity
  8
UMCL1
  6
CENTER
100
AcDbVertex
100
AcDb2dVertex
 10
-184.7338323667115
 20
466.4334836600034
 30
0.0
  0
VERTEX
  5
7D3A
330
7D36
100
AcDbEntity
  8
UMCL1
  6
CENTER
100
AcDbVertex
100
AcDb2dVertex
 10
-170.8774259061604
 20
466.4334836600034
 30
0.0
  0
VERTEX
  5
7D3B
330
7D36
100
AcDbEntity
  8
UMCL1
  6
CENTER
100
AcDbVertex
100
AcDb2dVertex
 10
-163.949222675885
 20
478.4334836600034
 30
0.0
  0
VERTEX
  5
7D3C
330
7D36
100
AcDbEntity
  8
UMCL1
  6
CENTER
100
AcDbVertex
100
AcDb2dVertex
 10
-170.8774259061604
 20
490.4334836600034
 30
0.0
  0
SEQEND
  5
7D3D
330
7D36
100
AcDbEntity
  8
UMCL1
  6
CENTER
  0
LINE
  5
7D3E
330
1E
100
AcDbEntity
  8
CENTER
  6
CENTER
100
AcDbLine
 10
-196.8056291364359
 20
478.4334836600034
 30
0.0
 11
-158.805629136436
 21
478.4334836600034
 31
0.0
  0
ARC
  5
7D3F
330
1E
100
AcDbEntity
  8
UMCL1
100
AcDbCircle
 10
-184.805629136436
 20
485.4334836600035
 30
0.0
 40
12.0
100
AcDbArc
 50
90.0
 51
180.0
  0
CIRCLE
  5
7D40
330
1E
100
AcDbEntity
  8
UMCL1
  6
Continuous
100
AcDbCircle
 10
-177.805629136436
 20
478.4334836600034
 30
0.0
 40
12.0
  0
ARC
  5
7D41
330
1E
100
AcDbEntity
  8
UMCL1
  6
Continuous
 62
     2
100
AcDbCircle
 10
-177.805629136436
 20
478.4334836600034
 30
0.0
 40
7.2
100
AcDbArc
 50
69.11282536526009
 51
17.31224129214165
  0
CIRCLE
  5
7D42
330
1E
100
AcDbEntity
  8
UMCL1
  6
Continuous
100
AcDbCircle
 10
-177.805629136436
 20
478.4334836600034
 30
0.0
 40
8.0
  0
LINE
  5
7D43
330
1E
100
AcDbEntity
  8
CENTER
  6
CENTER
100
AcDbLine
 10
-43.80562913643598
 20
497.4334836600035
 30
0.0
 11
-43.80562913643598
 21
459.4334836600035
 31
0.0
  0
CIRCLE
  5
7D44
330
1E
100
AcDbEntity
  8
UMCL1
  6
Continuous
100
AcDbCircle
 10
-43.80562913643598
 20
478.4334836600034
 30
0.0
 40
8.0
  0
POLYLINE
  5
7D45
330
1E
100
AcDbEntity
  8
UMCL1
  6
Continuous
100
AcDb2dPolyline
 66
     1
 10
0.0
 20
0.0
 30
0.0
 70
     1
  0
VERTEX
  5
7D46
330
7D45
100
AcDbEntity
  8
UMCL1
  6
Continuous
100
AcDbVertex
100
AcDb2dVertex
 10
-50.73383236671157
 20
490.4334836600034
 30
0.0
  0
VERTEX
  5
7D47
330
7D45
100
AcDbEntity
  8
UMCL1
  6
Continuous
100
AcDbVertex
100
AcDb2dVertex
 10
-57.66203559698692
 20
478.4334836600034
 30
0.0
  0
VERTEX
  5
7D48
330
7D45
100
AcDbEntity
  8
UMCL1
  6
Continuous
100
AcDbVertex
100
AcDb2dVertex
 10
-50.73383236671157
 20
466.4334836600034
 30
0.0
  0
VERTEX
  5
7D49
330
7D45
100
AcDbEntity
  8
UMCL1
  6
Continuous
100
AcDbVertex
100
AcDb2dVertex
 10
-36.8774259061604
 20
466.4334836600034
 30
0.0
  0
VERTEX
  5
7D4A
330
7D45
100
AcDbEntity
  8
UMCL1
  6
Continuous
100
AcDbVertex
100
AcDb2dVertex
 10
-29.94922267588504
 20
478.4334836600034
 30
0.0
  0
VERTEX
  5
7D4B
330
7D45
100
AcDbEntity
  8
UMCL1
  6
Continuous
100
AcDbVertex
100
AcDb2dVertex
 10
-36.8774259061604
 20
490.4334836600034
 30
0.0
  0
SEQEND
  5
7D4C
330
7D45
100
AcDbEntity
  8
UMCL1
  6
Continuous
  0
CIRCLE
  5
7D4D
330
1E
100
AcDbEntity
  8
UMCL1
  6
Continuous
100
AcDbCircle
 10
-43.80562913643598
 20
478.4334836600034
 30
0.0
 40
12.0
  0
ARC
  5
7D4E
330
1E
100
AcDbEntity
  8
UMCL1
  6
Continuous
 62
     2
100
AcDbCircle
 10
-43.80562913643598
 20
478.4334836600034
 30
0.0
 40
7.2
100
AcDbArc
 50
69.11282536526009
 51
17.31224129214165
  0
LINE
  5
7D4F
330
1E
100
AcDbEntity
  8
UMCL1
  6
Continuous
100
AcDbLine
 10
109.1444873336204
 20
793.6613743402049
 30
0.0
 11
109.1444873336204
 21
621.6613743402054
 31
0.0
  0
LINE
  5
7D50
330
1E
100
AcDbEntity
  8
UMCL1
  6
Continuous
100
AcDbLine
 10
69.14448733362019
 20
793.6613743402049
 30
0.0
 11
69.14448733361997
 21
621.6613743402054
 31
0.0
  0
LINE
  5
7D51
330
1E
100
AcDbEntity
  8
UMCL1
100
AcDbLine
 10
48.64448733361996
 20
648.6613743402053
 30
0.0
 11
52.14448733361996
 21
648.6613743402053
 31
0.0
  0
LINE
  5
7D52
330
1E
100
AcDbEntity
  8
UMCL1
 62
     2
100
AcDbLine
 10
47.64448733361996
 20
647.6613743402054
 30
0.0
 11
52.14448733361996
 21
647.6613743402054
 31
0.0
  0
LINE
  5
7D53
330
1E
100
AcDbEntity
  8
UMCL1
100
AcDbLine
 10
48.64448733361996
 20
632.6613743402053
 30
0.0
 11
52.14448733361996
 21
632.6613743402053
 31
0.0
  0
LINE
  5
7D54
330
1E
100
AcDbEntity
  8
UMCL1
 62
     2
100
AcDbLine
 10
47.64448733361996
 20
633.6613743402054
 30
0.0
 11
52.14448733361996
 21
633.6613743402054
 31
0.0
  0
LINE
  5
7D55
330
1E
100
AcDbEntity
  8
UMCL1
  6
Continuous
100
AcDbLine
 10
47.14448733361996
 20
647.1613743402054
 30
0.0
 11
47.14448733361996
 21
634.1613743402054
 31
0.0
  0
LINE
  5
7D56
330
1E
100
AcDbEntity
  8
UMCL1
  6
Continuous
100
AcDbLine
 10
48.64448733361996
 20
648.6613743402053
 30
0.0
 11
48.64448733361996
 21
632.6613743402053
 31
0.0
  0
LINE
  5
7D57
330
1E
100
AcDbEntity
  8
UMCL1
  6
Continuous
100
AcDbLine
 10
47.14448733361996
 20
634.1613743402054
 30
0.0
 11
48.64448733361996
 21
632.6613743402053
 31
0.0
  0
LINE
  5
7D58
330
1E
100
AcDbEntity
  8
UMCL1
  6
Continuous
100
AcDbLine
 10
48.64448733361996
 20
648.6613743402053
 30
0.0
 11
47.14448733361996
 21
647.1613743402054
 31
0.0
  0
LINE
  5
7D59
330
1E
100
AcDbEntity
  8
UMCL1
  6
HIDDEN
 62
     2
100
AcDbLine
 10
95.39448733362041
 20
621.6613743402054
 30
0.0
 11
94.71318620294074
 21
634.6613743402054
 31
0.0
  0
LINE
  5
7D5A
330
1E
100
AcDbEntity
  8
UMCL1
100
AcDbLine
 10
109.1444873336204
 20
621.6613743402054
 30
0.0
 11
69.14448733362042
 21
621.6613743402054
 31
0.0
  0
LINE
  5
7D5B
330
1E
100
AcDbEntity
  8
UMCL1
  6
Continuous
100
AcDbLine
 10
52.14448733361996
 20
652.5177808007561
 30
0.0
 11
52.14448733361996
 21
628.8049678796542
 31
0.0
  0
LINE
  5
7D5C
330
1E
100
AcDbEntity
  8
UMCL1
  6
Continuous
100
AcDbLine
 10
65.14448733361996
 20
654.5177808007561
 30
0.0
 11
65.14448733361996
 21
626.8049678796542
 31
0.0
  0
ARC
  5
7D5D
330
1E
100
AcDbEntity
  8
UMCL1
  6
Continuous
100
AcDbCircle
 10
68.8944873336236
 20
640.6613743402049
 30
0.0
 40
16.75000000000346
100
AcDbArc
 50
155.5673023205492
 51
204.4326976794442
  0
LINE
  5
7D5E
330
1E
100
AcDbEntity
  8
UMCL1
  6
Continuous
100
AcDbLine
 10
53.64448733361996
 20
633.7331711099295
 30
0.0
 11
65.14448733361996
 21
633.7331711099295
 31
0.0
  0
LINE
  5
7D5F
330
1E
100
AcDbEntity
  8
UMCL1
  6
Continuous
100
AcDbLine
 10
53.64448733361996
 20
626.8049678796542
 30
0.0
 11
69.14448733361997
 21
626.8049678796542
 31
0.0
  0
LINE
  5
7D60
330
1E
100
AcDbEntity
  8
UMCL1
  6
Continuous
100
AcDbLine
 10
53.64448733361996
 20
626.8049678796542
 30
0.0
 11
52.14448733361996
 21
628.8049678796542
 31
0.0
  0
ARC
  5
7D61
330
1E
100
AcDbEntity
  8
UMCL1
  6
Continuous
100
AcDbCircle
 10
56.89448733361996
 20
630.2690694947918
 30
0.0
 40
4.749999999999908
100
AcDbArc
 50
133.1735511072573
 51
226.8264488927427
  0
LINE
  5
7D62
330
1E
100
AcDbEntity
  8
UMCL1
  6
Continuous
100
AcDbLine
 10
53.64448733361996
 20
647.5895775704807
 30
0.0
 11
65.14448733361996
 21
647.5895775704807
 31
0.0
  0
LINE
  5
7D63
330
1E
100
AcDbEntity
  8
UMCL1
  6
Continuous
100
AcDbLine
 10
53.64448733361996
 20
654.5177808007561
 30
0.0
 11
69.14448733361997
 21
654.5177808007561
 31
0.0
  0
LINE
  5
7D64
330
1E
100
AcDbEntity
  8
UMCL1
  6
Continuous
100
AcDbLine
 10
53.64448733361996
 20
654.5177808007561
 30
0.0
 11
52.14448733361996
 21
652.5177808007561
 31
0.0
  0
ARC
  5
7D65
330
1E
100
AcDbEntity
  8
UMCL1
  6
Continuous
100
AcDbCircle
 10
56.89448733361996
 20
651.0536791856184
 30
0.0
 40
4.749999999999908
100
AcDbArc
 50
133.1735511072561
 51
226.8264488927427
  0
LINE
  5
7D66
330
1E
100
AcDbEntity
  8
UMCL1
  6
HIDDEN
 62
     2
100
AcDbLine
 10
75.64448733361996
 20
621.6613743402054
 30
0.0
 11
76.32578846429964
 21
634.6613743402054
 31
0.0
  0
LINE
  5
7D67
330
1E
100
AcDbEntity
  8
UMCL1
  6
HIDDEN
 62
     2
100
AcDbLine
 10
76.89448733361996
 20
621.6613743402054
 30
0.0
 11
77.57578846429987
 21
634.6613743402054
 31
0.0
  0
LINE
  5
7D68
330
1E
100
AcDbEntity
  8
UMCL1
  6
HIDDEN
 62
     2
100
AcDbLine
 10
96.64448733362043
 20
621.6613743402054
 30
0.0
 11
95.9631862029405
 21
634.6613743402054
 31
0.0
  0
LINE
  5
7D69
330
1E
100
AcDbEntity
  8
UMCL1
 62
     2
100
AcDbLine
 10
47.64448733362018
 20
767.6613743402049
 30
0.0
 11
52.14448733362019
 21
767.6613743402049
 31
0.0
  0
LINE
  5
7D6A
330
1E
100
AcDbEntity
  8
UMCL1
100
AcDbLine
 10
48.64448733362019
 20
766.6613743402049
 30
0.0
 11
52.14448733362019
 21
766.6613743402049
 31
0.0
  0
LINE
  5
7D6B
330
1E
100
AcDbEntity
  8
UMCL1
 62
     2
100
AcDbLine
 10
47.64448733362018
 20
781.6613743402049
 30
0.0
 11
52.14448733362019
 21
781.6613743402049
 31
0.0
  0
LINE
  5
7D6C
330
1E
100
AcDbEntity
  8
UMCL1
100
AcDbLine
 10
48.64448733362019
 20
782.6613743402049
 30
0.0
 11
52.14448733362019
 21
782.6613743402049
 31
0.0
  0
LINE
  5
7D6D
330
1E
100
AcDbEntity
  8
UMCL1
  6
Continuous
100
AcDbLine
 10
48.64448733362019
 20
782.6613743402049
 30
0.0
 11
48.64448733362019
 21
766.6613743402049
 31
0.0
  0
LINE
  5
7D6E
330
1E
100
AcDbEntity
  8
UMCL1
  6
Continuous
100
AcDbLine
 10
47.14448733362019
 20
781.1613743402049
 30
0.0
 11
47.14448733362019
 21
768.1613743402049
 31
0.0
  0
LINE
  5
7D6F
330
1E
100
AcDbEntity
  8
UMCL1
  6
Continuous
100
AcDbLine
 10
47.14448733362019
 20
768.1613743402049
 30
0.0
 11
48.64448733362019
 21
766.6613743402049
 31
0.0
  0
LINE
  5
7D70
330
1E
100
AcDbEntity
  8
UMCL1
  6
Continuous
100
AcDbLine
 10
48.64448733362019
 20
782.6613743402049
 30
0.0
 11
47.14448733362019
 21
781.1613743402049
 31
0.0
  0
ARC
  5
7D71
330
1E
100
AcDbEntity
  8
UMCL1
  6
Continuous
100
AcDbCircle
 10
68.89448733362383
 20
774.6613743402047
 30
0.0
 40
16.75000000000346
100
AcDbArc
 50
155.5673023205492
 51
204.4326976794501
  0
LINE
  5
7D72
330
1E
100
AcDbEntity
  8
UMCL1
  6
Continuous
100
AcDbLine
 10
65.14448733362019
 20
788.5177808007559
 30
0.0
 11
65.14448733362019
 21
760.8049678796537
 31
0.0
  0
LINE
  5
7D73
330
1E
100
AcDbEntity
  8
UMCL1
  6
Continuous
100
AcDbLine
 10
52.14448733362019
 20
786.5177808007558
 30
0.0
 11
52.14448733362019
 21
762.8049678796539
 31
0.0
  0
LINE
  5
7D74
330
1E
100
AcDbEntity
  8
UMCL1
  6
Continuous
100
AcDbLine
 10
53.64448733362019
 20
767.7331711099291
 30
0.0
 11
65.14448733362019
 21
767.7331711099291
 31
0.0
  0
LINE
  5
7D75
330
1E
100
AcDbEntity
  8
UMCL1
  6
Continuous
100
AcDbLine
 10
53.64448733362019
 20
760.804967879654
 30
0.0
 11
69.14448733362019
 21
760.804967879654
 31
0.0
  0
LINE
  5
7D76
330
1E
100
AcDbEntity
  8
UMCL1
  6
Continuous
100
AcDbLine
 10
53.64448733362019
 20
760.804967879654
 30
0.0
 11
52.14448733362019
 21
762.8049678796539
 31
0.0
  0
ARC
  5
7D77
330
1E
100
AcDbEntity
  8
UMCL1
  6
Continuous
100
AcDbCircle
 10
56.89448733362019
 20
764.2690694947916
 30
0.0
 40
4.749999999999908
100
AcDbArc
 50
133.1735511072573
 51
226.8264488927439
  0
LINE
  5
7D78
330
1E
100
AcDbEntity
  8
UMCL1
  6
Continuous
100
AcDbLine
 10
53.64448733362019
 20
788.5177808007559
 30
0.0
 11
69.14448733362019
 21
788.5177808007559
 31
0.0
  0
LINE
  5
7D79
330
1E
100
AcDbEntity
  8
UMCL1
  6
Continuous
100
AcDbLine
 10
53.64448733362019
 20
781.5895775704805
 30
0.0
 11
65.14448733362019
 21
781.5895775704805
 31
0.0
  0
LINE
  5
7D7A
330
1E
100
AcDbEntity
  8
UMCL1
  6
Continuous
100
AcDbLine
 10
53.64448733362019
 20
788.5177808007559
 30
0.0
 11
52.14448733362019
 21
786.5177808007558
 31
0.0
  0
ARC
  5
7D7B
330
1E
100
AcDbEntity
  8
UMCL1
  6
Continuous
100
AcDbCircle
 10
56.89448733362019
 20
785.0536791856182
 30
0.0
 40
4.749999999999908
100
AcDbArc
 50
133.1735511072561
 51
226.8264488927427
  0
LINE
  5
7D7C
330
1E
100
AcDbEntity
  8
UMCL1
100
AcDbLine
 10
109.1444873336202
 20
793.6613743402049
 30
0.0
 11
69.14448733362019
 21
793.6613743402049
 31
0.0
  0
LINE
  5
7D7D
330
1E
100
AcDbEntity
  8
UMCL1
100
AcDbLine
 10
823.2263354863139
 20
485.4334836600035
 30
0.0
 11
823.2263354863144
 21
358.2898901205547
 31
0.0
  0
LINE
  5
7D7E
330
1E
100
AcDbEntity
  8
UMCL1
100
AcDbLine
 10
651.2263354863137
 20
485.4334836600035
 30
0.0
 11
651.2263354863143
 21
358.2898901205547
 31
0.0
  0
LINE
  5
7D7F
330
1E
100
AcDbEntity
  8
UMCL1
100
AcDbLine
 10
774.7263354863133
 20
443.9334836600035
 30
0.0
 11
774.7263354863133
 21
378.9334836600037
 31
0.0
  0
LINE
  5
7D80
330
1E
100
AcDbEntity
  8
UMCL1
100
AcDbLine
 10
699.7263354863133
 20
443.9334836600035
 30
0.0
 11
699.7263354863133
 21
378.9334836600037
 31
0.0
  0
CIRCLE
  5
7D81
330
1E
100
AcDbEntity
  8
UMCL1
  6
Continuous
100
AcDbCircle
 10
737.2263354863138
 20
411.4334836600037
 30
0.0
 40
22.50000000000003
  0
LINE
  5
7D82
330
1E
100
AcDbEntity
  8
CENTER
  6
CENTER
100
AcDbLine
 10
712.2263354863138
 20
396.9334836600038
 30
0.0
 11
712.2263354863138
 21
375.9334836600037
 31
0.0
  0
LINE
  5
7D83
330
1E
100
AcDbEntity
  8
CENTER
  6
CENTER
100
AcDbLine
 10
762.2263354863138
 20
396.9334836600038
 30
0.0
 11
762.2263354863138
 21
375.9334836600037
 31
0.0
  0
CIRCLE
  5
7D84
330
1E
100
AcDbEntity
  8
UMCL1
  6
Continuous
100
AcDbCircle
 10
737.2263354863138
 20
411.4334836600037
 30
0.0
 40
25.00000000000003
  0
LINE
  5
7D85
330
1E
100
AcDbEntity
  8
CENTER
  6
CENTER
100
AcDbLine
 10
737.2263354863138
 20
502.8019200284818
 30
0.0
 11
737.2263354863138
 21
309.4583203497846
 31
0.0
  0
LINE
  5
7D86
330
1E
100
AcDbEntity
  8
UMCL1
  6
HIDDEN
 62
     2
100
AcDbLine
 10
624.7263354863138
 20
317.4334836600037
 30
0.0
 11
849.7263354863139
 21
317.4334836600035
 31
0.0
  0
LINE
  5
7D87
330
1E
100
AcDbEntity
  8
UMCL1
100
AcDbLine
 10
624.7263354863138
 20
311.4334836600037
 30
0.0
 11
849.7263354863139
 21
311.4334836600035
 31
0.0
  0
LINE
  5
7D88
330
1E
100
AcDbEntity
  8
UMCL1
  6
HIDDEN
 62
     2
100
AcDbLine
 10
663.2263354863138
 20
325.4334836600037
 30
0.0
 11
811.2263354863136
 21
325.4334836600037
 31
0.0
  0
LINE
  5
7D89
330
1E
100
AcDbEntity
  8
UMCL1
100
AcDbLine
 10
704.7263354863133
 20
373.9334836600037
 30
0.0
 11
769.7263354863133
 21
373.9334836600037
 31
0.0
  0
LINE
  5
7D8A
330
1E
100
AcDbEntity
  8
UMCL1
  6
Continuous
100
AcDbLine
 10
578.1444873336204
 20
433.9334836600037
 30
0.0
 11
578.1444873336202
 21
388.9334836600035
 31
0.0
  0
LINE
  5
7D8B
330
1E
100
AcDbEntity
  8
UMCL1
100
AcDbLine
 10
353.1444873336203
 20
325.4334836600037
 30
0.0
 11
393.1444873336203
 21
325.4334836600037
 31
0.0
  0
LINE
  5
7D8C
330
1E
100
AcDbEntity
  8
UMCL1
100
AcDbLine
 10
393.1444873336204
 20
373.9334836600037
 30
0.0
 11
406.1444873336204
 21
373.9334836600037
 31
0.0
  0
LINE
  5
7D8D
330
1E
100
AcDbEntity
  8
UMCL1
  6
Continuous
100
AcDbLine
 10
416.1444873336205
 20
381.4334836600037
 30
0.0
 11
415.1444873336205
 21
380.4334836600038
 31
0.0
  0
LINE
  5
7D8E
330
1E
100
AcDbEntity
  8
UMCL1
  6
Continuous
100
AcDbLine
 10
415.1444873336205
 20
393.4334836600037
 30
0.0
 11
415.1444873336205
 21
380.4334836600038
 31
0.0
  0
LINE
  5
7D8F
330
1E
100
AcDbEntity
  8
UMCL1
  6
Continuous
100
AcDbLine
 10
408.1444873336205
 20
393.4334836600037
 30
0.0
 11
408.1444873336205
 21
380.4334836600038
 31
0.0
  0
LINE
  5
7D90
330
1E
100
AcDbEntity
  8
UMCL1
100
AcDbLine
 10
406.1444873336204
 20
380.4334836600038
 30
0.0
 11
415.1444873336205
 21
380.4334836600038
 31
0.0
  0
LINE
  5
7D91
330
1E
100
AcDbEntity
  8
UMCL1
  6
Continuous
100
AcDbLine
 10
416.1444873336205
 20
392.4334836600037
 30
0.0
 11
416.1444873336205
 21
381.4334836600037
 31
0.0
  0
LINE
  5
7D92
330
1E
100
AcDbEntity
  8
UMCL1
100
AcDbLine
 10
572.783220032347
 20
386.4334836600037
 30
0.0
 11
578.1444873336202
 21
388.9334836600035
 31
0.0
  0
LINE
  5
7D93
330
1E
100
AcDbEntity
  8
UMCL1
  6
HIDDEN
 62
     2
100
AcDbLine
 10
578.1444873336204
 20
400.9709836600038
 30
0.0
 11
566.1425399121033
 21
401.7211053738485
 31
0.0
  0
LINE
  5
7D94
330
1E
100
AcDbEntity
  8
UMCL1
  6
HIDDEN
 62
     2
100
AcDbLine
 10
578.1444873336204
 20
402.0709836600038
 30
0.0
 11
565.1444873336203
 21
402.8834836600037
 31
0.0
  0
LINE
  5
7D95
330
1E
100
AcDbEntity
  8
UMCL1
  6
HIDDEN
 62
     2
100
AcDbLine
 10
565.1444873336203
 20
402.7834836600034
 30
0.0
 11
566.1425399121033
 21
401.7211053738485
 31
0.0
  0
LINE
  5
7D96
330
1E
100
AcDbEntity
  8
UMCL1
  6
Continuous
100
AcDbLine
 10
393.1444873336204
 20
497.4334836600035
 30
0.0
 11
393.1444873336208
 21
323.9334836600038
 31
0.0
  0
LINE
  5
7D97
330
1E
100
AcDbEntity
  8
UMCL1
  6
Continuous
100
AcDbLine
 10
406.1444873336204
 20
448.9334836600034
 30
0.0
 11
406.144487333621
 21
373.9334836600037
 31
0.0
  0
LINE
  5
7D98
330
1E
100
AcDbEntity
  8
UMCL1
  6
Continuous
100
AcDbLine
 10
416.1444873336205
 20
441.4334836600034
 30
0.0
 11
415.1444873336205
 21
442.4334836600035
 31
0.0
  0
LINE
  5
7D99
330
1E
100
AcDbEntity
  8
UMCL1
100
AcDbLine
 10
406.1444873336204
 20
442.4334836600035
 30
0.0
 11
415.1444873336205
 21
442.4334836600035
 31
0.0
  0
LINE
  5
7D9A
330
1E
100
AcDbEntity
  8
UMCL1
  6
Continuous
100
AcDbLine
 10
408.1444873336206
 20
429.4334836600041
 30
0.0
 11
408.1444873336205
 21
442.4334836600035
 31
0.0
  0
LINE
  5
7D9B
330
1E
100
AcDbEntity
  8
UMCL1
  6
Continuous
100
AcDbLine
 10
415.1444873336205
 20
429.433483660004
 30
0.0
 11
415.1444873336205
 21
442.4334836600035
 31
0.0
  0
LINE
  5
7D9C
330
1E
100
AcDbEntity
  8
UMCL1
  6
Continuous
100
AcDbLine
 10
416.1444873336205
 20
430.4334836600039
 30
0.0
 11
416.1444873336205
 21
441.4334836600034
 31
0.0
  0
LINE
  5
7D9D
330
1E
100
AcDbEntity
  8
UMCL1
100
AcDbLine
 10
393.1444873336205
 20
448.9334836600034
 30
0.0
 11
406.1444873336204
 21
448.9334836600034
 31
0.0
  0
LINE
  5
7D9E
330
1E
100
AcDbEntity
  8
UMCL1
100
AcDbLine
 10
353.1444873336204
 20
497.4334836600035
 30
0.0
 11
393.1444873336204
 21
497.4334836600035
 31
0.0
  0
LINE
  5
7D9F
330
1E
100
AcDbEntity
  8
UMCL1
  6
HIDDEN
 62
     2
100
AcDbLine
 10
542.0899349175747
 20
426.9334836600036
 30
0.0
 11
541.5920610143857
 21
436.4334836600037
 31
0.0
  0
LINE
  5
7DA0
330
1E
100
AcDbEntity
  8
UMCL1
  6
HIDDEN
 62
     2
100
AcDbLine
 10
554.1941871111966
 20
426.9334836600036
 30
0.0
 11
554.6920610143855
 21
436.4334836600037
 31
0.0
  0
LINE
  5
7DA1
330
1E
100
AcDbEntity
  8
CENTER
  6
CENTER
100
AcDbLine
 10
548.1420610143857
 20
441.2664107350626
 30
0.0
 11
548.1420610143857
 21
419.2664107350628
 31
0.0
  0
LINE
  5
7DA2
330
1E
100
AcDbEntity
  8
UMCL1
  6
HIDDEN
 62
     2
100
AcDbLine
 10
542.8899349175745
 20
426.9334836600036
 30
0.0
 11
542.3920610143857
 21
436.4334836600037
 31
0.0
  0
LINE
  5
7DA3
330
1E
100
AcDbEntity
  8
UMCL1
  6
HIDDEN
 62
     2
100
AcDbLine
 10
553.3941871111967
 20
426.9334836600036
 30
0.0
 11
553.8920610143856
 21
436.4334836600037
 31
0.0
  0
LINE
  5
7DA4
330
1E
100
AcDbEntity
  8
UMCL1
  6
HIDDEN
 62
     2
100
AcDbLine
 10
578.1444873336204
 20
421.8959836600038
 30
0.0
 11
566.1425399121034
 21
421.1458619461591
 31
0.0
  0
LINE
  5
7DA5
330
1E
100
AcDbEntity
  8
UMCL1
  6
HIDDEN
 62
     2
100
AcDbLine
 10
565.1444873336205
 20
419.9834836600039
 30
0.0
 11
578.1444873336204
 21
420.7959836600038
 31
0.0
  0
LINE
  5
7DA6
330
1E
100
AcDbEntity
  8
UMCL1
  6
HIDDEN
 62
     2
100
AcDbLine
 10
566.1425399121034
 20
421.1458619461591
 30
0.0
 11
565.1444873336205
 21
420.0834836600038
 31
0.0
  0
LINE
  5
7DA7
330
1E
100
AcDbEntity
  8
UMCL1
100
AcDbLine
 10
572.7832200323466
 20
436.4334836600037
 30
0.0
 11
578.1444873336204
 21
433.9334836600037
 31
0.0
  0
ARC
  5
7DA8
330
1E
100
AcDbEntity
  8
UMCL1
  6
HIDDEN
 62
     2
100
AcDbCircle
 10
663.2263354863138
 20
337.4334836600037
 30
0.0
 40
12.0
100
AcDbArc
 50
180.0
 51
270.0
  0
LINE
  5
7DA9
330
1E
100
AcDbEntity
  8
CENTER
  6
CENTER
100
AcDbLine
 10
651.2263354863137
 20
344.4334836600037
 30
0.0
 11
689.2263354863138
 21
344.4334836600037
 31
0.0
  0
LINE
  5
7DAA
330
1E
100
AcDbEntity
  8
CENTER
  6
CENTER
100
AcDbLine
 10
637.2263354863139
 20
323.752296864938
 30
0.0
 11
637.2263354863139
 21
309.0781160926271
 31
0.0
  0
LINE
  5
7DAB
330
1E
100
AcDbEntity
  8
UMCL1
100
AcDbLine
 10
624.7263354863138
 20
317.4334836600037
 30
0.0
 11
624.7263354863138
 21
311.4334836600035
 31
0.0
  0
LINE
  5
7DAC
330
1E
100
AcDbEntity
  8
UMCL1
  6
HIDDEN
 62
     2
100
AcDbLine
 10
631.7263354863138
 20
317.4334836600037
 30
0.0
 11
631.7263354863138
 21
311.4334836600035
 31
0.0
  0
LINE
  5
7DAD
330
1E
100
AcDbEntity
  8
UMCL1
  6
HIDDEN
 62
     2
100
AcDbLine
 10
642.7263354863137
 20
317.4334836600037
 30
0.0
 11
642.7263354863137
 21
311.4334836600035
 31
0.0
  0
LINE
  5
7DAE
330
1E
100
AcDbEntity
  8
UMCL1
  6
HIDDEN
 62
     2
100
AcDbLine
 10
651.2263354863137
 20
358.2898901205547
 30
0.0
 11
651.2263354863137
 21
337.4334836600037
 31
0.0
  0
LINE
  5
7DAF
330
1E
100
AcDbEntity
  8
CENTER
  6
CENTER
100
AcDbLine
 10
670.2263354863138
 20
363.4334836600037
 30
0.0
 11
670.2263354863138
 21
325.4334836600037
 31
0.0
  0
ARC
  5
7DB0
330
1E
100
AcDbEntity
  8
UMCL1
  6
Continuous
 62
     2
100
AcDbCircle
 10
670.2263354863138
 20
344.4334836600037
 30
0.0
 40
7.2
100
AcDbArc
 50
69.11282536526009
 51
17.31224129214165
  0
CIRCLE
  5
7DB1
330
1E
100
AcDbEntity
  8
UMCL1
  6
Continuous
100
AcDbCircle
 10
670.2263354863138
 20
344.4334836600037
 30
0.0
 40
12.0
  0
POLYLINE
  5
7DB2
330
1E
100
AcDbEntity
  8
UMCL1
  6
Continuous
100
AcDb2dPolyline
 66
     1
 10
0.0
 20
0.0
 30
0.0
 70
     1
  0
VERTEX
  5
7DB3
330
7DB2
100
AcDbEntity
  8
UMCL1
  6
Continuous
100
AcDbVertex
100
AcDb2dVertex
 10
663.298132256038
 20
356.4334836600037
 30
0.0
  0
VERTEX
  5
7DB4
330
7DB2
100
AcDbEntity
  8
UMCL1
  6
Continuous
100
AcDbVertex
100
AcDb2dVertex
 10
656.3699290257626
 20
344.4334836600037
 30
0.0
  0
VERTEX
  5
7DB5
330
7DB2
100
AcDbEntity
  8
UMCL1
  6
Continuous
100
AcDbVertex
100
AcDb2dVertex
 10
663.298132256038
 20
332.4334836600038
 30
0.0
  0
VERTEX
  5
7DB6
330
7DB2
100
AcDbEntity
  8
UMCL1
  6
Continuous
100
AcDbVertex
100
AcDb2dVertex
 10
677.1545387165891
 20
332.4334836600038
 30
0.0
  0
VERTEX
  5
7DB7
330
7DB2
100
AcDbEntity
  8
UMCL1
  6
Continuous
100
AcDbVertex
100
AcDb2dVertex
 10
684.0827419468645
 20
344.4334836600037
 30
0.0
  0
VERTEX
  5
7DB8
330
7DB2
100
AcDbEntity
  8
UMCL1
  6
Continuous
100
AcDbVertex
100
AcDb2dVertex
 10
677.1545387165891
 20
356.4334836600037
 30
0.0
  0
SEQEND
  5
7DB9
330
7DB2
100
AcDbEntity
  8
UMCL1
  6
Continuous
  0
CIRCLE
  5
7DBA
330
1E
100
AcDbEntity
  8
UMCL1
  6
Continuous
100
AcDbCircle
 10
670.2263354863138
 20
344.4334836600037
 30
0.0
 40
8.0
  0
LINE
  5
7DBB
330
1E
100
AcDbEntity
  8
CENTER
  6
CENTER
100
AcDbLine
 10
701.7263354863138
 20
386.4334836600037
 30
0.0
 11
722.7263354863138
 21
386.4334836600037
 31
0.0
  0
CIRCLE
  5
7DBC
330
1E
100
AcDbEntity
  8
UMCL1
  6
Continuous
100
AcDbCircle
 10
712.2263354863138
 20
386.4334836600037
 30
0.0
 40
8.0
  0
LINE
  5
7DBD
330
1E
100
AcDbEntity
  8
UMCL1
100
AcDbLine
 10
699.7263354863133
 20
378.9334836600037
 30
0.0
 11
704.7263354863133
 21
373.9334836600037
 31
0.0
  0
CIRCLE
  5
7DBE
330
1E
100
AcDbEntity
  8
UMCL1
  6
Continuous
100
AcDbCircle
 10
712.2263354863138
 20
386.4334836600037
 30
0.0
 40
7.0
  0
POLYLINE
  5
7DBF
330
1E
100
AcDbEntity
  8
UMCL1
  6
Continuous
100
AcDb2dPolyline
 66
     1
 10
0.0
 20
0.0
 30
0.0
 70
     1
  0
VERTEX
  5
7DC0
330
7DBF
100
AcDbEntity
  8
UMCL1
  6
Continuous
100
AcDbVertex
100
AcDb2dVertex
 10
709.9169344095551
 20
390.4334836600037
 30
0.0
  0
VERTEX
  5
7DC1
330
7DBF
100
AcDbEntity
  8
UMCL1
  6
Continuous
100
AcDbVertex
100
AcDb2dVertex
 10
707.6075333327966
 20
386.4334836600037
 30
0.0
  0
VERTEX
  5
7DC2
330
7DBF
100
AcDbEntity
  8
UMCL1
  6
Continuous
100
AcDbVertex
100
AcDb2dVertex
 10
709.9169344095551
 20
382.4334836600037
 30
0.0
  0
VERTEX
  5
7DC3
330
7DBF
100
AcDbEntity
  8
UMCL1
  6
Continuous
100
AcDbVertex
100
AcDb2dVertex
 10
714.5357365630724
 20
382.4334836600037
 30
0.0
  0
VERTEX
  5
7DC4
330
7DBF
100
AcDbEntity
  8
UMCL1
  6
Continuous
100
AcDbVertex
100
AcDb2dVertex
 10
716.8451376398305
 20
386.4334836600037
 30
0.0
  0
VERTEX
  5
7DC5
330
7DBF
100
AcDbEntity
  8
UMCL1
  6
Continuous
100
AcDbVertex
100
AcDb2dVertex
 10
714.5357365630724
 20
390.4334836600037
 30
0.0
  0
SEQEND
  5
7DC6
330
7DBF
100
AcDbEntity
  8
UMCL1
  6
Continuous
  0
ARC
  5
7DC7
330
1E
100
AcDbEntity
  8
UMCL1
  6
HIDDEN
 62
     2
100
AcDbCircle
 10
811.2263354863136
 20
337.4334836600037
 30
0.0
 40
12.0
100
AcDbArc
 50
270.0
 51
0.0
  0
LINE
  5
7DC8
330
1E
100
AcDbEntity
  8
CENTER
  6
CENTER
100
AcDbLine
 10
804.2263354863136
 20
363.4334836600037
 30
0.0
 11
804.2263354863136
 21
325.4334836600037
 31
0.0
  0
LINE
  5
7DC9
330
1E
100
AcDbEntity
  8
CENTER
  6
CENTER
100
AcDbLine
 10
785.2263354863138
 20
344.4334836600037
 30
0.0
 11
823.2263354863139
 21
344.4334836600037
 31
0.0
  0
POLYLINE
  5
7DCA
330
1E
100
AcDbEntity
  8
UMCL1
  6
Continuous
100
AcDb2dPolyline
 66
     1
 10
0.0
 20
0.0
 30
0.0
 70
     1
  0
VERTEX
  5
7DCB
330
7DCA
100
AcDbEntity
  8
UMCL1
  6
Continuous
100
AcDbVertex
100
AcDb2dVertex
 10
797.2981322560379
 20
356.4334836600037
 30
0.0
  0
VERTEX
  5
7DCC
330
7DCA
100
AcDbEntity
  8
UMCL1
  6
Continuous
100
AcDbVertex
100
AcDb2dVertex
 10
790.3699290257626
 20
344.4334836600037
 30
0.0
  0
VERTEX
  5
7DCD
330
7DCA
100
AcDbEntity
  8
UMCL1
  6
Continuous
100
AcDbVertex
100
AcDb2dVertex
 10
797.2981322560379
 20
332.4334836600038
 30
0.0
  0
VERTEX
  5
7DCE
330
7DCA
100
AcDbEntity
  8
UMCL1
  6
Continuous
100
AcDbVertex
100
AcDb2dVertex
 10
811.154538716589
 20
332.4334836600038
 30
0.0
  0
VERTEX
  5
7DCF
330
7DCA
100
AcDbEntity
  8
UMCL1
  6
Continuous
100
AcDbVertex
100
AcDb2dVertex
 10
818.0827419468643
 20
344.4334836600037
 30
0.0
  0
VERTEX
  5
7DD0
330
7DCA
100
AcDbEntity
  8
UMCL1
  6
Continuous
100
AcDbVertex
100
AcDb2dVertex
 10
811.154538716589
 20
356.4334836600037
 30
0.0
  0
SEQEND
  5
7DD1
330
7DCA
100
AcDbEntity
  8
UMCL1
  6
Continuous
  0
CIRCLE
  5
7DD2
330
1E
100
AcDbEntity
  8
UMCL1
  6
Continuous
100
AcDbCircle
 10
762.2263354863138
 20
386.4334836600037
 30
0.0
 40
8.0
  0
CIRCLE
  5
7DD3
330
1E
100
AcDbEntity
  8
UMCL1
  6
Continuous
100
AcDbCircle
 10
762.2263354863138
 20
386.4334836600037
 30
0.0
 40
7.0
  0
LINE
  5
7DD4
330
1E
100
AcDbEntity
  8
CENTER
  6
CENTER
100
AcDbLine
 10
751.7263354863138
 20
386.4334836600037
 30
0.0
 11
772.7263354863138
 21
386.4334836600037
 31
0.0
  0
POLYLINE
  5
7DD5
330
1E
100
AcDbEntity
  8
UMCL1
  6
Continuous
100
AcDb2dPolyline
 66
     1
 10
0.0
 20
0.0
 30
0.0
 70
     1
  0
VERTEX
  5
7DD6
330
7DD5
100
AcDbEntity
  8
UMCL1
  6
Continuous
100
AcDbVertex
100
AcDb2dVertex
 10
759.9169344095551
 20
390.4334836600037
 30
0.0
  0
VERTEX
  5
7DD7
330
7DD5
100
AcDbEntity
  8
UMCL1
  6
Continuous
100
AcDbVertex
100
AcDb2dVertex
 10
757.6075333327966
 20
386.4334836600037
 30
0.0
  0
VERTEX
  5
7DD8
330
7DD5
100
AcDbEntity
  8
UMCL1
  6
Continuous
100
AcDbVertex
100
AcDb2dVertex
 10
759.9169344095551
 20
382.4334836600037
 30
0.0
  0
VERTEX
  5
7DD9
330
7DD5
100
AcDbEntity
  8
UMCL1
  6
Continuous
100
AcDbVertex
100
AcDb2dVertex
 10
764.535736563072
 20
382.4334836600037
 30
0.0
  0
VERTEX
  5
7DDA
330
7DD5
100
AcDbEntity
  8
UMCL1
  6
Continuous
100
AcDbVertex
100
AcDb2dVertex
 10
766.8451376398305
 20
386.4334836600037
 30
0.0
  0
VERTEX
  5
7DDB
330
7DD5
100
AcDbEntity
  8
UMCL1
  6
Continuous
100
AcDbVertex
100
AcDb2dVertex
 10
764.535736563072
 20
390.4334836600037
 30
0.0
  0
SEQEND
  5
7DDC
330
7DD5
100
AcDbEntity
  8
UMCL1
  6
Continuous
  0
LINE
  5
7DDD
330
1E
100
AcDbEntity
  8
UMCL1
100
AcDbLine
 10
774.7263354863133
 20
378.9334836600037
 30
0.0
 11
769.7263354863133
 21
373.9334836600037
 31
0.0
  0
LINE
  5
7DDE
330
1E
100
AcDbEntity
  8
UMCL1
  6
HIDDEN
 62
     2
100
AcDbLine
 10
823.2263354863139
 20
358.2898901205547
 30
0.0
 11
823.2263354863139
 21
337.4334836600037
 31
0.0
  0
CIRCLE
  5
7DDF
330
1E
100
AcDbEntity
  8
UMCL1
  6
Continuous
100
AcDbCircle
 10
804.2263354863136
 20
344.4334836600037
 30
0.0
 40
12.0
  0
ARC
  5
7DE0
330
1E
100
AcDbEntity
  8
UMCL1
  6
Continuous
 62
     2
100
AcDbCircle
 10
804.2263354863136
 20
344.4334836600037
 30
0.0
 40
7.2
100
AcDbArc
 50
69.11282536526009
 51
17.31224129214165
  0
CIRCLE
  5
7DE1
330
1E
100
AcDbEntity
  8
UMCL1
  6
Continuous
100
AcDbCircle
 10
804.2263354863136
 20
344.4334836600037
 30
0.0
 40
8.0
  0
LINE
  5
7DE2
330
1E
100
AcDbEntity
  8
CENTER
  6
CENTER
100
AcDbLine
 10
837.2263354863134
 20
323.06522953784
 30
0.0
 11
837.2263354863134
 21
309.058980692644
 31
0.0
  0
LINE
  5
7DE3
330
1E
100
AcDbEntity
  8
UMCL1
  6
HIDDEN
 62
     2
100
AcDbLine
 10
831.7263354863134
 20
317.4334836600037
 30
0.0
 11
831.7263354863134
 21
311.4334836600035
 31
0.0
  0
LINE
  5
7DE4
330
1E
100
AcDbEntity
  8
UMCL1
  6
HIDDEN
 62
     2
100
AcDbLine
 10
842.7263354863134
 20
317.4334836600037
 30
0.0
 11
842.7263354863134
 21
311.4334836600035
 31
0.0
  0
LINE
  5
7DE5
330
1E
100
AcDbEntity
  8
UMCL1
100
AcDbLine
 10
849.7263354863139
 20
317.4334836600039
 30
0.0
 11
849.7263354863139
 21
311.4334836600037
 31
0.0
  0
LINE
  5
7DE6
330
1E
100
AcDbEntity
  8
UMCL1
100
AcDbLine
 10
663.2263354863138
 20
497.4334836600035
 30
0.0
 11
811.2263354863136
 21
497.4334836600035
 31
0.0
  0
LINE
  5
7DE7
330
1E
100
AcDbEntity
  8
UMCL1
100
AcDbLine
 10
704.7263354863133
 20
448.9334836600034
 30
0.0
 11
769.7263354863133
 21
448.9334836600034
 31
0.0
  0
ARC
  5
7DE8
330
1E
100
AcDbEntity
  8
UMCL1
  6
Continuous
 62
     2
100
AcDbCircle
 10
737.2263354863138
 20
411.4334836600037
 30
0.0
 40
10.44999999999999
100
AcDbArc
 50
71.17815801670637
 51
22.17985363634699
  0
CIRCLE
  5
7DE9
330
1E
100
AcDbEntity
  8
UMCL1
  6
Continuous
100
AcDbCircle
 10
737.2263354863138
 20
411.4334836600037
 30
0.0
 40
9.349999999999994
  0
LINE
  5
7DEA
330
1E
100
AcDbEntity
  8
CENTER
  6
CENTER
100
AcDbLine
 10
646.2263354863138
 20
411.4334836600037
 30
0.0
 11
828.226335486314
 21
411.4334836600037
 31
0.0
  0
LINE
  5
7DEB
330
1E
100
AcDbEntity
  8
UMCL1
  6
Continuous
100
AcDbLine
 10
353.1444873336203
 20
793.6613743402049
 30
0.0
 11
353.1444873336203
 21
621.6613743402054
 31
0.0
  0
LINE
  5
7DEC
330
1E
100
AcDbEntity
  8
UMCL1
  6
Continuous
100
AcDbLine
 10
393.1444873336205
 20
832.6613743402049
 30
0.0
 11
393.1444873336202
 21
582.6613743402051
 31
0.0
  0
LINE
  5
7DED
330
1E
100
AcDbEntity
  8
UMCL1
100
AcDbLine
 10
353.1444873336203
 20
621.6613743402054
 30
0.0
 11
393.1444873336203
 21
621.6613743402054
 31
0.0
  0
LINE
  5
7DEE
330
1E
100
AcDbEntity
  8
UMCL1
  6
HIDDEN
 62
     2
100
AcDbLine
 10
362.6444873336203
 20
621.6613743402054
 30
0.0
 11
363.3257884643
 21
634.6613743402054
 31
0.0
  0
LINE
  5
7DEF
330
1E
100
AcDbEntity
  8
UMCL1
  6
HIDDEN
 62
     2
100
AcDbLine
 10
363.8944873336203
 20
621.6613743402054
 30
0.0
 11
364.5757884642999
 21
634.6613743402054
 31
0.0
  0
LINE
  5
7DF0
330
1E
100
AcDbEntity
  8
UMCL1
  6
HIDDEN
 62
     2
100
AcDbLine
 10
382.3944873336206
 20
621.6613743402054
 30
0.0
 11
381.7131862029409
 21
634.6613743402054
 31
0.0
  0
LINE
  5
7DF1
330
1E
100
AcDbEntity
  8
UMCL1
  6
HIDDEN
 62
     2
100
AcDbLine
 10
383.6444873336205
 20
621.6613743402054
 30
0.0
 11
382.963186202941
 21
634.6613743402054
 31
0.0
  0
LINE
  5
7DF2
330
1E
100
AcDbEntity
  8
UMCL1
  6
Continuous
100
AcDbLine
 10
411.6444873336206
 20
648.6613743402053
 30
0.0
 11
411.6444873336207
 21
632.6613743402053
 31
0.0
  0
LINE
  5
7DF3
330
1E
100
AcDbEntity
  8
UMCL1
  6
Continuous
100
AcDbLine
 10
413.1444873336206
 20
647.1613743402054
 30
0.0
 11
413.1444873336207
 21
634.1613743402054
 31
0.0
  0
ARC
  5
7DF4
330
1E
100
AcDbEntity
  8
UMCL1
  6
Continuous
100
AcDbCircle
 10
393.3944873336171
 20
640.6613743402049
 30
0.0
 40
16.75000000000346
100
AcDbArc
 50
335.5673023205558
 51
24.43269767944418
  0
LINE
  5
7DF5
330
1E
100
AcDbEntity
  8
UMCL1
  6
Continuous
100
AcDbLine
 10
397.1444873336208
 20
654.5177808007561
 30
0.0
 11
397.1444873336208
 21
626.8049678796542
 31
0.0
  0
LINE
  5
7DF6
330
1E
100
AcDbEntity
  8
UMCL1
  6
Continuous
100
AcDbLine
 10
410.1444873336206
 20
652.5177808007561
 30
0.0
 11
410.1444873336207
 21
628.8049678796542
 31
0.0
  0
LINE
  5
7DF7
330
1E
100
AcDbEntity
  8
UMCL1
  6
Continuous
100
AcDbLine
 10
408.6444873336206
 20
633.7331711099295
 30
0.0
 11
397.1444873336208
 21
633.7331711099295
 31
0.0
  0
LINE
  5
7DF8
330
1E
100
AcDbEntity
  8
UMCL1
  6
Continuous
100
AcDbLine
 10
408.6444873336207
 20
626.8049678796542
 30
0.0
 11
393.1444873336208
 21
626.8049678796542
 31
0.0
  0
ARC
  5
7DF9
330
1E
100
AcDbEntity
  8
UMCL1
  6
Continuous
100
AcDbCircle
 10
405.3944873336207
 20
630.2690694947918
 30
0.0
 40
4.749999999999908
100
AcDbArc
 50
313.1735511072573
 51
46.8264488927427
  0
LINE
  5
7DFA
330
1E
100
AcDbEntity
  8
UMCL1
  6
Continuous
100
AcDbLine
 10
408.6444873336207
 20
626.8049678796542
 30
0.0
 11
410.1444873336207
 21
628.8049678796542
 31
0.0
  0
LINE
  5
7DFB
330
1E
100
AcDbEntity
  8
UMCL1
 62
     2
100
AcDbLine
 10
412.6444873336208
 20
633.6613743402054
 30
0.0
 11
410.1444873336207
 21
633.6613743402054
 31
0.0
  0
LINE
  5
7DFC
330
1E
100
AcDbEntity
  8
UMCL1
  6
Continuous
100
AcDbLine
 10
413.1444873336207
 20
634.1613743402054
 30
0.0
 11
411.6444873336207
 21
632.6613743402053
 31
0.0
  0
LINE
  5
7DFD
330
1E
100
AcDbEntity
  8
UMCL1
100
AcDbLine
 10
411.6444873336207
 20
632.6613743402053
 30
0.0
 11
410.1444873336207
 21
632.6613743402053
 31
0.0
  0
LINE
  5
7DFE
330
1E
100
AcDbEntity
  8
UMCL1
  6
Continuous
100
AcDbLine
 10
408.6444873336206
 20
654.5177808007561
 30
0.0
 11
393.1444873336208
 21
654.5177808007561
 31
0.0
  0
LINE
  5
7DFF
330
1E
100
AcDbEntity
  8
UMCL1
  6
Continuous
100
AcDbLine
 10
408.6444873336206
 20
647.5895775704807
 30
0.0
 11
397.1444873336208
 21
647.5895775704807
 31
0.0
  0
LINE
  5
7E00
330
1E
100
AcDbEntity
  8
UMCL1
  6
Continuous
100
AcDbLine
 10
408.6444873336206
 20
654.5177808007561
 30
0.0
 11
410.1444873336206
 21
652.5177808007561
 31
0.0
  0
LINE
  5
7E01
330
1E
100
AcDbEntity
  8
UMCL1
 62
     2
100
AcDbLine
 10
412.6444873336206
 20
647.6613743402054
 30
0.0
 11
410.1444873336207
 21
647.6613743402054
 31
0.0
  0
LINE
  5
7E02
330
1E
100
AcDbEntity
  8
UMCL1
  6
Continuous
100
AcDbLine
 10
411.6444873336206
 20
648.6613743402053
 30
0.0
 11
413.1444873336206
 21
647.1613743402054
 31
0.0
  0
LINE
  5
7E03
330
1E
100
AcDbEntity
  8
UMCL1
100
AcDbLine
 10
411.6444873336206
 20
648.6613743402053
 30
0.0
 11
410.1444873336207
 21
648.6613743402053
 31
0.0
  0
ARC
  5
7E04
330
1E
100
AcDbEntity
  8
UMCL1
  6
Continuous
100
AcDbCircle
 10
405.3944873336207
 20
651.0536791856184
 30
0.0
 40
4.749999999999908
100
AcDbArc
 50
313.1735511072573
 51
46.82644889274389
  0
ARC
  5
7E05
330
1E
100
AcDbEntity
  8
UMCL1
100
AcDbCircle
 10
663.2263354863138
 20
485.4334836600035
 30
0.0
 40
12.0
100
AcDbArc
 50
90.0
 51
180.0
  0
LINE
  5
7E06
330
1E
100
AcDbEntity
  8
CENTER
  6
CENTER
100
AcDbLine
 10
651.2263354863137
 20
478.4334836600034
 30
0.0
 11
689.2263354863138
 21
478.4334836600034
 31
0.0
  0
LINE
  5
7E07
330
1E
100
AcDbEntity
  8
CENTER
  6
CENTER
100
AcDbLine
 10
670.2263354863138
 20
497.4334836600035
 30
0.0
 11
670.2263354863138
 21
459.4334836600035
 31
0.0
  0
CIRCLE
  5
7E08
330
1E
100
AcDbEntity
  8
UMCL1
  6
Continuous
100
AcDbCircle
 10
712.2263354863138
 20
436.4334836600037
 30
0.0
 40
7.0
  0
CIRCLE
  5
7E09
330
1E
100
AcDbEntity
  8
UMCL1
  6
Continuous
100
AcDbCircle
 10
712.2263354863138
 20
436.4334836600037
 30
0.0
 40
8.0
  0
LINE
  5
7E0A
330
1E
100
AcDbEntity
  8
UMCL1
  6
HIDDEN
 62
     2
100
AcDbLine
 10
743.7226607715473
 20
435.5746882237453
 30
0.0
 11
743.2475854863136
 21
427.9734836600032
 31
0.0
  0
LINE
  5
7E0B
330
1E
100
AcDbEntity
  8
UMCL1
  6
HIDDEN
 62
     2
100
AcDbLine
 10
742.9350533125706
 20
435.7729688801182
 30
0.0
 11
742.3888354863137
 21
427.0334836600034
 31
0.0
  0
LINE
  5
7E0C
330
1E
100
AcDbEntity
  8
UMCL1
  6
HIDDEN
 62
     2
100
AcDbLine
 10
730.7300102010798
 20
435.5746882237453
 30
0.0
 11
731.2050854863135
 21
427.9734836600032
 31
0.0
  0
LINE
  5
7E0D
330
1E
100
AcDbEntity
  8
UMCL1
  6
HIDDEN
 62
     2
100
AcDbLine
 10
732.0638354863135
 20
427.0334836600034
 30
0.0
 11
731.5176176600565
 21
435.7729688801182
 31
0.0
  0
LINE
  5
7E0E
330
1E
100
AcDbEntity
  8
CENTER
  6
CENTER
100
AcDbLine
 10
712.2263354863138
 20
446.9334836600035
 30
0.0
 11
712.2263354863138
 21
425.9334836600037
 31
0.0
  0
LINE
  5
7E0F
330
1E
100
AcDbEntity
  8
CENTER
  6
CENTER
100
AcDbLine
 10
701.7263354863138
 20
436.4334836600037
 30
0.0
 11
722.7263354863138
 21
436.4334836600037
 31
0.0
  0
LINE
  5
7E10
330
1E
100
AcDbEntity
  8
UMCL1
100
AcDbLine
 10
704.7263354863133
 20
448.9334836600034
 30
0.0
 11
699.7263354863133
 21
443.9334836600035
 31
0.0
  0
POLYLINE
  5
7E11
330
1E
100
AcDbEntity
  8
UMCL1
  6
Continuous
100
AcDb2dPolyline
 66
     1
 10
0.0
 20
0.0
 30
0.0
 70
     1
  0
VERTEX
  5
7E12
330
7E11
100
AcDbEntity
  8
UMCL1
  6
Continuous
100
AcDbVertex
100
AcDb2dVertex
 10
709.9169344095551
 20
440.4334836600037
 30
0.0
  0
VERTEX
  5
7E13
330
7E11
100
AcDbEntity
  8
UMCL1
  6
Continuous
100
AcDbVertex
100
AcDb2dVertex
 10
707.6075333327966
 20
436.4334836600037
 30
0.0
  0
VERTEX
  5
7E14
330
7E11
100
AcDbEntity
  8
UMCL1
  6
Continuous
100
AcDbVertex
100
AcDb2dVertex
 10
709.9169344095551
 20
432.4334836600037
 30
0.0
  0
VERTEX
  5
7E15
330
7E11
100
AcDbEntity
  8
UMCL1
  6
Continuous
100
AcDbVertex
100
AcDb2dVertex
 10
714.5357365630724
 20
432.4334836600037
 30
0.0
  0
VERTEX
  5
7E16
330
7E11
100
AcDbEntity
  8
UMCL1
  6
Continuous
100
AcDbVertex
100
AcDb2dVertex
 10
716.8451376398305
 20
436.4334836600037
 30
0.0
  0
VERTEX
  5
7E17
330
7E11
100
AcDbEntity
  8
UMCL1
  6
Continuous
100
AcDbVertex
100
AcDb2dVertex
 10
714.5357365630724
 20
440.4334836600037
 30
0.0
  0
SEQEND
  5
7E18
330
7E11
100
AcDbEntity
  8
UMCL1
  6
Continuous
  0
CIRCLE
  5
7E19
330
1E
100
AcDbEntity
  8
UMCL1
  6
Continuous
100
AcDbCircle
 10
670.2263354863138
 20
478.4334836600034
 30
0.0
 40
8.0
  0
POLYLINE
  5
7E1A
330
1E
100
AcDbEntity
  8
UMCL1
  6
Continuous
100
AcDb2dPolyline
 66
     1
 10
0.0
 20
0.0
 30
0.0
 70
     1
  0
VERTEX
  5
7E1B
330
7E1A
100
AcDbEntity
  8
UMCL1
  6
Continuous
100
AcDbVertex
100
AcDb2dVertex
 10
663.298132256038
 20
490.4334836600034
 30
0.0
  0
VERTEX
  5
7E1C
330
7E1A
100
AcDbEntity
  8
UMCL1
  6
Continuous
100
AcDbVertex
100
AcDb2dVertex
 10
656.3699290257626
 20
478.4334836600034
 30
0.0
  0
VERTEX
  5
7E1D
330
7E1A
100
AcDbEntity
  8
UMCL1
  6
Continuous
100
AcDbVertex
100
AcDb2dVertex
 10
663.298132256038
 20
466.4334836600034
 30
0.0
  0
VERTEX
  5
7E1E
330
7E1A
100
AcDbEntity
  8
UMCL1
  6
Continuous
100
AcDbVertex
100
AcDb2dVertex
 10
677.1545387165891
 20
466.4334836600034
 30
0.0
  0
VERTEX
  5
7E1F
330
7E1A
100
AcDbEntity
  8
UMCL1
  6
Continuous
100
AcDbVertex
100
AcDb2dVertex
 10
684.0827419468645
 20
478.4334836600034
 30
0.0
  0
VERTEX
  5
7E20
330
7E1A
100
AcDbEntity
  8
UMCL1
  6
Continuous
100
AcDbVertex
100
AcDb2dVertex
 10
677.1545387165891
 20
490.4334836600034
 30
0.0
  0
SEQEND
  5
7E21
330
7E1A
100
AcDbEntity
  8
UMCL1
  6
Continuous
  0
CIRCLE
  5
7E22
330
1E
100
AcDbEntity
  8
UMCL1
  6
Continuous
100
AcDbCircle
 10
670.2263354863138
 20
478.4334836600034
 30
0.0
 40
12.0
  0
ARC
  5
7E23
330
1E
100
AcDbEntity
  8
UMCL1
  6
Continuous
 62
     2
100
AcDbCircle
 10
670.2263354863138
 20
478.4334836600034
 30
0.0
 40
7.2
100
AcDbArc
 50
69.11282536526009
 51
17.31224129214165
  0
LINE
  5
7E24
330
1E
100
AcDbEntity
  8
UMCL1
100
AcDbLine
 10
416.1444873336206
 20
732.6613743402051
 30
0.0
 11
571.2757937849837
 21
732.6613743402053
 31
0.0
  0
LINE
  5
7E25
330
1E
100
AcDbEntity
  8
UMCL1
100
AcDbLine
 10
416.1444873336206
 20
682.6613743402051
 30
0.0
 11
571.2757937849838
 21
682.6613743402051
 31
0.0
  0
LINE
  5
7E26
330
1E
100
AcDbEntity
  8
UMCL1
  6
Continuous
100
AcDbLine
 10
406.1444873336211
 20
745.1613743402049
 30
0.0
 11
406.1444873336204
 21
670.1613743402053
 31
0.0
  0
LINE
  5
7E27
330
1E
100
AcDbEntity
  8
UMCL1
  6
Continuous
100
AcDbLine
 10
416.1444873336205
 20
687.6613743402051
 30
0.0
 11
415.1444873336205
 21
688.6613743402051
 31
0.0
  0
LINE
  5
7E28
330
1E
100
AcDbEntity
  8
UMCL1
  6
Continuous
100
AcDbLine
 10
416.1444873336205
 20
677.6613743402052
 30
0.0
 11
415.1444873336205
 21
676.6613743402051
 31
0.0
  0
LINE
  5
7E29
330
1E
100
AcDbEntity
  8
UMCL1
100
AcDbLine
 10
393.1444873336204
 20
670.1613743402053
 30
0.0
 11
406.1444873336204
 21
670.1613743402053
 31
0.0
  0
LINE
  5
7E2A
330
1E
100
AcDbEntity
  8
UMCL1
  6
Continuous
100
AcDbLine
 10
408.1444873336205
 20
682.6613743402051
 30
0.0
 11
408.1444873336205
 21
688.6613743402051
 31
0.0
  0
LINE
  5
7E2B
330
1E
100
AcDbEntity
  8
UMCL1
  6
Continuous
100
AcDbLine
 10
415.1444873336205
 20
682.6613743402053
 30
0.0
 11
415.1444873336205
 21
688.6613743402051
 31
0.0
  0
LINE
  5
7E2C
330
1E
100
AcDbEntity
  8
UMCL1
100
AcDbLine
 10
406.1444873336204
 20
688.6613743402051
 30
0.0
 11
415.1444873336205
 21
688.6613743402051
 31
0.0
  0
LINE
  5
7E2D
330
1E
100
AcDbEntity
  8
UMCL1
100
AcDbLine
 10
406.1444873336204
 20
676.6613743402051
 30
0.0
 11
415.1444873336205
 21
676.6613743402051
 31
0.0
  0
LINE
  5
7E2E
330
1E
100
AcDbEntity
  8
UMCL1
  6
Continuous
100
AcDbLine
 10
415.1444873336205
 20
682.6613743402051
 30
0.0
 11
415.1444873336205
 21
676.6613743402051
 31
0.0
  0
LINE
  5
7E2F
330
1E
100
AcDbEntity
  8
UMCL1
  6
Continuous
100
AcDbLine
 10
408.1444873336205
 20
682.6613743402051
 30
0.0
 11
408.1444873336205
 21
676.6613743402051
 31
0.0
  0
LINE
  5
7E30
330
1E
100
AcDbEntity
  8
UMCL1
  6
Continuous
100
AcDbLine
 10
416.1444873336205
 20
682.6613743402053
 30
0.0
 11
416.1444873336205
 21
687.6613743402051
 31
0.0
  0
LINE
  5
7E31
330
1E
100
AcDbEntity
  8
UMCL1
  6
Continuous
100
AcDbLine
 10
416.1444873336205
 20
682.6613743402051
 30
0.0
 11
416.1444873336205
 21
677.6613743402052
 31
0.0
  0
LINE
  5
7E32
330
1E
100
AcDbEntity
  8
UMCL1
  6
Continuous
100
AcDbLine
 10
416.1444873336205
 20
727.6613743402052
 30
0.0
 11
415.1444873336205
 21
726.6613743402051
 31
0.0
  0
LINE
  5
7E33
330
1E
100
AcDbEntity
  8
UMCL1
  6
Continuous
100
AcDbLine
 10
416.1444873336205
 20
737.6613743402049
 30
0.0
 11
415.1444873336205
 21
738.6613743402049
 31
0.0
  0
LINE
  5
7E34
330
1E
100
AcDbEntity
  8
UMCL1
  6
Continuous
100
AcDbLine
 10
415.1444873336205
 20
732.6613743402051
 30
0.0
 11
415.1444873336205
 21
726.6613743402051
 31
0.0
  0
LINE
  5
7E35
330
1E
100
AcDbEntity
  8
UMCL1
  6
Continuous
100
AcDbLine
 10
408.1444873336205
 20
732.6613743402051
 30
0.0
 11
408.1444873336205
 21
726.6613743402051
 31
0.0
  0
LINE
  5
7E36
330
1E
100
AcDbEntity
  8
UMCL1
100
AcDbLine
 10
406.1444873336204
 20
726.6613743402051
 30
0.0
 11
415.1444873336205
 21
726.6613743402051
 31
0.0
  0
LINE
  5
7E37
330
1E
100
AcDbEntity
  8
UMCL1
  6
Continuous
100
AcDbLine
 10
408.1444873336205
 20
732.6613743402051
 30
0.0
 11
408.1444873336205
 21
738.6613743402049
 31
0.0
  0
LINE
  5
7E38
330
1E
100
AcDbEntity
  8
UMCL1
  6
Continuous
100
AcDbLine
 10
415.1444873336205
 20
732.6613743402051
 30
0.0
 11
415.1444873336205
 21
738.6613743402049
 31
0.0
  0
LINE
  5
7E39
330
1E
100
AcDbEntity
  8
UMCL1
100
AcDbLine
 10
406.1444873336204
 20
738.6613743402049
 30
0.0
 11
415.1444873336205
 21
738.6613743402049
 31
0.0
  0
LINE
  5
7E3A
330
1E
100
AcDbEntity
  8
UMCL1
100
AcDbLine
 10
393.1444873336205
 20
745.1613743402049
 30
0.0
 11
406.1444873336204
 21
745.1613743402049
 31
0.0
  0
LINE
  5
7E3B
330
1E
100
AcDbEntity
  8
UMCL1
  6
Continuous
100
AcDbLine
 10
416.1444873336205
 20
732.6613743402051
 30
0.0
 11
416.1444873336205
 21
727.6613743402052
 31
0.0
  0
LINE
  5
7E3C
330
1E
100
AcDbEntity
  8
UMCL1
  6
Continuous
100
AcDbLine
 10
416.1444873336205
 20
732.6613743402051
 30
0.0
 11
416.1444873336205
 21
737.6613743402049
 31
0.0
  0
LINE
  5
7E3D
330
1E
100
AcDbEntity
  8
UMCL1
  6
Continuous
100
AcDbLine
 10
410.1444873336204
 20
786.5177808007558
 30
0.0
 11
410.1444873336204
 21
762.8049678796539
 31
0.0
  0
ARC
  5
7E3E
330
1E
100
AcDbEntity
  8
UMCL1
  6
Continuous
100
AcDbCircle
 10
393.3944873336169
 20
774.6613743402047
 30
0.0
 40
16.75000000000346
100
AcDbArc
 50
335.5673023205558
 51
24.43269767944418
  0
LINE
  5
7E3F
330
1E
100
AcDbEntity
  8
UMCL1
  6
Continuous
100
AcDbLine
 10
413.1444873336204
 20
781.1613743402049
 30
0.0
 11
413.1444873336205
 21
768.1613743402049
 31
0.0
  0
LINE
  5
7E40
330
1E
100
AcDbEntity
  8
UMCL1
  6
Continuous
100
AcDbLine
 10
411.6444873336204
 20
782.6613743402049
 30
0.0
 11
411.6444873336205
 21
766.6613743402049
 31
0.0
  0
LINE
  5
7E41
330
1E
100
AcDbEntity
  8
UMCL1
  6
Continuous
100
AcDbLine
 10
397.1444873336205
 20
788.5177808007559
 30
0.0
 11
397.1444873336205
 21
760.8049678796537
 31
0.0
  0
LINE
  5
7E42
330
1E
100
AcDbEntity
  8
UMCL1
  6
Continuous
100
AcDbLine
 10
408.6444873336204
 20
767.7331711099291
 30
0.0
 11
397.1444873336205
 21
767.7331711099291
 31
0.0
  0
LINE
  5
7E43
330
1E
100
AcDbEntity
  8
UMCL1
  6
Continuous
100
AcDbLine
 10
408.6444873336205
 20
760.804967879654
 30
0.0
 11
393.1444873336205
 21
760.804967879654
 31
0.0
  0
ARC
  5
7E44
330
1E
100
AcDbEntity
  8
UMCL1
  6
Continuous
100
AcDbCircle
 10
405.3944873336205
 20
764.2690694947916
 30
0.0
 40
4.749999999999908
100
AcDbArc
 50
313.1735511072561
 51
46.8264488927427
  0
LINE
  5
7E45
330
1E
100
AcDbEntity
  8
UMCL1
  6
Continuous
100
AcDbLine
 10
408.6444873336205
 20
760.804967879654
 30
0.0
 11
410.1444873336204
 21
762.8049678796539
 31
0.0
  0
LINE
  5
7E46
330
1E
100
AcDbEntity
  8
UMCL1
100
AcDbLine
 10
411.6444873336205
 20
766.6613743402049
 30
0.0
 11
410.1444873336204
 21
766.6613743402049
 31
0.0
  0
LINE
  5
7E47
330
1E
100
AcDbEntity
  8
UMCL1
  6
Continuous
100
AcDbLine
 10
413.1444873336205
 20
768.1613743402049
 30
0.0
 11
411.6444873336205
 21
766.6613743402049
 31
0.0
  0
LINE
  5
7E48
330
1E
100
AcDbEntity
  8
UMCL1
 62
     2
100
AcDbLine
 10
412.6444873336205
 20
767.6613743402049
 30
0.0
 11
410.1444873336204
 21
767.6613743402049
 31
0.0
  0
LINE
  5
7E49
330
1E
100
AcDbEntity
  8
UMCL1
  6
Continuous
100
AcDbLine
 10
408.6444873336204
 20
788.5177808007559
 30
0.0
 11
393.1444873336205
 21
788.5177808007559
 31
0.0
  0
LINE
  5
7E4A
330
1E
100
AcDbEntity
  8
UMCL1
  6
Continuous
100
AcDbLine
 10
408.6444873336204
 20
781.5895775704805
 30
0.0
 11
397.1444873336205
 21
781.5895775704805
 31
0.0
  0
LINE
  5
7E4B
330
1E
100
AcDbEntity
  8
UMCL1
100
AcDbLine
 10
411.6444873336204
 20
782.6613743402049
 30
0.0
 11
410.1444873336204
 21
782.6613743402049
 31
0.0
  0
LINE
  5
7E4C
330
1E
100
AcDbEntity
  8
UMCL1
  6
Continuous
100
AcDbLine
 10
411.6444873336204
 20
782.6613743402049
 30
0.0
 11
413.1444873336204
 21
781.1613743402049
 31
0.0
  0
LINE
  5
7E4D
330
1E
100
AcDbEntity
  8
UMCL1
 62
     2
100
AcDbLine
 10
412.6444873336204
 20
781.6613743402049
 30
0.0
 11
410.1444873336204
 21
781.6613743402049
 31
0.0
  0
ARC
  5
7E4E
330
1E
100
AcDbEntity
  8
UMCL1
  6
Continuous
100
AcDbCircle
 10
405.3944873336205
 20
785.0536791856182
 30
0.0
 40
4.749999999999908
100
AcDbArc
 50
313.1735511072573
 51
46.82644889274389
  0
LINE
  5
7E4F
330
1E
100
AcDbEntity
  8
UMCL1
  6
Continuous
100
AcDbLine
 10
408.6444873336204
 20
788.5177808007559
 30
0.0
 11
410.1444873336204
 21
786.5177808007558
 31
0.0
  0
LINE
  5
7E50
330
1E
100
AcDbEntity
  8
UMCL1
100
AcDbLine
 10
353.1444873336204
 20
793.6613743402049
 30
0.0
 11
393.1444873336204
 21
793.6613743402049
 31
0.0
  0
LINE
  5
7E51
330
1E
100
AcDbEntity
  8
UMCL1
  6
Continuous
100
AcDbLine
 10
571.2757937849835
 20
732.6613743402053
 30
0.0
 11
571.2757937849833
 21
682.6613743402051
 31
0.0
  0
LINE
  5
7E52
330
1E
100
AcDbEntity
  8
UMCL1
  6
Continuous
100
AcDbLine
 10
578.1444873336204
 20
730.1613743402051
 30
0.0
 11
578.1444873336202
 21
685.1613743402051
 31
0.0
  0
LINE
  5
7E53
330
1E
100
AcDbEntity
  8
UMCL1
  6
Continuous
100
AcDbLine
 10
578.1444873336204
 20
685.1613743402051
 30
0.0
 11
571.2757937849836
 21
682.6613743402051
 31
0.0
  0
LINE
  5
7E54
330
1E
100
AcDbEntity
  8
CENTER
  6
CENTER
100
AcDbLine
 10
548.1444873336204
 20
718.6613743402051
 30
0.0
 11
548.1444873336204
 21
696.6613743402051
 31
0.0
  0
ARC
  5
7E55
330
1E
100
AcDbEntity
  8
UMCL1
  6
Continuous
 62
     2
100
AcDbCircle
 10
548.1444873336204
 20
707.6613743402051
 30
0.0
 40
6.549999999999954
100
AcDbArc
 50
68.70722695994671
 51
19.0858399291771
  0
CIRCLE
  5
7E56
330
1E
100
AcDbEntity
  8
UMCL1
  6
Continuous
100
AcDbCircle
 10
548.1444873336204
 20
707.6613743402051
 30
0.0
 40
5.75
  0
LINE
  5
7E57
330
1E
100
AcDbEntity
  8
UMCL1
  6
HIDDEN
 62
     2
100
AcDbLine
 10
578.1444873336204
 20
698.3113743402052
 30
0.0
 11
565.4444873336204
 21
699.1051243402052
 31
0.0
  0
LINE
  5
7E58
330
1E
100
AcDbEntity
  8
UMCL1
  6
HIDDEN
 62
     2
100
AcDbLine
 10
578.1444873336204
 20
697.2113743402053
 30
0.0
 11
566.7144873336204
 21
697.9257493402051
 31
0.0
  0
LINE
  5
7E59
330
1E
100
AcDbEntity
  8
UMCL1
  6
HIDDEN
 62
     2
100
AcDbLine
 10
565.4444873336204
 20
716.2176243402052
 30
0.0
 11
578.1444873336204
 21
717.0113743402053
 31
0.0
  0
LINE
  5
7E5A
330
1E
100
AcDbEntity
  8
UMCL1
  6
HIDDEN
 62
     2
100
AcDbLine
 10
578.1444873336204
 20
718.1113743402051
 30
0.0
 11
566.7144873336204
 21
717.3969993402051
 31
0.0
  0
LINE
  5
7E5B
330
1E
100
AcDbEntity
  8
UMCL1
  6
Continuous
100
AcDbLine
 10
578.1444873336204
 20
730.1613743402054
 30
0.0
 11
571.2757937849836
 21
732.6613743402053
 31
0.0
  0
LINE
  5
7E5C
330
1E
100
AcDbEntity
  8
CENTER
  6
CENTER
100
AcDbLine
 10
804.2263354863136
 20
497.4334836600035
 30
0.0
 11
804.2263354863136
 21
459.4334836600035
 31
0.0
  0
CIRCLE
  5
7E5D
330
1E
100
AcDbEntity
  8
UMCL1
  6
Continuous
100
AcDbCircle
 10
762.2263354863133
 20
436.4334836600037
 30
0.0
 40
8.0
  0
CIRCLE
  5
7E5E
330
1E
100
AcDbEntity
  8
UMCL1
  6
Continuous
100
AcDbCircle
 10
762.2263354863133
 20
436.4334836600037
 30
0.0
 40
7.0
  0
LINE
  5
7E5F
330
1E
100
AcDbEntity
  8
CENTER
  6
CENTER
100
AcDbLine
 10
762.2263354863133
 20
446.9334836600037
 30
0.0
 11
762.2263354863138
 21
425.9334836600037
 31
0.0
  0
LINE
  5
7E60
330
1E
100
AcDbEntity
  8
CENTER
  6
CENTER
100
AcDbLine
 10
751.7263354863138
 20
436.4334836600037
 30
0.0
 11
772.7263354863138
 21
436.4334836600037
 31
0.0
  0
POLYLINE
  5
7E61
330
1E
100
AcDbEntity
  8
UMCL1
  6
Continuous
100
AcDb2dPolyline
 66
     1
 10
0.0
 20
0.0
 30
0.0
 70
     1
  0
VERTEX
  5
7E62
330
7E61
100
AcDbEntity
  8
UMCL1
  6
Continuous
100
AcDbVertex
100
AcDb2dVertex
 10
759.9169344095547
 20
440.4334836600037
 30
0.0
  0
VERTEX
  5
7E63
330
7E61
100
AcDbEntity
  8
UMCL1
  6
Continuous
100
AcDbVertex
100
AcDb2dVertex
 10
757.6075333327966
 20
436.4334836600037
 30
0.0
  0
VERTEX
  5
7E64
330
7E61
100
AcDbEntity
  8
UMCL1
  6
Continuous
100
AcDbVertex
100
AcDb2dVertex
 10
759.9169344095547
 20
432.4334836600037
 30
0.0
  0
VERTEX
  5
7E65
330
7E61
100
AcDbEntity
  8
UMCL1
  6
Continuous
100
AcDbVertex
100
AcDb2dVertex
 10
764.535736563072
 20
432.4334836600037
 30
0.0
  0
VERTEX
  5
7E66
330
7E61
100
AcDbEntity
  8
UMCL1
  6
Continuous
100
AcDbVertex
100
AcDb2dVertex
 10
766.8451376398305
 20
436.4334836600037
 30
0.0
  0
VERTEX
  5
7E67
330
7E61
100
AcDbEntity
  8
UMCL1
  6
Continuous
100
AcDbVertex
100
AcDb2dVertex
 10
764.535736563072
 20
440.4334836600037
 30
0.0
  0
SEQEND
  5
7E68
330
7E61
100
AcDbEntity
  8
UMCL1
  6
Continuous
  0
LINE
  5
7E69
330
1E
100
AcDbEntity
  8
UMCL1
100
AcDbLine
 10
769.7263354863133
 20
448.9334836600034
 30
0.0
 11
774.7263354863133
 21
443.9334836600035
 31
0.0
  0
LINE
  5
7E6A
330
1E
100
AcDbEntity
  8
CENTER
  6
CENTER
100
AcDbLine
 10
785.2263354863138
 20
478.4334836600034
 30
0.0
 11
823.2263354863139
 21
478.4334836600034
 31
0.0
  0
POLYLINE
  5
7E6B
330
1E
100
AcDbEntity
  8
UMCL1
  6
Continuous
100
AcDb2dPolyline
 66
     1
 10
0.0
 20
0.0
 30
0.0
 70
     1
  0
VERTEX
  5
7E6C
330
7E6B
100
AcDbEntity
  8
UMCL1
  6
Continuous
100
AcDbVertex
100
AcDb2dVertex
 10
797.2981322560379
 20
490.4334836600034
 30
0.0
  0
VERTEX
  5
7E6D
330
7E6B
100
AcDbEntity
  8
UMCL1
  6
Continuous
100
AcDbVertex
100
AcDb2dVertex
 10
790.3699290257626
 20
478.4334836600034
 30
0.0
  0
VERTEX
  5
7E6E
330
7E6B
100
AcDbEntity
  8
UMCL1
  6
Continuous
100
AcDbVertex
100
AcDb2dVertex
 10
797.2981322560379
 20
466.4334836600034
 30
0.0
  0
VERTEX
  5
7E6F
330
7E6B
100
AcDbEntity
  8
UMCL1
  6
Continuous
100
AcDbVertex
100
AcDb2dVertex
 10
811.154538716589
 20
466.4334836600034
 30
0.0
  0
VERTEX
  5
7E70
330
7E6B
100
AcDbEntity
  8
UMCL1
  6
Continuous
100
AcDbVertex
100
AcDb2dVertex
 10
818.0827419468643
 20
478.4334836600034
 30
0.0
  0
VERTEX
  5
7E71
330
7E6B
100
AcDbEntity
  8
UMCL1
  6
Continuous
100
AcDbVertex
100
AcDb2dVertex
 10
811.154538716589
 20
490.4334836600034
 30
0.0
  0
SEQEND
  5
7E72
330
7E6B
100
AcDbEntity
  8
UMCL1
  6
Continuous
  0
ARC
  5
7E73
330
1E
100
AcDbEntity
  8
UMCL1
100
AcDbCircle
 10
811.2263354863136
 20
485.4334836600035
 30
0.0
 40
12.0
100
AcDbArc
 50
0.0
 51
90.0
  0
CIRCLE
  5
7E74
330
1E
100
AcDbEntity
  8
UMCL1
  6
Continuous
100
AcDbCircle
 10
804.2263354863136
 20
478.4334836600034
 30
0.0
 40
12.0
  0
ARC
  5
7E75
330
1E
100
AcDbEntity
  8
UMCL1
  6
Continuous
 62
     2
100
AcDbCircle
 10
804.2263354863136
 20
478.4334836600034
 30
0.0
 40
7.2
100
AcDbArc
 50
69.11282536526009
 51
17.31224129214165
  0
CIRCLE
  5
7E76
330
1E
100
AcDbEntity
  8
UMCL1
  6
Continuous
100
AcDbCircle
 10
804.2263354863136
 20
478.4334836600034
 30
0.0
 40
8.0
  0
LINE
  5
7E77
330
1E
100
AcDbEntity
  8
UMCL1
100
AcDbLine
 10
349.1444873336202
 20
311.4334836600037
 30
0.0
 11
399.1444873336203
 21
311.4334836600037
 31
0.0
  0
LINE
  5
7E78
330
1E
100
AcDbEntity
  8
CENTER
  6
CENTER
100
AcDbLine
 10
373.1444873336203
 20
332.5322519476488
 30
0.0
 11
373.1444873336203
 21
307.1476365630333
 31
0.0
  0
LINE
  5
7E79
330
1E
100
AcDbEntity
  8
UMCL1
  6
HIDDEN
 62
     2
100
AcDbLine
 10
367.6444873336203
 20
317.4334836600037
 30
0.0
 11
367.6444873336203
 21
311.4334836600035
 31
0.0
  0
LINE
  5
7E7A
330
1E
100
AcDbEntity
  8
UMCL1
  6
HIDDEN
 62
     2
100
AcDbLine
 10
378.6444873336203
 20
317.4334836600037
 30
0.0
 11
378.6444873336203
 21
311.4334836600035
 31
0.0
  0
LINE
  5
7E7B
330
1E
100
AcDbEntity
  8
UMCL1
  6
Continuous
100
AcDbLine
 10
399.1444873336203
 20
358.2898901205547
 30
0.0
 11
399.1444873336203
 21
311.4334836600037
 31
0.0
  0
LINE
  5
7E7C
330
1E
100
AcDbEntity
  8
UMCL1
100
AcDbLine
 10
353.6444873336203
 20
317.4334836600037
 30
0.0
 11
386.6444873336203
 21
317.4334836600037
 31
0.0
  0
LINE
  5
7E7D
330
1E
100
AcDbEntity
  8
UMCL1
  6
Continuous
100
AcDbLine
 10
349.1444873336203
 20
312.9334836600037
 30
0.0
 11
349.1444873336203
 21
311.4334836600037
 31
0.0
  0
ARC
  5
7E7E
330
1E
100
AcDbEntity
  8
UMCL1
100
AcDbCircle
 10
386.6444873336203
 20
323.9334836600037
 30
0.0
 40
6.5
100
AcDbArc
 50
270.0
 51
0.0
  0
ARC
  5
7E7F
330
1E
100
AcDbEntity
  8
UMCL1
100
AcDbCircle
 10
353.6444873336203
 20
312.9334836600037
 30
0.0
 40
4.5
100
AcDbArc
 50
90.0
 51
180.0
  0
LINE
  5
7E80
330
1E
100
AcDbEntity
  8
CENTER
  6
CENTER
100
AcDbLine
 10
89.14448733362041
 20
332.5322519476488
 30
0.0
 11
89.14448733362041
 21
309.4168162156907
 31
0.0
  0
ARC
  5
7E81
330
1E
100
AcDbEntity
  8
UMCL1
100
AcDbCircle
 10
75.64448733362041
 20
323.9334836600037
 30
0.0
 40
6.5
100
AcDbArc
 50
180.0
 51
270.0
  0
LINE
  5
7E82
330
1E
100
AcDbEntity
  8
UMCL1
100
AcDbLine
 10
113.1444873336204
 20
311.4334836600037
 30
0.0
 11
63.14448733362041
 21
311.4334836600037
 31
0.0
  0
LINE
  5
7E83
330
1E
100
AcDbEntity
  8
UMCL1
100
AcDbLine
 10
108.6444873336204
 20
317.4334836600037
 30
0.0
 11
75.64448733362041
 21
317.4334836600037
 31
0.0
  0
ARC
  5
7E84
330
1E
100
AcDbEntity
  8
UMCL1
100
AcDbCircle
 10
108.6444873336204
 20
312.9334836600037
 30
0.0
 40
4.5
100
AcDbArc
 50
0.0
 51
90.0
  0
LINE
  5
7E85
330
1E
100
AcDbEntity
  8
UMCL1
  6
Continuous
100
AcDbLine
 10
113.1444873336204
 20
312.9334836600037
 30
0.0
 11
113.1444873336204
 21
311.4334836600037
 31
0.0
  0
LINE
  5
7E86
330
1E
100
AcDbEntity
  8
UMCL1
  6
HIDDEN
 62
     2
100
AcDbLine
 10
94.64448733362042
 20
317.4334836600037
 30
0.0
 11
94.64448733362042
 21
311.4334836600035
 31
0.0
  0
LINE
  5
7E87
330
1E
100
AcDbEntity
  8
UMCL1
  6
HIDDEN
 62
     2
100
AcDbLine
 10
83.64448733362042
 20
317.4334836600037
 30
0.0
 11
83.64448733362042
 21
311.4334836600035
 31
0.0
  0
LINE
  5
7E88
330
1E
100
AcDbEntity
  8
UMCL1
  6
Continuous
100
AcDbLine
 10
63.14448733362041
 20
358.2898901205547
 30
0.0
 11
63.14448733362041
 21
311.4334836600037
 31
0.0
  0
ARC
  5
7E89
330
1E
100
AcDbEntity
  8
UMCL1
100
AcDbCircle
 10
64.64448733362019
 20
356.9334836600037
 30
0.0
 40
4.5
100
AcDbArc
 50
0.0
 51
17.54313139446926
  0
LINE
  5
7E8A
330
1E
100
AcDbEntity
  8
UMCL1
100
AcDbLine
 10
-197.9022172920927
 20
361.4334836600037
 30
0.0
 11
-23.70904098077927
 21
361.4334836600037
 31
0.0
  0
LINE
  5
7E8B
330
1E
100
AcDbEntity
  8
UMCL1
  6
HIDDEN
 62
     2
100
AcDbLine
 10
-196.8056291364359
 20
361.4334836600037
 30
0.0
 11
-196.8056291364359
 21
337.4334836600037
 31
0.0
  0
ARC
  5
7E8C
330
1E
100
AcDbEntity
  8
UMCL1
  6
HIDDEN
 62
     2
100
AcDbCircle
 10
-184.805629136436
 20
337.4334836600037
 30
0.0
 40
12.0
100
AcDbArc
 50
180.0
 51
270.0
  0
LINE
  5
7E8D
330
1E
100
AcDbEntity
  8
UMCL1
  6
HIDDEN
 62
     2
100
AcDbLine
 10
-184.805629136436
 20
325.4334836600037
 30
0.0
 11
-36.80562913643598
 21
325.4334836600037
 31
0.0
  0
ARC
  5
7E8E
330
1E
100
AcDbEntity
  8
UMCL1
  6
HIDDEN
 62
     2
100
AcDbCircle
 10
-36.80562913643598
 20
337.4334836600037
 30
0.0
 40
12.0
100
AcDbArc
 50
270.0
 51
0.0
  0
LINE
  5
7E8F
330
1E
100
AcDbEntity
  8
UMCL1
  6
HIDDEN
 62
     2
100
AcDbLine
 10
-24.80562913643598
 20
361.4334836600037
 30
0.0
 11
-24.80562913643598
 21
337.4334836600037
 31
0.0
  0
LINE
  5
7E90
330
1E
100
AcDbEntity
  8
UMCL1
100
AcDbLine
 10
-223.305629136436
 20
311.4334836600037
 30
0.0
 11
1.694370863564017
 21
311.4334836600035
 31
0.0
  0
LINE
  5
7E91
330
1E
100
AcDbEntity
  8
UMCL1
  6
HIDDEN
 62
     2
100
AcDbLine
 10
-223.305629136436
 20
317.4334836600037
 30
0.0
 11
1.694370863564017
 21
317.4334836600037
 31
0.0
  0
LINE
  5
7E92
330
1E
100
AcDbEntity
  8
UMCL1
  6
Continuous
100
AcDbLine
 10
408.6444873336204
 20
492.2898901205546
 30
0.0
 11
393.1444873336205
 21
492.2898901205546
 31
0.0
  0
LINE
  5
7E93
330
1E
100
AcDbEntity
  8
UMCL1
  6
Continuous
100
AcDbLine
 10
408.6444873336205
 20
464.5770771994525
 30
0.0
 11
393.1444873336205
 21
464.5770771994525
 31
0.0
  0
ARC
  5
7E94
330
1E
100
AcDbEntity
  8
UMCL1
  6
Continuous
100
AcDbCircle
 10
393.3944873336169
 20
478.4334836600033
 30
0.0
 40
16.75000000000346
100
AcDbArc
 50
335.5673023205558
 51
24.43269767944418
  0
LINE
  5
7E95
330
1E
100
AcDbEntity
  8
UMCL1
  6
Continuous
100
AcDbLine
 10
413.1444873336204
 20
484.9334836600035
 30
0.0
 11
413.1444873336205
 21
471.9334836600035
 31
0.0
  0
LINE
  5
7E96
330
1E
100
AcDbEntity
  8
UMCL1
  6
Continuous
100
AcDbLine
 10
411.6444873336204
 20
486.4334836600034
 30
0.0
 11
411.6444873336205
 21
470.4334836600037
 31
0.0
  0
LINE
  5
7E97
330
1E
100
AcDbEntity
  8
UMCL1
  6
Continuous
100
AcDbLine
 10
410.1444873336204
 20
490.2898901205547
 30
0.0
 11
410.1444873336204
 21
466.5770771994525
 31
0.0
  0
LINE
  5
7E98
330
1E
100
AcDbEntity
  8
UMCL1
  6
Continuous
100
AcDbLine
 10
397.1444873336205
 20
492.2898901205544
 30
0.0
 11
397.1444873336205
 21
464.5770771994525
 31
0.0
  0
LINE
  5
7E99
330
1E
100
AcDbEntity
  8
UMCL1
100
AcDbLine
 10
411.6444873336205
 20
470.4334836600034
 30
0.0
 11
410.1444873336204
 21
470.4334836600034
 31
0.0
  0
LINE
  5
7E9A
330
1E
100
AcDbEntity
  8
UMCL1
 62
     2
100
AcDbLine
 10
412.6444873336205
 20
471.4334836600035
 30
0.0
 11
410.1444873336204
 21
471.4334836600035
 31
0.0
  0
LINE
  5
7E9B
330
1E
100
AcDbEntity
  8
UMCL1
  6
Continuous
100
AcDbLine
 10
413.1444873336205
 20
471.9334836600035
 30
0.0
 11
411.6444873336205
 21
470.4334836600034
 31
0.0
  0
LINE
  5
7E9C
330
1E
100
AcDbEntity
  8
UMCL1
  6
Continuous
100
AcDbLine
 10
408.6444873336204
 20
471.5052804297276
 30
0.0
 11
397.1444873336205
 21
471.5052804297279
 31
0.0
  0
LINE
  5
7E9D
330
1E
100
AcDbEntity
  8
UMCL1
  6
Continuous
100
AcDbLine
 10
408.6444873336205
 20
464.5770771994525
 30
0.0
 11
410.1444873336204
 21
466.5770771994525
 31
0.0
  0
ARC
  5
7E9E
330
1E
100
AcDbEntity
  8
UMCL1
  6
Continuous
100
AcDbCircle
 10
405.3944873336205
 20
468.0411788145902
 30
0.0
 40
4.749999999999908
100
AcDbArc
 50
313.1735511072573
 51
46.8264488927427
  0
LINE
  5
7E9F
330
1E
100
AcDbEntity
  8
UMCL1
100
AcDbLine
 10
411.6444873336204
 20
486.4334836600034
 30
0.0
 11
410.1444873336204
 21
486.4334836600034
 31
0.0
  0
LINE
  5
7EA0
330
1E
100
AcDbEntity
  8
UMCL1
 62
     2
100
AcDbLine
 10
412.6444873336204
 20
485.4334836600035
 30
0.0
 11
410.1444873336204
 21
485.4334836600035
 31
0.0
  0
LINE
  5
7EA1
330
1E
100
AcDbEntity
  8
UMCL1
  6
Continuous
100
AcDbLine
 10
411.6444873336204
 20
486.4334836600034
 30
0.0
 11
413.1444873336204
 21
484.9334836600035
 31
0.0
  0
LINE
  5
7EA2
330
1E
100
AcDbEntity
  8
UMCL1
  6
Continuous
100
AcDbLine
 10
408.6444873336204
 20
485.3616868902791
 30
0.0
 11
397.1444873336205
 21
485.3616868902791
 31
0.0
  0
LINE
  5
7EA3
330
1E
100
AcDbEntity
  8
UMCL1
  6
Continuous
100
AcDbLine
 10
408.6444873336204
 20
492.2898901205546
 30
0.0
 11
410.1444873336204
 21
490.2898901205547
 31
0.0
  0
ARC
  5
7EA4
330
1E
100
AcDbEntity
  8
UMCL1
  6
Continuous
100
AcDbCircle
 10
405.3944873336205
 20
488.8257885054168
 30
0.0
 40
4.749999999999908
100
AcDbArc
 50
313.1735511072573
 51
46.8264488927427
  0
LINE
  5
7EA5
330
1E
100
AcDbEntity
  8
UMCL2
100
AcDbLine
 10
837.2263354863134
 20
307.4844550364071
 30
0.0
 11
837.2263354863134
 21
301.8916568740231
 31
0.0
  0
LINE
  5
7EA6
330
1E
100
AcDbEntity
  8
UMCL2
100
AcDbLine
 10
849.7263354863139
 20
309.0901665221279
 30
0.0
 11
849.7263354863139
 21
293.947335087134
 31
0.0
  0
LINE
  5
7EA7
330
1E
100
AcDbEntity
  8
UMCL2
100
AcDbLine
 10
89.14448733362041
 20
307.9208670432674
 30
0.0
 11
89.14448733362041
 21
301.8319223243027
 31
0.0
  0
TEXT
  5
7EA8
330
1E
100
AcDbEntity
  8
UMCL2
100
AcDbText
 10
227.2230587621916
 20
304.9334836600037
 30
0.0
 40
3.0
  1
284
 41
0.9
 51
15.0
  7
ROMANS
 72
     1
 11
231.1444873336202
 21
306.4334836600037
 31
0.0
100
AcDbText
 73
     2
  0
LINE
  5
7EA9
330
1E
100
AcDbEntity
  8
UMCL2
100
AcDbLine
 10
63.14448733362041
 20
287.4334836600037
 30
0.0
 11
399.1444873336204
 21
287.4334836600037
 31
0.0
  0
TEXT
  5
7EAA
330
1E
100
AcDbEntity
  8
UMCL2
100
AcDbText
 10
227.2873444764773
 20
288.9334836600037
 30
0.0
 40
3.0
  1
336
 41
0.9
 51
15.0
  7
ROMANS
 72
     1
 11
231.1444873336202
 21
290.4334836600037
 31
0.0
100
AcDbText
 73
     2
  0
LINE
  5
7EAB
330
1E
100
AcDbEntity
  8
UMCL2
100
AcDbLine
 10
44.14448733361996
 20
332.9334836600037
 30
0.0
 11
44.14448733361996
 21
277.8732665416649
 31
0.0
  0
LINE
  5
7EAC
330
1E
100
AcDbEntity
  8
UMCL2
100
AcDbLine
 10
44.14448733361996
 20
279.4334836600035
 30
0.0
 11
418.1444873336206
 21
279.4334836600035
 31
0.0
  0
TEXT
  5
7EAD
330
1E
100
AcDbEntity
  8
UMCL2
100
AcDbText
 10
227.2230587621916
 20
280.9334836600035
 30
0.0
 40
3.0
  1
374
 41
0.9
 51
15.0
  7
ROMANS
 72
     1
 11
231.1444873336202
 21
282.4334836600035
 31
0.0
100
AcDbText
 73
     2
  0
LINE
  5
7EAE
330
1E
100
AcDbEntity
  8
UMCL2
100
AcDbLine
 10
399.1444873336202
 20
295.4334836600038
 30
0.0
 11
349.1444873336202
 21
295.4334836600038
 31
0.0
  0
TEXT
  5
7EAF
330
1E
100
AcDbEntity
  8
UMCL2
100
AcDbText
 10
371.1128898243672
 20
296.9334836600037
 30
0.0
 40
3.0
  1
50
 41
0.9
 51
15.0
  7
ROMANS
 72
     1
 11
373.6843183957958
 21
298.4334836600037
 31
0.0
100
AcDbText
 73
     2
  0
LINE
  5
7EB0
330
1E
100
AcDbEntity
  8
UMCL2
100
AcDbLine
 10
113.1444873336204
 20
310.1082681505782
 30
0.0
 11
113.1444873336204
 21
304.5412932969262
 31
0.0
  0
LINE
  5
7EB1
330
1E
100
AcDbEntity
  8
UMCL2
100
AcDbLine
 10
63.14448733362041
 20
295.4334836600038
 30
0.0
 11
113.1444873336204
 21
295.4334836600038
 31
0.0
  0
SOLID
  5
7EB2
330
1E
100
AcDbEntity
  8
UMCL2
100
AcDbTrace
 10
66.14448733362042
 20
295.9334836600037
 30
0.0
 11
66.14448733362042
 21
294.9334836600037
 31
0.0
 12
63.14448733362041
 22
295.4334836600038
 32
0.0
 13
63.14448733362041
 23
295.4334836600038
 33
0.0
  0
TEXT
  5
7EB3
330
1E
100
AcDbEntity
  8
UMCL2
100
AcDbText
 10
85.32759786503481
 20
296.9334836600037
 30
0.0
 40
3.0
  1
50
 41
0.9
 51
15.0
  7
ROMANS
 72
     1
 11
87.89902643646337
 21
298.4334836600037
 31
0.0
100
AcDbText
 73
     2
  0
TEXT
  5
7EB4
330
1E
100
AcDbEntity
  8
UMCL2
100
AcDbText
 10
72.83826551321123
 20
304.9334836600037
 30
0.0
 40
3.0
  1
26
 41
0.9
 51
15.0
  7
ROMANS
 72
     1
 11
75.40969408463979
 21
306.4334836600037
 31
0.0
100
AcDbText
 73
     2
  0
TEXT
  5
7EB5
330
1E
100
AcDbEntity
  8
UMCL2
100
AcDbText
 10
382.838265513211
 20
304.9334836600037
 30
0.0
 40
3.0
  1
26
 41
0.9
 51
15.0
  7
ROMANS
 72
     1
 11
385.4096940846396
 21
306.4334836600037
 31
0.0
100
AcDbText
 73
     2
  0
LINE
  5
7EB6
330
1E
100
AcDbEntity
  8
UMCL2
100
AcDbLine
 10
113.1444873336204
 20
302.0342644339289
 30
0.0
 11
113.1444873336204
 21
293.6278564120648
 31
0.0
  0
LINE
  5
7EB7
330
1E
100
AcDbEntity
  8
UMCL2
100
AcDbLine
 10
670.226335486314
 20
498.7618268155763
 30
0.0
 11
670.2263354863138
 21
506.4656065130741
 31
0.0
  0
LINE
  5
7EB8
330
1E
100
AcDbEntity
  8
UMCL2
100
AcDbLine
 10
804.2263354863136
 20
498.5464661769364
 30
0.0
 11
804.2263354863136
 21
506.699075067148
 31
0.0
  0
LINE
  5
7EB9
330
1E
100
AcDbEntity
  8
UMCL2
100
AcDbLine
 10
651.2263354863137
 20
490.4334836600034
 30
0.0
 11
651.2263354863137
 21
514.5634538631816
 31
0.0
  0
LINE
  5
7EBA
330
1E
100
AcDbEntity
  8
UMCL2
100
AcDbLine
 10
823.2263354863139
 20
490.4334836600034
 30
0.0
 11
823.2263354863139
 21
514.7738920555459
 31
0.0
  0
POLYLINE
  5
7EBB
330
1E
100
AcDbEntity
  8
UMCL2
100
AcDb2dPolyline
 66
     1
 10
0.0
 20
0.0
 30
0.0
 70
     1
  0
VERTEX
  5
7EBC
330
7EBB
100
AcDbEntity
  8
UMCL2
100
AcDbVertex
100
AcDb2dVertex
 10
731.518746402529
 20
517.4148091653653
 30
0.0
  0
VERTEX
  5
7EBD
330
7EBB
100
AcDbEntity
  8
UMCL2
100
AcDbVertex
100
AcDb2dVertex
 10
731.518746402529
 20
515.0126581280757
 30
0.0
  0
VERTEX
  5
7EBE
330
7EBB
100
AcDbEntity
  8
UMCL2
100
AcDbVertex
100
AcDb2dVertex
 10
734.3551975258455
 20
515.0126581280757
 30
0.0
  0
VERTEX
  5
7EBF
330
7EBB
100
AcDbEntity
  8
UMCL2
100
AcDbVertex
100
AcDb2dVertex
 10
734.3551975258455
 20
517.4148091653653
 30
0.0
  0
SEQEND
  5
7EC0
330
7EBB
100
AcDbEntity
  8
UMCL2
  0
LINE
  5
7EC1
330
1E
100
AcDbEntity
  8
UMCL2
100
AcDbLine
 10
69.14448733362042
 20
500.2364250446698
 30
0.0
 11
69.14448733362042
 21
516.7062371370352
 31
0.0
  0
LINE
  5
7EC2
330
1E
100
AcDbEntity
  8
UMCL2
100
AcDbLine
 10
393.1444873336203
 20
499.9980954215973
 30
0.0
 11
393.1444873336204
 21
516.9315529885993
 31
0.0
  0
LINE
  5
7EC3
330
1E
100
AcDbEntity
  8
UMCL2
100
AcDbLine
 10
578.1444873336204
 20
436.4149205580766
 30
0.0
 11
578.1444873336202
 21
516.5264098143695
 31
0.0
  0
SOLID
  5
7EC4
330
1E
100
AcDbEntity
  8
UMCL2
100
AcDbTrace
 10
580.2137557051344
 20
413.6624135392626
 30
0.0
 11
579.3790071836714
 21
414.2130449095234
 31
0.0
 12
578.1444873336205
 22
411.4334836600037
 32
0.0
 13
578.1444873336205
 23
411.4334836600037
 33
0.0
  0
LINE
  5
7EC5
330
1E
100
AcDbEntity
  8
UMCL2
100
AcDbLine
 10
578.1444873336202
 20
411.4334836600037
 30
0.0
 11
607.5235316764734
 21
455.9716541161797
 31
0.0
  0
SOLID
  5
7EC6
330
1E
100
AcDbEntity
  8
UMCL2
100
AcDbTrace
 10
546.7186162504941
 20
439.1211973732086
 30
0.0
 11
545.9238682766921
 21
438.514257789611
 31
0.0
 12
548.1420610143858
 22
436.4334836600037
 32
0.0
 13
548.1420610143858
 23
436.4334836600037
 33
0.0
  0
LINE
  5
7EC7
330
1E
100
AcDbEntity
  8
UMCL2
100
AcDbLine
 10
548.1420610143861
 20
436.4334836600037
 30
0.0
 11
533.2209924092044
 21
455.9716541161795
 31
0.0
  0
LINE
  5
7EC8
330
1E
100
AcDbEntity
  8
UMCL2
100
AcDbLine
 10
852.1556272224142
 20
311.4334836600036
 30
0.0
 11
867.2644119717411
 21
311.4334836600036
 31
0.0
  0
LINE
  5
7EC9
330
1E
100
AcDbEntity
  8
UMCL2
100
AcDbLine
 10
833.2263354863139
 20
411.4334836600037
 30
0.0
 11
859.0420203446091
 21
411.4334836600037
 31
0.0
  0
LINE
  5
7ECA
330
1E
100
AcDbEntity
  8
UMCL2
100
AcDbLine
 10
857.726335486314
 20
311.4334836600035
 30
0.0
 11
857.726335486314
 21
411.4334836600037
 31
0.0
  0
SOLID
  5
7ECB
330
1E
100
AcDbEntity
  8
UMCL2
100
AcDbTrace
 10
857.2263354863139
 20
314.433483660004
 30
0.0
 11
858.2263354863139
 21
314.433483660004
 31
0.0
 12
857.726335486314
 22
311.433483660004
 32
0.0
 13
857.726335486314
 23
311.433483660004
 33
0.0
  0
SOLID
  5
7ECC
330
1E
100
AcDbEntity
  8
UMCL2
100
AcDbTrace
 10
857.2263354863139
 20
408.4334836600034
 30
0.0
 11
858.2263354863139
 21
408.4334836600034
 31
0.0
 12
857.726335486314
 22
411.4334836600034
 32
0.0
 13
857.726335486314
 23
411.4334836600034
 33
0.0
  0
TEXT
  5
7ECD
330
1E
100
AcDbEntity
  8
UMCL2
100
AcDbText
 10
856.2263354863139
 20
357.3834836600035
 30
0.0
 40
3.0
  1
100
 50
90.0
 41
0.9
 51
15.0
  7
ROMANS
 72
     1
 11
854.7263354863138
 21
361.4334836600035
 31
0.0
100
AcDbText
 73
     2
  0
LINE
  5
7ECE
330
1E
100
AcDbEntity
  8
UMCL2
100
AcDbLine
 10
817.675868946149
 20
497.4334836600035
 30
0.0
 11
868.8089121535123
 21
497.4334836600032
 31
0.0
  0
LINE
  5
7ECF
330
1E
100
AcDbEntity
  8
UMCL2
100
AcDbLine
 10
865.726335486314
 20
311.4334836600035
 30
0.0
 11
865.726335486314
 21
497.4334836600032
 31
0.0
  0
SOLID
  5
7ED0
330
1E
100
AcDbEntity
  8
UMCL2
100
AcDbTrace
 10
865.2055021529804
 20
314.558483660004
 30
0.0
 11
866.2471688196474
 21
314.558483660004
 31
0.0
 12
865.726335486314
 22
311.433483660004
 32
0.0
 13
865.726335486314
 23
311.433483660004
 33
0.0
  0
SOLID
  5
7ED1
330
1E
100
AcDbEntity
  8
UMCL2
100
AcDbTrace
 10
865.2263354863139
 20
494.4334836600033
 30
0.0
 11
866.2263354863135
 21
494.4334836600033
 31
0.0
 12
865.7263354863134
 22
497.4334836600032
 32
0.0
 13
865.7263354863134
 23
497.4334836600032
 33
0.0
  0
TEXT
  5
7ED2
330
1E
100
AcDbEntity
  8
UMCL2
100
AcDbText
 10
864.2263354863139
 20
430.0763408028609
 30
0.0
 40
3.0
  1
245
 50
90.0
 41
0.9
 51
15.0
  7
ROMANS
 72
     1
 11
862.7263354863138
 21
433.9334836600037
 31
0.0
100
AcDbText
 73
     2
  0
LINE
  5
7ED3
330
1E
100
AcDbEntity
  8
UMCL1
100
AcDbLine
 10
113.1444873336202
 20
832.6613743402049
 30
0.0
 11
63.14448733362019
 21
832.6613743402049
 31
0.0
  0
LINE
  5
7ED4
330
1E
100
AcDbEntity
  8
UMCL1
100
AcDbLine
 10
113.1444873336206
 20
582.6613743402053
 30
0.0
 11
63.14448733362041
 21
582.6613743402053
 31
0.0
  0
LINE
  5
7ED5
330
1E
100
AcDbEntity
  8
UMCL1
100
AcDbLine
 10
349.1444873336206
 20
832.6613743402051
 30
0.0
 11
399.1444873336206
 21
832.6613743402049
 31
0.0
  0
LINE
  5
7ED6
330
1E
100
AcDbEntity
  8
UMCL1
100
AcDbLine
 10
349.1444873336202
 20
582.6613743402051
 30
0.0
 11
399.1444873336203
 21
582.6613743402053
 31
0.0
  0
LINE
  5
7ED7
330
1E
100
AcDbEntity
  8
UMCL1
  6
Continuous
100
AcDbLine
 10
399.1444873336206
 20
832.6613743402049
 30
0.0
 11
399.1444873336204
 21
788.5177808007559
 31
0.0
  0
LINE
  5
7ED8
330
1E
100
AcDbEntity
  8
CENTER
  6
CENTER
100
AcDbLine
 10
373.1444873336204
 20
830.6613743402049
 30
0.0
 11
373.1444873336204
 21
804.6613743402049
 31
0.0
  0
LINE
  5
7ED9
330
1E
100
AcDbEntity
  8
UMCL1
  6
Continuous
100
AcDbLine
 10
349.1444873336206
 20
832.6613743402051
 30
0.0
 11
349.1444873336206
 21
787.6613743402049
 31
0.0
  0
LINE
  5
7EDA
330
1E
100
AcDbEntity
  8
CENTER
  6
CENTER
100
AcDbLine
 10
360.1444873336205
 20
817.6613743402048
 30
0.0
 11
386.1444873336205
 21
817.6613743402048
 31
0.0
  0
CIRCLE
  5
7EDB
330
1E
100
AcDbEntity
  8
UMCL1
100
AcDbCircle
 10
373.1444873336205
 20
817.6613743402048
 30
0.0
 40
5.5
  0
LINE
  5
7EDC
330
1E
100
AcDbEntity
  8
UMCL1
  6
Continuous
100
AcDbLine
 10
349.1444873336203
 20
627.6613743402053
 30
0.0
 11
349.1444873336202
 21
582.6613743402051
 31
0.0
  0
LINE
  5
7EDD
330
1E
100
AcDbEntity
  8
CENTER
  6
CENTER
100
AcDbLine
 10
360.1444873336205
 20
597.6613743402054
 30
0.0
 11
386.1444873336205
 21
597.6613743402054
 31
0.0
  0
LINE
  5
7EDE
330
1E
100
AcDbEntity
  8
CENTER
  6
CENTER
100
AcDbLine
 10
373.1444873336204
 20
584.6613743402054
 30
0.0
 11
373.1444873336204
 21
610.6613743402053
 31
0.0
  0
CIRCLE
  5
7EDF
330
1E
100
AcDbEntity
  8
UMCL1
100
AcDbCircle
 10
373.1444873336205
 20
597.6613743402054
 30
0.0
 40
5.5
  0
LINE
  5
7EE0
330
1E
100
AcDbEntity
  8
UMCL1
  6
Continuous
100
AcDbLine
 10
399.1444873336204
 20
760.804967879654
 30
0.0
 11
399.1444873336204
 21
745.1613743402049
 31
0.0
  0
LINE
  5
7EE1
330
1E
100
AcDbEntity
  8
UMCL1
  6
Continuous
100
AcDbLine
 10
399.1444873336203
 20
670.1613743402053
 30
0.0
 11
399.1444873336203
 21
654.5177808007561
 31
0.0
  0
LINE
  5
7EE2
330
1E
100
AcDbEntity
  8
UMCL1
  6
Continuous
100
AcDbLine
 10
399.1444873336203
 20
626.8049678796542
 30
0.0
 11
399.1444873336203
 21
582.6613743402053
 31
0.0
  0
LINE
  5
7EE3
330
1E
100
AcDbEntity
  8
UMCL1
  6
Continuous
100
AcDbLine
 10
113.1444873336202
 20
832.6613743402051
 30
0.0
 11
113.1444873336202
 21
787.6613743402049
 31
0.0
  0
LINE
  5
7EE4
330
1E
100
AcDbEntity
  8
CENTER
  6
CENTER
100
AcDbLine
 10
89.14448733362041
 20
830.6613743402049
 30
0.0
 11
89.14448733362041
 21
804.6613743402049
 31
0.0
  0
CIRCLE
  5
7EE5
330
1E
100
AcDbEntity
  8
UMCL1
100
AcDbCircle
 10
89.1444873336202
 20
817.6613743402048
 30
0.0
 40
5.5
  0
LINE
  5
7EE6
330
1E
100
AcDbEntity
  8
UMCL1
  6
Continuous
100
AcDbLine
 10
69.14448733362019
 20
832.6613743402049
 30
0.0
 11
69.14448733362064
 21
582.6613743402051
 31
0.0
  0
LINE
  5
7EE7
330
1E
100
AcDbEntity
  8
UMCL1
  6
Continuous
100
AcDbLine
 10
63.14448733362019
 20
832.6613743402049
 30
0.0
 11
63.14448733362041
 21
788.5177808007559
 31
0.0
  0
LINE
  5
7EE8
330
1E
100
AcDbEntity
  8
UMCL1
  6
Continuous
100
AcDbLine
 10
63.14448733362041
 20
760.804967879654
 30
0.0
 11
63.14448733362041
 21
745.1613743402049
 31
0.0
  0
LINE
  5
7EE9
330
1E
100
AcDbEntity
  8
UMCL1
  6
Continuous
100
AcDbLine
 10
63.14448733362041
 20
670.1613743402053
 30
0.0
 11
63.14448733362041
 21
654.5177808007561
 31
0.0
  0
LINE
  5
7EEA
330
1E
100
AcDbEntity
  8
UMCL1
  6
Continuous
100
AcDbLine
 10
63.14448733362041
 20
626.8049678796542
 30
0.0
 11
63.14448733362041
 21
582.6613743402053
 31
0.0
  0
LINE
  5
7EEB
330
1E
100
AcDbEntity
  8
CENTER
  6
CENTER
100
AcDbLine
 10
89.14448733362041
 20
584.6613743402054
 30
0.0
 11
89.14448733362041
 21
610.6613743402053
 31
0.0
  0
CIRCLE
  5
7EEC
330
1E
100
AcDbEntity
  8
UMCL1
100
AcDbCircle
 10
89.1444873336202
 20
597.6613743402054
 30
0.0
 40
5.5
  0
LINE
  5
7EED
330
1E
100
AcDbEntity
  8
CENTER
  6
CENTER
100
AcDbLine
 10
102.1444873336202
 20
597.6613743402054
 30
0.0
 11
76.14448733362019
 21
597.6613743402054
 31
0.0
  0
LINE
  5
7EEE
330
1E
100
AcDbEntity
  8
UMCL1
  6
Continuous
100
AcDbLine
 10
113.1444873336204
 20
627.6613743402053
 30
0.0
 11
113.1444873336206
 21
582.6613743402051
 31
0.0
  0
LINE
  5
7EEF
330
1E
100
AcDbEntity
  8
CENTER
  6
CENTER
100
AcDbLine
 10
76.71643559561857
 20
817.6613743402048
 30
0.0
 11
102.7164355956186
 21
817.6613743402048
 31
0.0
  0
LINE
  5
7EF0
330
1E
100
AcDbEntity
  8
UMCL2
100
AcDbLine
 10
450.3145528753422
 20
352.8624074460365
 30
0.0
 11
430.8840225961708
 21
352.8624074460365
 31
0.0
  0
LINE
  5
7EF1
330
1E
100
AcDbEntity
  8
UMCL2
100
AcDbLine
 10
415.2779376676617
 20
586.5969170908372
 30
0.0
 11
429.6680082719277
 21
586.5969170908369
 31
0.0
  0
LINE
  5
7EF2
330
1E
100
AcDbEntity
  8
UMCL1
100
AcDbLine
 10
624.7263354863138
 20
317.4334836600037
 30
0.0
 11
648.3147927544336
 21
358.2898901205547
 31
0.0
  0
LINE
  5
7EF3
330
1E
100
AcDbEntity
  8
UMCL1
100
AcDbLine
 10
849.7263354863139
 20
317.4334836600037
 30
0.0
 11
826.1378782181941
 21
358.2898901205547
 31
0.0
  0
LINE
  5
7EF4
330
1E
100
AcDbEntity
  8
UMCL1
100
AcDbLine
 10
-223.305629136436
 20
317.4334836600039
 30
0.0
 11
-197.9022172920927
 21
361.4334836600037
 31
0.0
  0
LINE
  5
7EF5
330
1E
100
AcDbEntity
  8
UMCL1
100
AcDbLine
 10
1.694370863564017
 20
317.4334836600039
 30
0.0
 11
-23.70904098077927
 21
361.4334836600037
 31
0.0
  0
LINE
  5
7EF6
330
1E
100
AcDbEntity
  8
UMCL1
100
AcDbLine
 10
-223.305629136436
 20
317.4334836600039
 30
0.0
 11
-223.305629136436
 21
311.4334836600037
 31
0.0
  0
LINE
  5
7EF7
330
1E
100
AcDbEntity
  8
CENTER
  6
CENTER
100
AcDbLine
 10
-210.805629136436
 20
332.532251947649
 30
0.0
 11
-210.805629136436
 21
307.1476365630335
 31
0.0
  0
LINE
  5
7EF8
330
1E
100
AcDbEntity
  8
UMCL1
  6
HIDDEN
 62
     2
100
AcDbLine
 10
-205.305629136436
 20
317.4334836600037
 30
0.0
 11
-205.305629136436
 21
311.4334836600037
 31
0.0
  0
LINE
  5
7EF9
330
1E
100
AcDbEntity
  8
UMCL1
  6
HIDDEN
 62
     2
100
AcDbLine
 10
-216.305629136436
 20
317.4334836600037
 30
0.0
 11
-216.305629136436
 21
311.4334836600037
 31
0.0
  0
LINE
  5
7EFA
330
1E
100
AcDbEntity
  8
UMCL1
  6
HIDDEN
 62
     2
100
AcDbLine
 10
-16.30562913643643
 20
317.4334836600037
 30
0.0
 11
-16.30562913643643
 21
311.4334836600037
 31
0.0
  0
LINE
  5
7EFB
330
1E
100
AcDbEntity
  8
CENTER
  6
CENTER
100
AcDbLine
 10
-10.80562913643643
 20
332.532251947649
 30
0.0
 11
-10.80562913643643
 21
307.1476365630335
 31
0.0
  0
LINE
  5
7EFC
330
1E
100
AcDbEntity
  8
UMCL1
  6
HIDDEN
 62
     2
100
AcDbLine
 10
-5.305629136436436
 20
317.4334836600037
 30
0.0
 11
-5.305629136436436
 21
311.4334836600037
 31
0.0
  0
LINE
  5
7EFD
330
1E
100
AcDbEntity
  8
UMCL1
100
AcDbLine
 10
1.694370863564017
 20
317.4334836600039
 30
0.0
 11
1.694370863564017
 21
311.4334836600037
 31
0.0
  0
LINE
  5
7EFE
330
1E
100
AcDbEntity
  8
UMCL1
  6
Continuous
100
AcDbLine
 10
826.1378782181941
 20
358.2898901205547
 30
0.0
 11
648.3147927544336
 21
358.2898901205547
 31
0.0
  0
LINE
  5
7EFF
330
1E
100
AcDbEntity
  8
UMCL1
  6
Continuous
100
AcDbLine
 10
413.6444873336206
 20
358.2898901205547
 30
0.0
 11
393.353780921646
 21
358.2898901205547
 31
0.0
  0
LINE
  5
7F00
330
1E
100
AcDbEntity
  8
UMCL1
  6
Continuous
100
AcDbLine
 10
402.1444873336207
 20
358.2898901205544
 30
0.0
 11
402.1444873336207
 21
330.5770771994525
 31
0.0
  0
LINE
  5
7F01
330
1E
100
AcDbEntity
  8
UMCL1
  6
Continuous
100
AcDbLine
 10
415.1444873336206
 20
356.2898901205547
 30
0.0
 11
415.1444873336207
 21
332.5770771994525
 31
0.0
  0
ARC
  5
7F02
330
1E
100
AcDbEntity
  8
UMCL1
  6
Continuous
100
AcDbCircle
 10
398.3944873336171
 20
344.4334836600033
 30
0.0
 40
16.75000000000346
100
AcDbArc
 50
335.5673023205558
 51
24.43269767944418
  0
LINE
  5
7F03
330
1E
100
AcDbEntity
  8
UMCL1
  6
Continuous
100
AcDbLine
 10
418.1444873336206
 20
350.9334836600037
 30
0.0
 11
418.1444873336207
 21
337.9334836600037
 31
0.0
  0
LINE
  5
7F04
330
1E
100
AcDbEntity
  8
UMCL1
  6
Continuous
100
AcDbLine
 10
416.6444873336206
 20
352.4334836600037
 30
0.0
 11
416.6444873336208
 21
336.4334836600037
 31
0.0
  0
LINE
  5
7F05
330
1E
100
AcDbEntity
  8
UMCL1
  6
Continuous
100
AcDbLine
 10
413.6444873336207
 20
330.5770771994525
 30
0.0
 11
399.1444873336208
 21
330.5770771994525
 31
0.0
  0
LINE
  5
7F06
330
1E
100
AcDbEntity
  8
UMCL1
  6
Continuous
100
AcDbLine
 10
413.6444873336206
 20
337.5052804297279
 30
0.0
 11
402.1444873336207
 21
337.5052804297279
 31
0.0
  0
ARC
  5
7F07
330
1E
100
AcDbEntity
  8
UMCL1
  6
Continuous
100
AcDbCircle
 10
410.3944873336208
 20
334.0411788145902
 30
0.0
 40
4.749999999999908
100
AcDbArc
 50
313.1735511072573
 51
46.82644889274389
  0
LINE
  5
7F08
330
1E
100
AcDbEntity
  8
UMCL1
  6
Continuous
100
AcDbLine
 10
413.6444873336207
 20
330.5770771994525
 30
0.0
 11
415.1444873336207
 21
332.5770771994525
 31
0.0
  0
LINE
  5
7F09
330
1E
100
AcDbEntity
  8
UMCL1
100
AcDbLine
 10
416.6444873336208
 20
336.4334836600037
 30
0.0
 11
415.1444873336207
 21
336.4334836600037
 31
0.0
  0
LINE
  5
7F0A
330
1E
100
AcDbEntity
  8
UMCL1
 62
     2
100
AcDbLine
 10
417.6444873336207
 20
337.4334836600037
 30
0.0
 11
415.1444873336207
 21
337.4334836600037
 31
0.0
  0
LINE
  5
7F0B
330
1E
100
AcDbEntity
  8
UMCL1
  6
Continuous
100
AcDbLine
 10
418.1444873336207
 20
337.9334836600037
 30
0.0
 11
416.6444873336208
 21
336.4334836600037
 31
0.0
  0
LINE
  5
7F0C
330
1E
100
AcDbEntity
  8
UMCL1
  6
Continuous
100
AcDbLine
 10
413.6444873336206
 20
351.3616868902791
 30
0.0
 11
402.1444873336207
 21
351.3616868902791
 31
0.0
  0
LINE
  5
7F0D
330
1E
100
AcDbEntity
  8
UMCL1
  6
Continuous
100
AcDbLine
 10
413.6444873336206
 20
358.2898901205547
 30
0.0
 11
415.1444873336206
 21
356.2898901205547
 31
0.0
  0
ARC
  5
7F0E
330
1E
100
AcDbEntity
  8
UMCL1
  6
Continuous
100
AcDbCircle
 10
410.3944873336208
 20
354.8257885054168
 30
0.0
 40
4.749999999999908
100
AcDbArc
 50
313.1735511072573
 51
46.82644889274389
  0
LINE
  5
7F0F
330
1E
100
AcDbEntity
  8
UMCL1
100
AcDbLine
 10
416.6444873336206
 20
352.4334836600037
 30
0.0
 11
415.1444873336207
 21
352.4334836600037
 31
0.0
  0
LINE
  5
7F10
330
1E
100
AcDbEntity
  8
UMCL1
 62
     2
100
AcDbLine
 10
417.6444873336206
 20
351.4334836600037
 30
0.0
 11
415.1444873336207
 21
351.4334836600037
 31
0.0
  0
LINE
  5
7F11
330
1E
100
AcDbEntity
  8
UMCL1
  6
Continuous
100
AcDbLine
 10
416.6444873336206
 20
352.4334836600037
 30
0.0
 11
418.1444873336206
 21
350.9334836600037
 31
0.0
  0
ARC
  5
7F12
330
1E
100
AcDbEntity
  8
UMCL1
100
AcDbCircle
 10
397.6444873336204
 20
356.9334836600037
 30
0.0
 40
4.5
100
AcDbArc
 50
162.4568686055307
 51
180.0
  0
LINE
  5
7F13
330
1E
100
AcDbEntity
  8
UMCL2
100
AcDbLine
 10
63.14448733362041
 20
310.280898929371
 30
0.0
 11
63.14448733362041
 21
285.2880895527546
 31
0.0
  0
SOLID
  5
7F14
330
1E
100
AcDbEntity
  8
UMCL2
100
AcDbTrace
 10
66.14448733362133
 20
287.9334836600037
 30
0.0
 11
66.14448733362133
 21
286.9334836600037
 31
0.0
 12
63.1444873336211
 22
287.4334836600037
 32
0.0
 13
63.1444873336211
 23
287.4334836600037
 33
0.0
  0
SOLID
  5
7F15
330
1E
100
AcDbEntity
  8
UMCL2
100
AcDbTrace
 10
47.14448733362087
 20
279.9334836600035
 30
0.0
 11
47.14448733362087
 21
278.9334836600035
 31
0.0
 12
44.14448733362064
 22
279.4334836600035
 32
0.0
 13
44.14448733362064
 23
279.4334836600035
 33
0.0
  0
SOLID
  5
7F16
330
1E
100
AcDbEntity
  8
UMCL2
100
AcDbTrace
 10
66.14448733362133
 20
303.9334836600037
 30
0.0
 11
66.14448733362133
 21
302.9334836600037
 31
0.0
 12
63.14448733362133
 22
303.4334836600037
 32
0.0
 13
63.14448733362133
 23
303.4334836600037
 33
0.0
  0
SOLID
  5
7F17
330
1E
100
AcDbEntity
  8
UMCL2
100
AcDbTrace
 10
92.14448733362109
 20
303.9334836600035
 30
0.0
 11
92.14448733362109
 21
302.9334836600035
 31
0.0
 12
89.1444873336211
 22
303.4334836600035
 32
0.0
 13
89.1444873336211
 23
303.4334836600035
 33
0.0
  0
SOLID
  5
7F18
330
1E
100
AcDbEntity
  8
UMCL2
100
AcDbTrace
 10
86.14448733361951
 20
303.9334836600035
 30
0.0
 11
86.14448733361951
 21
302.9334836600035
 31
0.0
 12
89.1444873336195
 22
303.4334836600035
 32
0.0
 13
89.1444873336195
 23
303.4334836600035
 33
0.0
  0
SOLID
  5
7F19
330
1E
100
AcDbEntity
  8
UMCL2
100
AcDbTrace
 10
110.1444873336213
 20
295.9334836600035
 30
0.0
 11
110.1444873336213
 21
294.9334836600035
 31
0.0
 12
113.1444873336213
 22
295.4334836600035
 32
0.0
 13
113.1444873336213
 23
295.4334836600035
 33
0.0
  0
SOLID
  5
7F1A
330
1E
100
AcDbEntity
  8
UMCL2
100
AcDbTrace
 10
396.1444873336213
 20
303.9334836600033
 30
0.0
 11
396.1444873336213
 21
302.9334836600033
 31
0.0
 12
399.1444873336213
 22
303.4334836600033
 32
0.0
 13
399.1444873336213
 23
303.4334836600033
 33
0.0
  0
SOLID
  5
7F1B
330
1E
100
AcDbEntity
  8
UMCL2
100
AcDbTrace
 10
396.1444873336202
 20
295.9334836600037
 30
0.0
 11
396.1444873336202
 21
294.9334836600037
 31
0.0
 12
399.1444873336202
 22
295.4334836600038
 32
0.0
 13
399.1444873336202
 23
295.4334836600038
 33
0.0
  0
SOLID
  5
7F1C
330
1E
100
AcDbEntity
  8
UMCL2
100
AcDbTrace
 10
396.1444873336195
 20
287.9334836600037
 30
0.0
 11
396.1444873336195
 21
286.9334836600037
 31
0.0
 12
399.1444873336195
 22
287.4334836600037
 32
0.0
 13
399.1444873336195
 23
287.4334836600037
 33
0.0
  0
SOLID
  5
7F1D
330
1E
100
AcDbEntity
  8
UMCL2
100
AcDbTrace
 10
415.1444873336199
 20
279.9334836600035
 30
0.0
 11
415.1444873336199
 21
278.9334836600035
 31
0.0
 12
418.1444873336199
 22
279.4334836600035
 32
0.0
 13
418.1444873336199
 23
279.4334836600035
 33
0.0
  0
SOLID
  5
7F1E
330
1E
100
AcDbEntity
  8
UMCL2
100
AcDbTrace
 10
370.1444873336195
 20
303.9334836600035
 30
0.0
 11
370.1444873336195
 21
302.9334836600035
 31
0.0
 12
373.1444873336197
 22
303.4334836600035
 32
0.0
 13
373.1444873336197
 23
303.4334836600035
 33
0.0
  0
SOLID
  5
7F1F
330
1E
100
AcDbEntity
  8
UMCL2
100
AcDbTrace
 10
376.1444873336213
 20
303.9334836600035
 30
0.0
 11
376.1444873336213
 21
302.9334836600035
 31
0.0
 12
373.1444873336213
 22
303.4334836600035
 32
0.0
 13
373.1444873336213
 23
303.4334836600035
 33
0.0
  0
SOLID
  5
7F20
330
1E
100
AcDbEntity
  8
UMCL2
100
AcDbTrace
 10
352.1444873336195
 20
295.9334836600035
 30
0.0
 11
352.1444873336195
 21
294.9334836600035
 31
0.0
 12
349.1444873336195
 22
295.4334836600035
 32
0.0
 13
349.1444873336195
 23
295.4334836600035
 33
0.0
  0
LINE
  5
7F21
330
1E
100
AcDbEntity
  8
UMCL2
100
AcDbLine
 10
63.14448733362041
 20
303.4334836600037
 30
0.0
 11
399.1444873336202
 21
303.4334836600035
 31
0.0
  0
LINE
  5
7F22
330
1E
100
AcDbEntity
  8
UMCL2
100
AcDbLine
 10
373.1444873336204
 20
307.9208670432674
 30
0.0
 11
373.1444873336204
 21
301.8319223243027
 31
0.0
  0
LINE
  5
7F23
330
1E
100
AcDbEntity
  8
UMCL2
100
AcDbLine
 10
418.1444873336208
 20
332.9334836600037
 30
0.0
 11
418.1444873336208
 21
277.8732665416649
 31
0.0
  0
LINE
  5
7F24
330
1E
100
AcDbEntity
  8
UMCL2
100
AcDbLine
 10
349.1444873336204
 20
310.1082681505782
 30
0.0
 11
349.1444873336204
 21
304.9876562893524
 31
0.0
  0
LINE
  5
7F25
330
1E
100
AcDbEntity
  8
UMCL2
100
AcDbLine
 10
349.1444873336204
 20
302.1266024835591
 30
0.0
 11
349.1444873336204
 21
293.6278564120648
 31
0.0
  0
LINE
  5
7F26
330
1E
100
AcDbEntity
  8
UMCL2
100
AcDbLine
 10
399.1444873336204
 20
310.280898929371
 30
0.0
 11
399.1444873336204
 21
285.2880895527546
 31
0.0
  0
LINE
  5
7F27
330
1E
100
AcDbEntity
  8
UMCL2
100
AcDbLine
 10
670.2263354863138
 20
505.4334836600035
 30
0.0
 11
804.2263354863136
 21
505.4334836600039
 31
0.0
  0
TEXT
  5
7F28
330
1E
100
AcDbEntity
  8
UMCL2
100
AcDbText
 10
734.6543754333149
 20
506.9334836600037
 30
0.0
 40
3.0
  1
134
 41
0.9
 51
15.0
  7
ROMANS
 72
     1
 11
738.7686611476007
 21
508.4334836600037
 31
0.0
100
AcDbText
 73
     2
  0
LINE
  5
7F29
330
1E
100
AcDbEntity
  8
UMCL2
100
AcDbLine
 10
651.2263354863137
 20
513.4334836600035
 30
0.0
 11
823.2263354863139
 21
513.4334836600041
 31
0.0
  0
TEXT
  5
7F2A
330
1E
100
AcDbEntity
  8
UMCL2
100
AcDbText
 10
734.7186611476011
 20
514.9334836600037
 30
0.0
 40
3.0
  1
172
 41
0.9
 51
15.0
  7
ROMANS
 72
     1
 11
738.7686611476011
 21
516.4334836600037
 31
0.0
100
AcDbText
 73
     2
  0
SOLID
  5
7F2B
330
1E
100
AcDbEntity
  8
UMCL2
100
AcDbTrace
 10
654.2263354863133
 20
513.9334836600035
 30
0.0
 11
654.2263354863133
 21
512.9334836600035
 31
0.0
 12
651.2263354863133
 22
513.4334836600035
 32
0.0
 13
651.2263354863133
 23
513.4334836600035
 33
0.0
  0
SOLID
  5
7F2C
330
1E
100
AcDbEntity
  8
UMCL2
100
AcDbTrace
 10
673.2263354863135
 20
505.9334836600037
 30
0.0
 11
673.2263354863135
 21
504.9334836600037
 31
0.0
 12
670.2263354863135
 22
505.4334836600037
 32
0.0
 13
670.2263354863135
 23
505.4334836600037
 33
0.0
  0
SOLID
  5
7F2D
330
1E
100
AcDbEntity
  8
UMCL2
100
AcDbTrace
 10
820.2263354863168
 20
513.9334836600039
 30
0.0
 11
820.2263354863168
 21
512.9334836600039
 31
0.0
 12
823.2263354863171
 22
513.4334836600039
 32
0.0
 13
823.2263354863171
 23
513.4334836600039
 33
0.0
  0
SOLID
  5
7F2E
330
1E
100
AcDbEntity
  8
UMCL2
100
AcDbTrace
 10
801.2263354863151
 20
505.9334836600042
 30
0.0
 11
801.2263354863151
 21
504.9334836600041
 31
0.0
 12
804.226335486315
 22
505.4334836600041
 32
0.0
 13
804.226335486315
 23
505.4334836600041
 33
0.0
  0
POLYLINE
  5
7F2F
330
1E
100
AcDbEntity
  8
UMCL2
100
AcDb2dPolyline
 66
     1
 10
0.0
 20
0.0
 30
0.0
 70
     1
  0
VERTEX
  5
7F30
330
7F2F
100
AcDbEntity
  8
UMCL2
100
AcDbVertex
100
AcDb2dVertex
 10
731.5187464025292
 20
509.4148091653651
 30
0.0
  0
VERTEX
  5
7F31
330
7F2F
100
AcDbEntity
  8
UMCL2
100
AcDbVertex
100
AcDb2dVertex
 10
731.5187464025292
 20
507.0126581280756
 30
0.0
  0
VERTEX
  5
7F32
330
7F2F
100
AcDbEntity
  8
UMCL2
100
AcDbVertex
100
AcDb2dVertex
 10
734.3551975258456
 20
507.0126581280756
 30
0.0
  0
VERTEX
  5
7F33
330
7F2F
100
AcDbEntity
  8
UMCL2
100
AcDbVertex
100
AcDb2dVertex
 10
734.3551975258456
 20
509.4148091653651
 30
0.0
  0
SEQEND
  5
7F34
330
7F2F
100
AcDbEntity
  8
UMCL2
  0
LINE
  5
7F35
330
1E
100
AcDbEntity
  8
UMCL2
100
AcDbLine
 10
69.14448733362042
 20
514.9078195070085
 30
0.0
 11
578.1444873336202
 21
514.9078195070091
 31
0.0
  0
SOLID
  5
7F36
330
1E
100
AcDbEntity
  8
UMCL2
100
AcDbTrace
 10
72.14448733361996
 20
515.4078195070087
 30
0.0
 11
72.14448733361996
 21
514.4078195070087
 31
0.0
 12
69.14448733361997
 22
514.9078195070087
 32
0.0
 13
69.14448733361997
 23
514.9078195070087
 33
0.0
  0
SOLID
  5
7F37
330
1E
100
AcDbEntity
  8
UMCL2
100
AcDbTrace
 10
575.1444873336216
 20
515.4078195070091
 30
0.0
 11
575.1444873336216
 21
514.4078195070092
 31
0.0
 12
578.1444873336217
 22
514.9078195070091
 32
0.0
 13
578.1444873336217
 23
514.9078195070091
 33
0.0
  0
SOLID
  5
7F38
330
1E
100
AcDbEntity
  8
UMCL2
100
AcDbTrace
 10
390.1444873336204
 20
515.4078195070091
 30
0.0
 11
390.1444873336204
 21
514.4078195070092
 31
0.0
 12
393.1444873336204
 22
514.9078195070091
 32
0.0
 13
393.1444873336204
 23
514.9078195070091
 33
0.0
  0
SOLID
  5
7F39
330
1E
100
AcDbEntity
  8
UMCL2
100
AcDbTrace
 10
396.1444873336204
 20
515.4078195070091
 30
0.0
 11
396.1444873336204
 21
514.4078195070092
 31
0.0
 12
393.1444873336204
 22
514.9078195070091
 32
0.0
 13
393.1444873336204
 23
514.9078195070091
 33
0.0
  0
TEXT
  5
7F3A
330
1E
100
AcDbEntity
  8
UMCL2
100
AcDbText
 10
481.2859591273587
 20
516.4078195070088
 30
0.0
 40
3.0
  1
185
 41
0.9
 51
15.0
  7
ROMANS
 72
     1
 11
485.3359591273588
 21
517.9078195070087
 31
0.0
100
AcDbText
 73
     2
  0
TEXT
  5
7F3B
330
1E
100
AcDbEntity
  8
UMCL2
100
AcDbText
 10
230.7701602641778
 20
516.4078195070088
 30
0.0
 40
3.0
  1
324
 41
0.9
 51
15.0
  7
ROMANS
 72
     1
 11
234.6915888356063
 21
517.9078195070087
 31
0.0
100
AcDbText
 73
     2
  0
LINE
  5
7F3C
330
1E
100
AcDbEntity
  8
UMCL2
100
AcDbLine
 10
849.7263354863139
 20
295.4334836600038
 30
0.0
 11
624.7263354863138
 21
295.4334836600038
 31
0.0
  0
TEXT
  5
7F3D
330
1E
100
AcDbEntity
  8
UMCL2
100
AcDbText
 10
733.3850400403231
 20
296.9334836600037
 30
0.0
 40
3.0
  1
225
 41
0.9
 51
15.0
  7
ROMANS
 72
     1
 11
737.242182897466
 21
298.4334836600037
 31
0.0
100
AcDbText
 73
     2
  0
TEXT
  5
7F3E
330
1E
100
AcDbEntity
  8
UMCL2
100
AcDbText
 10
733.6493364076646
 20
304.9334836600037
 30
0.0
 40
3.0
  1
200
 41
0.9
 51
15.0
  7
ROMANS
 72
     1
 11
737.5064792648076
 21
306.4334836600037
 31
0.0
100
AcDbText
 73
     2
  0
SOLID
  5
7F3F
330
1E
100
AcDbEntity
  8
UMCL2
100
AcDbTrace
 10
834.2263354863153
 20
303.9334836600034
 30
0.0
 11
834.2263354863153
 21
302.9334836600034
 31
0.0
 12
837.2263354863152
 22
303.4334836600034
 32
0.0
 13
837.2263354863152
 23
303.4334836600034
 33
0.0
  0
SOLID
  5
7F40
330
1E
100
AcDbEntity
  8
UMCL2
100
AcDbTrace
 10
846.7263354863138
 20
295.9334836600037
 30
0.0
 11
846.7263354863138
 21
294.9334836600037
 31
0.0
 12
849.7263354863139
 22
295.4334836600038
 32
0.0
 13
849.7263354863139
 23
295.4334836600038
 33
0.0
  0
LINE
  5
7F41
330
1E
100
AcDbEntity
  8
UMCL2
100
AcDbLine
 10
637.2263354863142
 20
303.4334836600035
 30
0.0
 11
837.2263354863134
 21
303.4334836600036
 31
0.0
  0
LINE
  5
7F42
330
1E
100
AcDbEntity
  8
UMCL2
100
AcDbLine
 10
637.2263354863142
 20
307.4844550364071
 30
0.0
 11
637.2263354863142
 21
301.8916568740231
 31
0.0
  0
LINE
  5
7F43
330
1E
100
AcDbEntity
  8
UMCL2
100
AcDbLine
 10
624.7263354863138
 20
309.0901665221279
 30
0.0
 11
624.7263354863138
 21
293.947335087134
 31
0.0
  0
SOLID
  5
7F44
330
1E
100
AcDbEntity
  8
UMCL2
100
AcDbTrace
 10
640.2263354863126
 20
303.9334836600034
 30
0.0
 11
640.2263354863126
 21
302.9334836600034
 31
0.0
 12
637.2263354863126
 22
303.4334836600034
 32
0.0
 13
637.2263354863126
 23
303.4334836600034
 33
0.0
  0
SOLID
  5
7F45
330
1E
100
AcDbEntity
  8
UMCL2
100
AcDbTrace
 10
627.7263354863138
 20
295.9334836600037
 30
0.0
 11
627.7263354863138
 21
294.9334836600037
 31
0.0
 12
624.7263354863138
 22
295.4334836600038
 32
0.0
 13
624.7263354863138
 23
295.4334836600038
 33
0.0
  0
LINE
  5
7F46
330
1E
100
AcDbEntity
  8
UMCL1
100
AcDbLine
 10
109.1444873336204
 20
336.4334836600037
 30
0.0
 11
353.1444873336204
 21
336.4334836600037
 31
0.0
  0
LINE
  5
7F47
330
1E
100
AcDbEntity
  8
UMCL1
100
AcDbLine
 10
109.1444873336204
 20
352.4334836600037
 30
0.0
 11
353.1444873336206
 21
352.4334836600037
 31
0.0
  0
LINE
  5
7F48
330
1E
100
AcDbEntity
  8
UMCL1
100
AcDbLine
 10
109.1444873336204
 20
470.4334836600034
 30
0.0
 11
353.1444873336206
 21
470.4334836600034
 31
0.0
  0
LINE
  5
7F49
330
1E
100
AcDbEntity
  8
UMCL1
100
AcDbLine
 10
109.1444873336204
 20
486.4334836600034
 30
0.0
 11
353.1444873336204
 21
486.4334836600034
 31
0.0
  0
LINE
  5
7F4A
330
1E
100
AcDbEntity
  8
UMCL1
  6
Continuous
100
AcDbLine
 10
416.1444873336205
 20
430.4334836600039
 30
0.0
 11
415.1444873336205
 21
429.433483660004
 31
0.0
  0
LINE
  5
7F4B
330
1E
100
AcDbEntity
  8
UMCL1
100
AcDbLine
 10
406.1444873336204
 20
429.433483660004
 30
0.0
 11
415.1444873336205
 21
429.433483660004
 31
0.0
  0
LINE
  5
7F4C
330
1E
100
AcDbEntity
  8
UMCL1
  6
Continuous
100
AcDbLine
 10
416.1444873336205
 20
392.4334836600037
 30
0.0
 11
415.1444873336205
 21
393.4334836600037
 31
0.0
  0
LINE
  5
7F4D
330
1E
100
AcDbEntity
  8
UMCL1
100
AcDbLine
 10
406.1444873336204
 20
393.4334836600037
 30
0.0
 11
415.1444873336205
 21
393.4334836600037
 31
0.0
  0
LINE
  5
7F4E
330
1E
100
AcDbEntity
  8
UMCL1
100
AcDbLine
 10
416.1444873336205
 20
436.4334836600037
 30
0.0
 11
572.7832200323466
 21
436.4334836600037
 31
0.0
  0
LINE
  5
7F4F
330
1E
100
AcDbEntity
  8
UMCL1
100
AcDbLine
 10
416.1444873336205
 20
386.4334836600037
 30
0.0
 11
572.783220032347
 21
386.4334836600037
 31
0.0
  0
TEXT
  5
7F50
330
1E
100
AcDbEntity
  8
UMCL2
100
AcDbText
 10
431.5988088414045
 20
354.3624074460365
 30
0.0
 40
3.0
  1
2-PT1/2
 41
0.9
 51
15.0
  7
ROMANS
 72
     1
 11
440.9202374128331
 21
355.8624074460365
 31
0.0
100
AcDbText
 73
     2
  0
TEXT
  5
7F51
330
1E
100
AcDbEntity
  8
UMCL2
100
AcDbText
 10
416.5978152497425
 20
588.0969170908367
 30
0.0
 40
3.0
  1
4-%%c11
 41
0.9
 51
15.0
  7
ROMANS
 72
     1
 11
422.9621009640282
 21
589.5969170908367
 31
0.0
100
AcDbText
 73
     2
  0
LINE
  5
7F52
330
1E
100
AcDbEntity
  8
UMCL2
100
AcDbLine
 10
607.5235316764734
 20
455.9716541161797
 30
0.0
 11
591.6510235366819
 21
455.9716541161797
 31
0.0
  0
TEXT
  5
7F53
330
1E
100
AcDbEntity
  8
UMCL2
100
AcDbText
 10
592.375186163555
 20
457.4716541161797
 30
0.0
 40
3.0
  1
PT1/2
 41
0.9
 51
15.0
  7
ROMANS
 72
     1
 11
598.8037575921265
 21
458.9716541161797
 31
0.0
100
AcDbText
 73
     2
  0
LINE
  5
7F54
330
1E
100
AcDbEntity
  8
UMCL2
100
AcDbLine
 10
549.1971848161473
 20
455.9716541161797
 30
0.0
 11
533.2209924092044
 21
455.9716541161795
 31
0.0
  0
TEXT
  5
7F55
330
1E
100
AcDbEntity
  8
UMCL2
100
AcDbText
 10
537.2712820691766
 20
457.4716541161797
 30
0.0
 40
3.0
  1
PT1/4
 41
0.9
 51
15.0
  7
ROMANS
 72
     1
 11
543.7641392120338
 21
458.9716541161797
 31
0.0
100
AcDbText
 73
     2
  0
LINE
  5
7F56
330
1E
100
AcDbEntity
  8
UMCL1
  6
Continuous
100
AcDbLine
 10
572.7832200323466
 20
436.4334836600037
 30
0.0
 11
572.7832200323462
 21
386.4334836600037
 31
0.0
  0
LINE
  5
7F57
330
1E
100
AcDbEntity
  8
CENTER
  6
CENTER
100
AcDbLine
 10
86.14448733362019
 20
419.5636242975878
 30
0.0
 11
86.14448733362019
 21
385.0492227205991
 31
0.0
  0
CIRCLE
  5
7F58
330
1E
100
AcDbEntity
  8
UMCL1
  6
Continuous
100
AcDbCircle
 10
86.14448733362042
 20
401.4334836600037
 30
0.0
 40
9.250000000000113
  0
ARC
  5
7F59
330
1E
100
AcDbEntity
  8
UMCL1
  6
Continuous
 62
     2
100
AcDbCircle
 10
86.14448733362042
 20
401.4334836600037
 30
0.0
 40
10.50000000000011
100
AcDbArc
 50
73.82957132669226
 51
17.43408235220769
  0
LINE
  5
7F5A
330
1E
100
AcDbEntity
  8
CENTER
  6
CENTER
100
AcDbLine
 10
373.1444873336207
 20
432.1171758597333
 30
0.0
 11
373.1444873336207
 21
394.1171758597334
 31
0.0
  0
CIRCLE
  5
7F5B
330
1E
100
AcDbEntity
  8
UMCL1
  6
Continuous
100
AcDbCircle
 10
373.1444873336207
 20
411.4334836600037
 30
0.0
 40
9.250000000000113
  0
ARC
  5
7F5C
330
1E
100
AcDbEntity
  8
UMCL1
  6
Continuous
 62
     2
100
AcDbCircle
 10
373.1444873336207
 20
411.4334836600037
 30
0.0
 40
10.50000000000011
100
AcDbArc
 50
73.82957132669226
 51
17.43408235220769
  0
LINE
  5
7F5D
330
1E
100
AcDbEntity
  8
UMCL2
100
AcDbLine
 10
380.515839213822
 20
403.9559726129887
 30
0.0
 11
430.8840225961708
 21
352.8624074460365
 31
0.0
  0
SOLID
  5
7F5E
330
1E
100
AcDbEntity
  8
UMCL2
100
AcDbTrace
 10
382.9789753450826
 20
402.1718873014406
 30
0.0
 11
382.2672105882964
 21
401.4694693838182
 31
0.0
 12
380.5158392138222
 22
403.9559726129883
 32
0.0
 13
380.5158392138222
 23
403.9559726129883
 33
0.0
  0
SOLID
  5
7F5F
330
1E
100
AcDbEntity
  8
UMCL2
100
AcDbTrace
 10
381.4222915857928
 20
595.7595492441639
 30
0.0
 11
381.1765062686853
 21
594.7902249548292
 31
0.0
 12
378.3914260592346
 22
596.0122430508188
 32
0.0
 13
378.3914260592346
 23
596.0122430508188
 33
0.0
  0
LINE
  5
7F60
330
1E
100
AcDbEntity
  8
UMCL2
100
AcDbLine
 10
378.3914260592358
 20
596.0122430508175
 30
0.0
 11
415.2779376676615
 21
586.5969170908369
 31
0.0
  0
LINE
  5
7F61
330
1E
100
AcDbEntity
  8
UMCL1
  6
Continuous
100
AcDbLine
 10
406.1444873336204
 20
443.9334836600035
 30
0.0
 11
393.1444873336204
 21
443.9334836600035
 31
0.0
  0
LINE
  5
7F62
330
1E
100
AcDbEntity
  8
UMCL1
  6
Continuous
100
AcDbLine
 10
406.1444873336211
 20
378.9334836600037
 30
0.0
 11
393.1444873336206
 21
378.9334836600037
 31
0.0
  0
LINE
  5
7F63
330
1E
100
AcDbEntity
  8
UMCL1
  6
Continuous
100
AcDbLine
 10
406.1444873336203
 20
740.1613743402049
 30
0.0
 11
393.1444873336203
 21
740.1613743402049
 31
0.0
  0
LINE
  5
7F64
330
1E
100
AcDbEntity
  8
UMCL1
  6
Continuous
100
AcDbLine
 10
406.144487333621
 20
675.1613743402051
 30
0.0
 11
393.1444873336205
 21
675.1613743402051
 31
0.0
  0
LINE
  5
7F65
330
1E
100
AcDbEntity
  8
CENTER
  6
CENTER
100
AcDbLine
 10
86.51688682202758
 20
421.4334836600037
 30
0.0
 11
106.4072130992792
 21
421.4334836600037
 31
0.0
  0
LINE
  5
7F66
330
1E
100
AcDbEntity
  8
CENTER
  6
CENTER
100
AcDbLine
 10
70.06812058173636
 20
401.4334836600037
 30
0.0
 11
102.7280293080648
 21
401.4334836600037
 31
0.0
  0
LINE
  5
7F67
330
1E
100
AcDbEntity
  8
UMCL1
  6
Continuous
100
AcDbLine
 10
109.1444873336204
 20
497.4334836600035
 30
0.0
 11
109.1444873336204
 21
325.4334836600037
 31
0.0
  0
LINE
  5
7F68
330
1E
100
AcDbEntity
  8
UMCL1
  6
Continuous
100
AcDbLine
 10
353.1444873336204
 20
497.4334836600035
 30
0.0
 11
353.1444873336204
 21
325.4334836600037
 31
0.0
  0
LINE
  5
7F69
330
1E
100
AcDbEntity
  8
CENTER
  6
CENTER
100
AcDbLine
 10
373.1444873336207
 20
503.8134200061627
 30
0.0
 11
373.1444873336207
 21
465.8134200061627
 31
0.0
  0
LINE
  5
7F6A
330
1E
100
AcDbEntity
  8
CENTER
  6
CENTER
100
AcDbLine
 10
373.1444873336203
 20
723.8976128744102
 30
0.0
 11
373.1444873336203
 21
692.485229975977
 31
0.0
  0
LINE
  5
7F6B
330
1E
100
AcDbEntity
  8
CENTER
  6
CENTER
100
AcDbLine
 10
373.1444873336203
 20
640.6613743402053
 30
0.0
 11
373.1444873336203
 21
613.5392463553935
 31
0.0
  0
LINE
  5
7F6C
330
1E
100
AcDbEntity
  8
UMCL1
  6
HIDDEN
 62
     2
100
AcDbLine
 10
364.7944873336206
 20
497.4334836600037
 30
0.0
 11
365.4757884643003
 21
484.4334836600037
 31
0.0
  0
LINE
  5
7F6D
330
1E
100
AcDbEntity
  8
UMCL1
  6
HIDDEN
 62
     2
100
AcDbLine
 10
365.6444873336206
 20
497.4334836600037
 30
0.0
 11
366.3257884643002
 21
484.4334836600037
 31
0.0
  0
LINE
  5
7F6E
330
1E
100
AcDbEntity
  8
UMCL1
  6
HIDDEN
 62
     2
100
AcDbLine
 10
380.6444873336209
 20
497.4334836600037
 30
0.0
 11
379.9631862029412
 21
484.4334836600037
 31
0.0
  0
LINE
  5
7F6F
330
1E
100
AcDbEntity
  8
UMCL1
  6
HIDDEN
 62
     2
100
AcDbLine
 10
381.4944873336209
 20
497.4334836600037
 30
0.0
 11
380.8131862029413
 21
484.4334836600037
 31
0.0
  0
LINE
  5
7F70
330
1E
100
AcDbEntity
  8
UMCL1
  6
Continuous
100
AcDbLine
 10
63.14448733361996
 20
626.8049678796542
 30
0.0
 11
63.14448733361996
 21
621.6613743402054
 31
0.0
  0
LINE
  5
7F71
330
1E
100
AcDbEntity
  8
UMCL1
  6
Continuous
100
AcDbLine
 10
63.14448733362019
 20
793.6613743402049
 30
0.0
 11
63.14448733362019
 21
788.5177808007556
 31
0.0
  0
LINE
  5
7F72
330
1E
100
AcDbEntity
  8
UMCL1
  6
Continuous
100
AcDbLine
 10
63.14448733362019
 20
760.804967879654
 30
0.0
 11
63.14448733361996
 21
654.5177808007561
 31
0.0
  0
LINE
  5
7F73
330
1E
100
AcDbEntity
  8
CENTER
  6
CENTER
100
AcDbLine
 10
96.2052326591761
 20
430.4121386289495
 30
0.0
 11
96.20523265917586
 21
411.7072288899571
 31
0.0
  0
CIRCLE
  5
7F74
330
1E
100
AcDbEntity
  8
UMCL1
100
AcDbCircle
 10
96.20523265917586
 20
421.4334836600037
 30
0.0
 40
5.299999999999999
  0
CIRCLE
  5
7F75
330
1E
100
AcDbEntity
  8
UMCL1
100
AcDbCircle
 10
96.20523265917586
 20
421.4334836600037
 30
0.0
 40
5.0
  0
CIRCLE
  5
7F76
330
1E
100
AcDbEntity
  8
UMCL1
100
AcDbCircle
 10
96.20523265917586
 20
421.4334836600037
 30
0.0
 40
2.5
  0
POLYLINE
  5
7F77
330
1E
100
AcDbEntity
  8
UMCL1
  6
Continuous
100
AcDb2dPolyline
 66
     1
 10
0.0
 20
0.0
 30
0.0
 70
     1
  0
VERTEX
  5
7F78
330
7F77
100
AcDbEntity
  8
UMCL1
  6
Continuous
100
AcDbVertex
100
AcDb2dVertex
 10
98.20523265917586
 20
420.2787831216244
 30
0.0
  0
VERTEX
  5
7F79
330
7F77
100
AcDbEntity
  8
UMCL1
  6
Continuous
100
AcDbVertex
100
AcDb2dVertex
 10
98.20523265917586
 20
422.588184198383
 30
0.0
  0
VERTEX
  5
7F7A
330
7F77
100
AcDbEntity
  8
UMCL1
  6
Continuous
100
AcDbVertex
100
AcDb2dVertex
 10
96.20523265917586
 20
423.7428847367623
 30
0.0
  0
VERTEX
  5
7F7B
330
7F77
100
AcDbEntity
  8
UMCL1
  6
Continuous
100
AcDbVertex
100
AcDb2dVertex
 10
94.20523265917585
 20
422.588184198383
 30
0.0
  0
VERTEX
  5
7F7C
330
7F77
100
AcDbEntity
  8
UMCL1
  6
Continuous
100
AcDbVertex
100
AcDb2dVertex
 10
94.20523265917585
 20
420.2787831216244
 30
0.0
  0
VERTEX
  5
7F7D
330
7F77
100
AcDbEntity
  8
UMCL1
  6
Continuous
100
AcDbVertex
100
AcDb2dVertex
 10
96.20523265917586
 20
419.124082583245
 30
0.0
  0
SEQEND
  5
7F7E
330
7F77
100
AcDbEntity
  8
UMCL1
  6
Continuous
  0
LINE
  5
7F7F
330
1E
100
AcDbEntity
  8
UMCL1
  6
Continuous
 62
     7
100
AcDbLine
 10
95.35523265917595
 20
425.3421279262422
 30
0.0
 11
95.35523265917595
 21
426.3607039717007
 31
0.0
  0
LINE
  5
7F80
330
1E
100
AcDbEntity
  8
UMCL1
  6
Continuous
 62
     7
100
AcDbLine
 10
97.055232659176
 20
425.3421279262422
 30
0.0
 11
97.055232659176
 21
426.3607039717007
 31
0.0
  0
LINE
  5
7F81
330
1E
100
AcDbEntity
  8
UMCL1
  6
Continuous
 62
     7
100
AcDbLine
 10
97.055232659176
 20
416.5062633483066
 30
0.0
 11
97.055232659176
 21
417.5248393937649
 31
0.0
  0
LINE
  5
7F82
330
1E
100
AcDbEntity
  8
UMCL1
  6
Continuous
 62
     7
100
AcDbLine
 10
95.35523265917595
 20
416.5062633483066
 30
0.0
 11
95.35523265917595
 21
417.5248393937649
 31
0.0
  0
LINE
  5
7F83
330
1E
100
AcDbEntity
  8
UMCL1
  6
Continuous
 62
     7
100
AcDbLine
 10
92.39524743025686
 20
422.6516841999061
 30
0.0
 11
91.51313469920365
 21
423.1609722226355
 31
0.0
  0
LINE
  5
7F84
330
1E
100
AcDbEntity
  8
UMCL1
  6
Continuous
 62
     7
100
AcDbLine
 10
93.24524743025676
 20
424.1239273863397
 30
0.0
 11
92.36313469920355
 21
424.6332154090689
 31
0.0
  0
LINE
  5
7F85
330
1E
100
AcDbEntity
  8
UMCL1
  6
Continuous
 62
     7
100
AcDbLine
 10
100.8973306191483
 20
419.7059950973721
 30
0.0
 11
100.0152178880948
 21
420.215283120101
 31
0.0
  0
LINE
  5
7F86
330
1E
100
AcDbEntity
  8
UMCL1
  6
Continuous
 62
     7
100
AcDbLine
 10
100.0473306191484
 20
418.2337519109382
 30
0.0
 11
99.16521788809497
 21
418.7430399336676
 31
0.0
  0
LINE
  5
7F87
330
1E
100
AcDbEntity
  8
UMCL1
  6
Continuous
 62
     7
100
AcDbLine
 10
92.39524743025686
 20
420.215283120101
 30
0.0
 11
91.51313469920365
 21
419.7059950973721
 31
0.0
  0
LINE
  5
7F88
330
1E
100
AcDbEntity
  8
UMCL1
  6
Continuous
 62
     7
100
AcDbLine
 10
93.24524743025676
 20
418.7430399336676
 30
0.0
 11
92.36313469920355
 21
418.2337519109382
 31
0.0
  0
LINE
  5
7F89
330
1E
100
AcDbEntity
  8
UMCL1
  6
Continuous
 62
     7
100
AcDbLine
 10
100.8973306191483
 20
423.1609722226355
 30
0.0
 11
100.0152178880948
 21
422.6516841999061
 31
0.0
  0
LINE
  5
7F8A
330
1E
100
AcDbEntity
  8
UMCL1
  6
Continuous
 62
     7
100
AcDbLine
 10
100.0473306191484
 20
424.6332154090689
 30
0.0
 11
99.16521788809497
 21
424.1239273863397
 31
0.0
  0
ARC
  5
7F8B
330
1E
100
AcDbEntity
  8
UMCL1
100
AcDbCircle
 10
96.20523265917586
 20
421.4334836600037
 30
0.0
 40
4.0
100
AcDbArc
 50
102.2688989959549
 51
137.7311010040431
  0
ARC
  5
7F8C
330
1E
100
AcDbEntity
  8
UMCL1
100
AcDbCircle
 10
96.20523265917586
 20
421.4334836600037
 30
0.0
 40
4.0
100
AcDbArc
 50
162.2688989959544
 51
197.7311010040455
  0
ARC
  5
7F8D
330
1E
100
AcDbEntity
  8
UMCL1
100
AcDbCircle
 10
96.20523265917586
 20
421.4334836600037
 30
0.0
 40
4.0
100
AcDbArc
 50
222.2688989959569
 51
257.7311010040451
  0
ARC
  5
7F8E
330
1E
100
AcDbEntity
  8
UMCL1
100
AcDbCircle
 10
96.20523265917586
 20
421.4334836600037
 30
0.0
 40
4.0
100
AcDbArc
 50
282.2688989959549
 51
317.7311010040431
  0
ARC
  5
7F8F
330
1E
100
AcDbEntity
  8
UMCL1
100
AcDbCircle
 10
96.20523265917586
 20
421.4334836600037
 30
0.0
 40
4.0
100
AcDbArc
 50
342.2688989959544
 51
17.73110100404555
  0
ARC
  5
7F90
330
1E
100
AcDbEntity
  8
UMCL1
100
AcDbCircle
 10
96.20523265917586
 20
421.4334836600037
 30
0.0
 40
4.0
100
AcDbArc
 50
42.2688989959569
 51
77.73110100404513
  0
LINE
  5
7F91
330
1E
100
AcDbEntity
  8
CENTER
  6
CENTER
100
AcDbLine
 10
86.14448733362019
 20
646.2338149001489
 30
0.0
 11
86.14448733362019
 21
611.7194133231601
 31
0.0
  0
CIRCLE
  5
7F92
330
1E
100
AcDbEntity
  8
UMCL1
  6
Continuous
100
AcDbCircle
 10
373.1444873336202
 20
707.6613743402051
 30
0.0
 40
7.5
  0
ARC
  5
7F93
330
1E
100
AcDbEntity
  8
UMCL1
  6
Continuous
 62
     2
100
AcDbCircle
 10
373.1444873336202
 20
707.6613743402051
 30
0.0
 40
8.350000000000022
100
AcDbArc
 50
77.54385559222822
 51
14.38490764949925
  0
LINE
  5
7F94
330
1E
100
AcDbEntity
  8
UMCL2
100
AcDbLine
 10
444.8557629969647
 20
650.6214075311004
 30
0.0
 11
429.3746505445129
 21
650.6214075311004
 31
0.0
  0
TEXT
  5
7F95
330
1E
100
AcDbEntity
  8
UMCL2
100
AcDbText
 10
432.9822939326036
 20
652.1214075311004
 30
0.0
 40
3.0
  1
PT3/8
 41
0.9
 51
15.0
  7
ROMANS
 72
     1
 11
439.410865361175
 21
653.6214075311004
 31
0.0
100
AcDbText
 73
     2
  0
LINE
  5
7F96
330
1E
100
AcDbEntity
  8
UMCL2
100
AcDbLine
 10
379.0064671621641
 20
701.7149726980528
 30
0.0
 11
429.3746505445129
 21
650.6214075311004
 31
0.0
  0
SOLID
  5
7F97
330
1E
100
AcDbEntity
  8
UMCL2
100
AcDbTrace
 10
381.4696032934245
 20
699.9308873865047
 30
0.0
 11
380.7578385366383
 21
699.2284694688824
 31
0.0
 12
379.0064671621641
 22
701.7149726980524
 32
0.0
 13
379.0064671621641
 23
701.7149726980524
 33
0.0
  0
ENDSEC
  0
SECTION
  2
OBJECTS
  0
DICTIONARY
  5
C
330
0
100
AcDbDictionary
281
     1
  3
ACAD_COLOR
350
628F
  3
ACAD_GROUP
350
D
  3
ACAD_IMAGE_DICT
350
3CB
  3
ACAD_LAYOUT
350
19
  3
ACAD_MATERIAL
350
628E
  3
ACAD_MLINESTYLE
350
16
  3
ACAD_PLOTSETTINGS
350
18
  3
ACAD_PLOTSTYLENAME
350
B31
  3
ACAD_TABLESTYLE
350
6290
  3
ACDBHEADERROUNDTRIPXREC
350
8052
  3
AcDbVariableDictionary
350
BD2
  3
ACMDICTIONARY
350
7C2
  3
AMG
350
7A8
  3
AMGSNAPSETTINGS
350
895
  3
DWGPROPS
350
8051
1001
ACAD
1000
TREAT_AS_HARD
1070
     0
  0
DICTIONARY
  5
6C50
330
2
100
AcDbDictionary
280
     1
281
     1
  3
ACAD_LAYERFILTERS
360
6C54
  3
ACLYDICTIONARY
360
6C53
  0
DICTIONARY
  5
708
330
1E
100
AcDbDictionary
280
     1
281
     1
  3
ACAD_LAYOUTSELFREF
360
4E3B
1001
ACAD
1000
TREAT_AS_HARD
1070
     1
  0
DICTIONARY
  5
70A
330
1A
100
AcDbDictionary
280
     1
281
     1
  3
ACAD_LAYOUTSELFREF
360
4E3A
1001
ACAD
1000
TREAT_AS_HARD
1070
     1
  0
DICTIONARY
  5
628F
102
{ACAD_REACTORS
330
C
102
}
330
C
100
AcDbDictionary
281
     1
  0
DICTIONARY
  5
D
102
{ACAD_REACTORS
330
C
102
}
330
C
100
AcDbDictionary
281
     1
1001
ACAD
1000
TREAT_AS_HARD
1070
     0
  0
DICTIONARY
  5
3CB
102
{ACAD_REACTORS
330
C
102
}
330
C
100
AcDbDictionary
281
     1
  3
PLOT
350
3CC
1001
ACAD
1000
TREAT_AS_HARD
1070
     0
  0
DICTIONARY
  5
19
102
{ACAD_REACTORS
330
C
102
}
330
C
100
AcDbDictionary
281
     1
  3
Layout1
350
B34
  3
Model
350
B33
1001
ACAD
1000
TREAT_AS_HARD
1070
     0
  0
DICTIONARY
  5
628E
102
{ACAD_REACTORS
330
C
102
}
330
C
100
AcDbDictionary
281
     1
  0
DICTIONARY
  5
16
102
{ACAD_REACTORS
330
C
102
}
330
C
100
AcDbDictionary
281
     1
  3
STANDARD
350
17
1001
ACAD
1000
TREAT_AS_HARD
1070
     0
  0
DICTIONARY
  5
18
102
{ACAD_REACTORS
330
C
102
}
330
C
100
AcDbDictionary
281
     1
1001
ACAD
1000
TREAT_AS_HARD
1070
     0
  0
ACDBDICTIONARYWDFLT
  5
B31
102
{ACAD_REACTORS
330
C
102
}
330
C
100
AcDbDictionary
281
     1
  3
Normal
350
B32
100
AcDbDictionaryWithDefault
340
B32
  0
DICTIONARY
  5
6290
102
{ACAD_REACTORS
330
C
102
}
330
C
100
AcDbDictionary
281
     1
  3
Standard
350
6291
  0
DICTIONARY
  5
8052
102
{ACAD_REACTORS
330
C
102
}
330
C
100
AcDbDictionary
281
     1
  0
DICTIONARY
  5
BD2
102
{ACAD_REACTORS
330
C
102
}
330
C
100
AcDbDictionary
281
     1
  3
CTABLESTYLE
350
6C72
  3
DIMASSOC
350
BD4
  3
INDEXCTL
350
BD3
  3
PROJECTNAME
350
6C73
  0
DICTIONARY
  5
7C2
102
{ACAD_REACTORS
330
C
102
}
330
C
100
AcDbDictionary
281
     1
  3
ACMSTDDICTIONARY
350
7C8
  3
AMDTSECTSYM_ARROWCOLOR
350
629C
1001
ACAD
1000
TREAT_AS_HARD
1070
     0
  0
DICTIONARY
  5
7A8
102
{ACAD_REACTORS
330
C
102
}
330
C
100
AcDbDictionary
281
     1
1001
ACAD
1000
TREAT_AS_HARD
1070
     0
  0
DICTIONARY
  5
895
102
{ACAD_REACTORS
330
C
102
}
330
C
100
AcDbDictionary
281
     1
1001
ACAD
1000
TREAT_AS_HARD
1070
     0
  0
XRECORD
  5
8051
102
{ACAD_REACTORS
330
C
102
}
330
C
100
AcDbXrecord
280
     1
  1
DWGPROPS COOKIE
  2

  3

  4

  6

  7

  8

  9

300
AmdtFileType=84
301
=
302
=
303
=
304
=
305
=
306
=
307
=
308
=
309
=
 40
0.4555911921296297
 41
2450294.602131481
 42
2453388.429960961
  1

 90
        1
  0
DICTIONARY
  5
6C54
102
{ACAD_REACTORS
330
6C50
102
}
330
6C50
100
AcDbDictionary
281
     1
  0
DICTIONARY
  5
6C53
102
{ACAD_REACTORS
330
6C50
102
}
330
6C50
100
AcDbDictionary
281
     1
1001
ACAD
1000
<All
  0
XRECORD
  5
4E3B
102
{ACAD_REACTORS
330
708
102
}
330
708
100
AcDbXrecord
280
     1
340
1E
  0
XRECORD
  5
4E3A
102
{ACAD_REACTORS
330
70A
102
}
330
70A
100
AcDbXrecord
280
     1
340
1A
  0
IMAGEDEF
  5
3CC
102
{ACAD_REACTORS
330
3CB
102
}
330
3CB
100
AcDbRasterImageDef
 90
        0
  1
D:\CHI\plot.bmp
 10
694.0
 20
470.0
 11
0.264550269889837
 21
0.264550269889837
280
     1
281
     2
  0
LAYOUT
  5
B34
102
{ACAD_XDICTIONARY
360
8055
102
}
102
{ACAD_REACTORS
330
19
102
}
330
19
100
AcDbPlotSettings
  1

  2
自動 PC-WM51 上的 Epson LQ-1070C+
  4

  6

 40
0.0
 41
0.0
 42
0.0
 43
0.0
 44
0.0
 45
0.0
 46
0.0
 47
0.0
 48
0.0
 49
0.0
140
0.0
141
0.0
142
1.0
143
1.0
 70
   688
 72
     0
 73
     0
 74
     5
  7

 75
    16
147
1.0
148
0.0
149
0.0
100
AcDbLayout
  1
Layout1
 70
     0
 71
     1
 10
0.0
 20
0.0
 11
12.0
 21
9.0
 12
101.9887994410416
 22
50.0
 32
155.412184630939
 14
1.000000000000000E+20
 24
1.000000000000000E+20
 34
1.000000000000000E+20
 15
-1.000000000000000E+20
 25
-1.000000000000000E+20
 35
-1.000000000000000E+20
146
0.0
 13
0.0
 23
0.0
 33
0.0
 16
1.0
 26
0.0
 36
0.0
 17
0.0
 27
1.0
 37
0.0
 76
     0
330
1A
  0
LAYOUT
  5
B33
102
{ACAD_XDICTIONARY
360
8053
102
}
102
{ACAD_REACTORS
330
19
102
}
330
19
100
AcDbPlotSettings
  1

  2
DWF eView (optimized for viewing).pc3
  4
ISO_A4_(297.00_x_210.00_MM)
  6

 40
5.793749809265136
 41
17.79375076293945
 42
5.79376220703125
 43
17.79374694824219
 44
297.0
 45
210.0
 46
29.85
 47
0.0
 48
0.0
 49
0.0
140
0.0
141
0.0
142
1.0
143
0.6382186722569885
 70
 11956
 72
     1
 73
     0
 74
     1
  7

 75
     0
147
1.566861082994661
148
-200.235718928552
149
46.05760240554945
100
AcDbLayout
  1
Model
 70
     1
 71
     0
 10
0.0
 20
0.0
 11
12.0
 21
9.0
 12
0.0
 22
0.0
 32
0.0
 14
0.0
 24
0.0
 34
0.0
 15
0.0
 25
0.0
 35
0.0
146
0.0
 13
0.0
 23
0.0
 33
0.0
 16
1.0
 26
0.0
 36
0.0
 17
0.0
 27
1.0
 37
0.0
 76
     0
330
1E
  0
MLINESTYLE
  5
17
102
{ACAD_REACTORS
330
16
102
}
330
16
100
AcDbMlineStyle
  2
STANDARD
 70
     0
  3

 62
   256
 51
90.0
 52
90.0
 71
     2
 49
0.5
 62
   256
  6
BYLAYER
 49
-0.5
 62
   256
  6
BYLAYER
  0
ACDBPLACEHOLDER
  5
B32
102
{ACAD_REACTORS
330
B31
102
}
330
B31
  0
TABLESTYLE
  5
6291
102
{ACAD_REACTORS
330
6290
102
}
330
6290
100
AcDbTableStyle
  3
Standard
 70
     0
 71
     0
 40
1.5
 41
1.5
280
     0
281
     0
  7
STANDARD
140
4.5
170
     2
 62
     0
 63
     7
283
     0
274
    -2
284
     1
 64
     0
275
    -2
285
     1
 65
     0
276
    -2
286
     1
 66
     0
277
    -2
287
     1
 67
     0
278
    -2
288
     1
 68
     0
279
    -2
289
     1
 69
     0
  7
STANDARD
140
6.0
170
     5
 62
     0
 63
     7
283
     0
274
    -2
284
     1
 64
     0
275
    -2
285
     1
 65
     0
276
    -2
286
     1
 66
     0
277
    -2
287
     1
 67
     0
278
    -2
288
     1
 68
     0
279
    -2
289
     1
 69
     0
  7
STANDARD
140
4.5
170
     5
 62
     0
 63
     7
283
     0
274
    -2
284
     1
 64
     0
275
    -2
285
     1
 65
     0
276
    -2
286
     1
 66
     0
277
    -2
287
     1
 67
     0
278
    -2
288
     1
 68
     0
279
    -2
289
     1
 69
     0
  0
DICTIONARYVAR
  5
6C72
102
{ACAD_REACTORS
330
BD2
102
}
330
BD2
100
DictionaryVariables
280
     0
  1
STANDARD
  0
DICTIONARYVAR
  5
BD4
102
{ACAD_REACTORS
330
BD2
102
}
330
BD2
100
DictionaryVariables
280
     0
  1
1
  0
DICTIONARYVAR
  5
BD3
102
{ACAD_REACTORS
330
BD2
102
}
330
BD2
100
DictionaryVariables
280
     0
  1
0
  0
DICTIONARYVAR
  5
6C73
102
{ACAD_REACTORS
330
BD2
102
}
330
BD2
100
DictionaryVariables
280
     0
  1

  0
DICTIONARY
  5
7C8
102
{ACAD_REACTORS
330
7C2
102
}
330
7C2
100
AcDbDictionary
281
     1
1001
ACAD
1000
TREAT_AS_HARD
1070
     0
  0
XRECORD
  5
629C
102
{ACAD_REACTORS
330
7C2
102
}
330
7C2
100
AcDbXrecord
280
     1
 90
-1023410169
  0
DICTIONARY
  5
8055
330
B34
100
AcDbDictionary
280
     1
281
     1
  3
ACAD_XREC_ROUNDTRIP
360
8056
  0
DICTIONARY
  5
8053
330
B33
100
AcDbDictionary
280
     1
281
     1
  3
ACAD_XREC_ROUNDTRIP
360
8054
  0
XRECORD
  5
8056
102
{ACAD_REACTORS
330
8055
102
}
330
8055
100
AcDbXrecord
280
     1
102
SHADEPLOT
 70
     0
102
SHADEPLOTRESLEVEL
 70
     2
102
SHADEPLOTCUSTOMDPI
 70
   300
  0
XRECORD
  5
8054
102
{ACAD_REACTORS
330
8053
102
}
330
8053
100
AcDbXrecord
280
     1
102
SHADEPLOT
 70
     0
102
SHADEPLOTRESLEVEL
 70
     2
102
SHADEPLOTCUSTOMDPI
 70
   300
  0
ENDSEC
  0
EOF
