  0
SECTION
  2
HEADER
  9
$ACADVER
  1
AC1015
  9
$ACADMAINTVER
 70
    20
  9
$DWGCODEPAGE
  3
ANSI_950
  9
$INSBASE
 10
0.0
 20
0.0
 30
0.0
  9
$EXTMIN
 10
-180.1728562709286
 20
99.2024022790988
 30
-0.000972664756091
  9
$EXTMAX
 10
931.9374961737862
 20
768.6837232022116
 30
989.3122669246627
  9
$LIMMIN
 10
0.0
 20
0.0
  9
$LIMMAX
 10
396.0
 20
273.0
  9
$ORTHOMODE
 70
     1
  9
$REGENMODE
 70
     1
  9
$FILLMODE
 70
     1
  9
$QTEXTMODE
 70
     0
  9
$MIRRTEXT
 70
     1
  9
$LTSCALE
 40
3.0
  9
$ATTMODE
 70
     1
  9
$TEXTSIZE
 40
3.0
  9
$TRACEWID
 40
0.05
  9
$TEXTSTYLE
  7
DAYUS
  9
$CLAYER
  8
0
  9
$CELTYPE
  6
BYLAYER
  9
$CECOLOR
 62
   256
  9
$CELTSCALE
 40
1.0
  9
$DISPSILH
 70
     0
  9
$DIMSCALE
 40
1.0
  9
$DIMASZ
 40
2.0
  9
$DIMEXO
 40
1.0
  9
$DIMDLI
 40
5.0
  9
$DIMRND
 40
0.0
  9
$DIMDLE
 40
0.0
  9
$DIMEXE
 40
1.5
  9
$DIMTP
 40
0.1
  9
$DIMTM
 40
0.1
  9
$DIMTXT
 40
2.0
  9
$DIMCEN
 40
3.0
  9
$DIMTSZ
 40
0.0
  9
$DIMTOL
 70
     0
  9
$DIMLIM
 70
     0
  9
$DIMTIH
 70
     0
  9
$DIMTOH
 70
     0
  9
$DIMSE1
 70
     0
  9
$DIMSE2
 70
     0
  9
$DIMTAD
 70
     1
  9
$DIMZIN
 70
     8
  9
$DIMBLK
  1

  9
$DIMASO
 70
     1
  9
$DIMSHO
 70
     0
  9
$DIMPOST
  1

  9
$DIMAPOST
  1
"
  9
$DIMALT
 70
     0
  9
$DIMALTD
 70
     2
  9
$DIMALTF
 40
0.0393701
  9
$DIMLFAC
 40
1.0
  9
$DIMTOFL
 70
     1
  9
$DIMTVP
 40
0.0
  9
$DIMTIX
 70
     0
  9
$DIMSOXD
 70
     0
  9
$DIMSAH
 70
     0
  9
$DIMBLK1
  1

  9
$DIMBLK2
  1

  9
$DIMSTYLE
  2
AM_ISO
  9
$DIMCLRD
 70
   256
  9
$DIMCLRE
 70
   256
  9
$DIMCLRT
 70
   256
  9
$DIMTFAC
 40
0.71
  9
$DIMGAP
 40
0.6
  9
$DIMJUST
 70
     0
  9
$DIMSD1
 70
     0
  9
$DIMSD2
 70
     0
  9
$DIMTOLJ
 70
     0
  9
$DIMTZIN
 70
     8
  9
$DIMALTZ
 70
     0
  9
$DIMALTTZ
 70
     0
  9
$DIMUPT
 70
     0
  9
$DIMDEC
 70
     2
  9
$DIMTDEC
 70
     8
  9
$DIMALTU
 70
     2
  9
$DIMALTTD
 70
     2
  9
$DIMTXSTY
  7
STANDARD
  9
$DIMAUNIT
 70
     0
  9
$DIMADEC
 70
     0
  9
$DIMALTRND
 40
0.0
  9
$DIMAZIN
 70
     2
  9
$DIMDSEP
 70
    46
  9
$DIMATFIT
 70
     3
  9
$DIMFRAC
 70
     0
  9
$DIMLDRBLK
  1

  9
$DIMLUNIT
 70
     2
  9
$DIMLWD
 70
    -1
  9
$DIMLWE
 70
    -1
  9
$DIMTMOVE
 70
     0
  9
$LUNITS
 70
     2
  9
$LUPREC
 70
     2
  9
$SKETCHINC
 40
0.1
  9
$FILLETRAD
 40
2.5
  9
$AUNITS
 70
     0
  9
$AUPREC
 70
     0
  9
$MENU
  1
C:\CACAD\ACAD
  9
$ELEVATION
 40
0.0
  9
$PELEVATION
 40
0.0
  9
$THICKNESS
 40
0.0
  9
$LIMCHECK
 70
     0
  9
$CHAMFERA
 40
3.0
  9
$CHAMFERB
 40
3.0
  9
$CHAMFERC
 40
0.0
  9
$CHAMFERD
 40
0.0
  9
$SKPOLY
 70
     0
  9
$TDCREATE
 40
2450294.602131481
  9
$TDUCREATE
 40
2450294.268798149
  9
$TDUPDATE
 40
2453388.430465694
  9
$TDUUPDATE
 40
2453388.097132361
  9
$TDINDWG
 40
0.4485739931
  9
$TDUSRTIMER
 40
0.4485707407
  9
$USRTIMER
 70
     1
  9
$ANGBASE
 50
0.0
  9
$ANGDIR
 70
     0
  9
$PDMODE
 70
    65
  9
$PDSIZE
 40
8.3
  9
$PLINEWID
 40
0.0
  9
$SPLFRAME
 70
     0
  9
$SPLINETYPE
 70
     6
  9
$SPLINESEGS
 70
     8
  9
$HANDSEED
  5
6D0A
  9
$SURFTAB1
 70
     6
  9
$SURFTAB2
 70
     6
  9
$SURFTYPE
 70
     6
  9
$SURFU
 70
     6
  9
$SURFV
 70
     6
  9
$UCSBASE
  2

  9
$UCSNAME
  2

  9
$UCSORG
 10
0.0
 20
0.0
 30
0.0
  9
$UCSXDIR
 10
1.0
 20
0.0
 30
0.0
  9
$UCSYDIR
 10
0.0
 20
1.0
 30
0.0
  9
$UCSORTHOREF
  2

  9
$UCSORTHOVIEW
 70
     0
  9
$UCSORGTOP
 10
0.0
 20
0.0
 30
0.0
  9
$UCSORGBOTTOM
 10
0.0
 20
0.0
 30
0.0
  9
$UCSORGLEFT
 10
0.0
 20
0.0
 30
0.0
  9
$UCSORGRIGHT
 10
0.0
 20
0.0
 30
0.0
  9
$UCSORGFRONT
 10
0.0
 20
0.0
 30
0.0
  9
$UCSORGBACK
 10
0.0
 20
0.0
 30
0.0
  9
$PUCSBASE
  2

  9
$PUCSNAME
  2

  9
$PUCSORG
 10
0.0
 20
0.0
 30
0.0
  9
$PUCSXDIR
 10
1.0
 20
0.0
 30
0.0
  9
$PUCSYDIR
 10
0.0
 20
1.0
 30
0.0
  9
$PUCSORTHOREF
  2

  9
$PUCSORTHOVIEW
 70
     0
  9
$PUCSORGTOP
 10
0.0
 20
0.0
 30
0.0
  9
$PUCSORGBOTTOM
 10
0.0
 20
0.0
 30
0.0
  9
$PUCSORGLEFT
 10
0.0
 20
0.0
 30
0.0
  9
$PUCSORGRIGHT
 10
0.0
 20
0.0
 30
0.0
  9
$PUCSORGFRONT
 10
0.0
 20
0.0
 30
0.0
  9
$PUCSORGBACK
 10
0.0
 20
0.0
 30
0.0
  9
$USERI1
 70
     0
  9
$USERI2
 70
     0
  9
$USERI3
 70
     0
  9
$USERI4
 70
     0
  9
$USERI5
 70
     0
  9
$USERR1
 40
0.0
  9
$USERR2
 40
0.0
  9
$USERR3
 40
0.0
  9
$USERR4
 40
0.0
  9
$USERR5
 40
0.0
  9
$WORLDVIEW
 70
     1
  9
$SHADEDGE
 70
     3
  9
$SHADEDIF
 70
    70
  9
$TILEMODE
 70
     1
  9
$MAXACTVP
 70
    16
  9
$PINSBASE
 10
101.9887994410416
 20
50.0
 30
155.412184630939
  9
$PLIMCHECK
 70
     0
  9
$PEXTMIN
 10
1.000000000000000E+20
 20
1.000000000000000E+20
 30
1.000000000000000E+20
  9
$PEXTMAX
 10
-1.000000000000000E+20
 20
-1.000000000000000E+20
 30
-1.000000000000000E+20
  9
$PLIMMIN
 10
0.0
 20
0.0
  9
$PLIMMAX
 10
12.0
 20
9.0
  9
$UNITMODE
 70
     0
  9
$VISRETAIN
 70
     0
  9
$PLINEGEN
 70
     0
  9
$PSLTSCALE
 70
     0
  9
$TREEDEPTH
 70
  3020
  9
$CMLSTYLE
  2
STANDARD
  9
$CMLJUST
 70
     0
  9
$CMLSCALE
 40
1.0
  9
$PROXYGRAPHICS
 70
     1
  9
$MEASUREMENT
 70
     1
  9
$CELWEIGHT
370
    -1
  9
$ENDCAPS
280
     0
  9
$JOINSTYLE
280
     0
  9
$LWDISPLAY
290
     0
  9
$INSUNITS
 70
     4
  9
$HYPERLINKBASE
  1

  9
$STYLESHEET
  1
彩色出圖.ctb
  9
$XEDIT
290
     1
  9
$CEPSNTYPE
380
     0
  9
$PSTYLEMODE
290
     1
  9
$FINGERPRINTGUID
  2
{727C4F51-B094-446D-A919-594C4FA4BCB3}
  9
$VERSIONGUID
  2
{1FA6CBFF-772C-470B-A3DE-A733E06A3F12}
  9
$EXTNAMES
290
     1
  9
$PSVPSCALE
 40
0.0
  9
$OLESTARTUP
290
     0
  0
ENDSEC
  0
SECTION
  2
CLASSES
  0
CLASS
  1
ACDBDICTIONARYWDFLT
  2
AcDbDictionaryWithDefault
  3
ObjectDBX Classes
 90
        0
280
     0
281
     0
  0
CLASS
  1
ACDBPLACEHOLDER
  2
AcDbPlaceHolder
  3
ObjectDBX Classes
 90
        0
280
     0
281
     0
  0
CLASS
  1
LAYOUT
  2
AcDbLayout
  3
ObjectDBX Classes
 90
        0
280
     0
281
     0
  0
CLASS
  1
IMAGEDEF
  2
AcDbRasterImageDef
  3
ISM
 90
        0
280
     0
281
     0
  0
CLASS
  1
ACME_DOCUMENT
  2
AcMeDbDoc
  3
AcMeServices
 90
        0
280
     0
281
     0
  0
CLASS
  1
AMGSETTINGSOBJ
  2
AmgSettingsObj
  3
"AcadM|Product Description: AutoCAD Mechanical 2000|Company: Autodesk"
 90
        0
280
     0
281
     0
  0
CLASS
  1
ACMESCOPE
  2
AcMeScope
  3
AcMeServices
 90
        0
280
     0
281
     0
  0
CLASS
  1
ACMECOMMANDHISTORY
  2
AcMeCommandHistory
  3
AcMeServices
 90
        0
280
     0
281
     0
  0
CLASS
  1
ACIMSYSVARMAN
  2
AcImSysVarManager
  3
AcMeServices
 90
        0
280
     0
281
     0
  0
CLASS
  1
ACIMREALSYSVAR
  2
AcImRealSysVar
  3
AcMeServices
 90
        0
280
     0
281
     0
  0
CLASS
  1
ACIMINTSYSVAR
  2
AcImIntSysVar
  3
AcMeServices
 90
        0
280
     0
281
     0
  0
CLASS
  1
ACMEDRAWINGMAN
  2
AcMeDrawingMan
  3
AcMeServices
 90
        0
280
     0
281
     0
  0
CLASS
  1
ACMEVIEW
  2
AcMeView
  3
AcMeServices
 90
        0
280
     0
281
     0
  0
CLASS
  1
ACDBENTITYCACHE
  2
AcMeEntityCache
  3
AcMeServices
 90
        0
280
     0
281
     0
  0
CLASS
  1
GSMANAGER
  2
AcMeGSManager
  3
AcMeServices
 90
        0
280
     0
281
     0
  0
CLASS
  1
AMDTINTERNALREACTOR
  2
AmdtInternalReactor
  3
AcMeServices
 90
        0
280
     0
281
     0
  0
CLASS
  1
ACMESTATEMGR
  2
AcMeStateMgr
  3
AcMeServices
 90
        0
280
     0
281
     0
  0
CLASS
  1
ACGREFMASTER
  2
AcGrefMaster
  3
AcAttribServices
 90
        0
280
     0
281
     0
  0
CLASS
  1
ACME_DATABASE
  2
AcMeDbDatabase
  3
AcMeServices
 90
        0
280
     0
281
     0
  0
CLASS
  1
ACRFINSADJUSTERMGR
  2
AcRfInsAdjusterMgr
  3
AcMeServices
 90
        0
280
     0
281
     0
  0
CLASS
  1
ACGREFACADMASTER
  2
AcGrefacadMaster
  3
AcGrefServices
 90
        0
280
     0
281
     0
  0
CLASS
  1
AMIMASTER
  2
AmiMaster
  3
AmiServices
 90
        0
280
     0
281
     0
  0
CLASS
  1
ACMDATADICTIONARY
  2
AcmDataDictionary
  3
"AcmSymBB|Product Description: AutoCAD Mechanical 2004 DX|Company: Autodesk"
 90
        0
280
     0
281
     0
  0
CLASS
  1
ACMDATAENTRYBLOCK
  2
AcmDataEntryBlock
  3
"AcmSymBB|Product Description: AutoCAD Mechanical 2004 DX|Company: Autodesk"
 90
    32768
280
     0
281
     0
  0
CLASS
  1
ACIMSTRSYSVAR
  2
AcImStrSysVar
  3
AcMeServices
 90
        0
280
     0
281
     0
  0
CLASS
  1
ACMSTANDARDANSI
  2
AcmStandardANSI
  3
"Amdt_StdImp|Product Description: AutoCAD Mechanical 2004 DX|Company: Autodesk"
 90
    32768
280
     0
281
     0
  0
CLASS
  1
AMGOBJPROPCFG
  2
AmgObjPropCfg
  3
"AmgLay|Product Description: AutoCAD Mechanical 2000|Company: Autodesk"
 90
        1
280
     0
281
     0
  0
CLASS
  1
ACMSURFSTANDARDANSI
  2
AcmSurfTextStdANSI
  3
"Amdt_StdImp|Product Description: AutoCAD Mechanical 2004 DX|Company: Autodesk"
 90
    32768
280
     0
281
     0
  0
CLASS
  1
ACMFCFSTANDARDANSI
  2
AcmFCFStdANSI
  3
"Amdt_StdImp|Product Description: AutoCAD Mechanical 2004 DX|Company: Autodesk"
 90
    32768
280
     0
281
     0
  0
CLASS
  1
ACMWELDSTANDARDANSI
  2
AcmWeldingStdANSI
  3
"Amdt_StdImp|Product Description: AutoCAD Mechanical 2004 DX|Company: Autodesk"
 90
    32768
280
     0
281
     0
  0
CLASS
  1
ACMIDSTANDARDANSI
  2
AcmIdStdANSI
  3
"Amdt_StdImp|Product Description: AutoCAD Mechanical 2004 DX|Company: Autodesk"
 90
    32768
280
     0
281
     0
  0
CLASS
  1
ACMDATUMSTANDARDANSI
  2
AcmDatumStdANSI
  3
"Amdt_StdImp|Product Description: AutoCAD Mechanical 2004 DX|Company: Autodesk"
 90
    32768
280
     0
281
     0
  0
CLASS
  1
ACMBOMSTANDARDANSI
  2
AcmBOMStdANSI
  3
"Amdt_StdImp|Product Description: AutoCAD Mechanical 2004 DX|Company: Autodesk"
 90
    32768
280
     0
281
     0
  0
CLASS
  1
ACMDETAILSTANDARDANSI
  2
AmdtDetailSymStdANSI
  3
"Amdt_StdImp|Product Description: AutoCAD Mechanical 2004 DX|Company: Autodesk"
 90
    32768
280
     0
281
     0
  0
CLASS
  1
ACMSECTIONSTANDARDANSI
  2
AmdtSectionSymStdANSI
  3
"Amdt_StdImp|Product Description: AutoCAD Mechanical 2004 DX|Company: Autodesk"
 90
    32768
280
     0
281
     0
  0
CLASS
  1
ACMCENTERLINESTANDARDANSI
  2
AmdtCenterLineStdANSI
  3
"Amdt_StdImp|Product Description: AutoCAD Mechanical 2004 DX|Company: Autodesk"
 90
    32768
280
     0
281
     0
  0
CLASS
  1
ACMNOTESTANDARDANSI
  2
AmdtNoteStdANSI
  3
"Amdt_StdImp|Product Description: AutoCAD Mechanical 2004 DX|Company: Autodesk"
 90
    32768
280
     0
281
     0
  0
CLASS
  1
ACAMGLAYSTD
  2
AcAmgLayStd
  3
"AcAmgLayStd|Product Description: AutoCAD Mechanical 2000|Company: Autodesk"
 90
        0
280
     0
281
     0
  0
CLASS
  1
ACAMGDIMSTD
  2
AcAmgDimStd
  3
"AcAmgDimStd|Product Description: AutoCAD Mechanical 2000|Company: Autodesk"
 90
        0
280
     0
281
     0
  0
CLASS
  1
ACAMGHOLECHARTSTDANSI
  2
AcAmgHoleChartStdANSI
  3
ACMSYMBB_MODULE_NAME
 90
    32768
280
     0
281
     0
  0
CLASS
  1
ACAMGTITLESTD
  2
AcAmgTitleStd
  3
"TITLEAPP"
 90
        0
280
     0
281
     0
  0
CLASS
  1
ACAMGFILTERDAT
  2
AcAmgFilterDat
  3
"AcadM|Product Description: AutoCAD Mechanical 2000|Company: Autodesk"
 90
    32768
280
     0
281
     0
  0
CLASS
  1
AMDTFORMULAUPDATEDISPATCHER
  2
AmdtFormulaUpdateDispatcher
  3
AcMeServices
 90
    32768
280
     0
281
     0
  0
CLASS
  1
LAYER_INDEX
  2
AcDbLayerIndex
  3
ObjectDBX Classes
 90
    32768
280
     0
281
     0
  0
CLASS
  1
IDBUFFER
  2
AcDbIdBuffer
  3
ObjectDBX Classes
 90
    32768
280
     0
281
     0
  0
CLASS
  1
DICTIONARYVAR
  2
AcDbDictionaryVar
  3
ObjectDBX Classes
 90
        0
280
     0
281
     0
  0
CLASS
  1
ACMSTANDARDISO
  2
AcmStandardISO
  3
"Amdt_StdImp|Product Description: AutoCAD Mechanical 2004 DX|Company: Autodesk"
 90
        0
280
     0
281
     0
  0
CLASS
  1
AMDTEDGESTANDARDISO
  2
AmdtEdgeStdISO
  3
"Amdt_StdImp|Product Description: AutoCAD Mechanical 2004 DX|Company: Autodesk"
 90
    32768
280
     0
281
     0
  0
CLASS
  1
ACMSURFSTANDARDISO
  2
AcmSurfTextStdISO
  3
"Amdt_StdImp|Product Description: AutoCAD Mechanical 2004 DX|Company: Autodesk"
 90
        0
280
     0
281
     0
  0
CLASS
  1
ACMFCFSTANDARDISO
  2
AcmFCFStdISO
  3
"Amdt_StdImp|Product Description: AutoCAD Mechanical 2004 DX|Company: Autodesk"
 90
        0
280
     0
281
     0
  0
CLASS
  1
ACMWELDSTANDARDISO
  2
AcmWeldingStdISO
  3
"Amdt_StdImp|Product Description: AutoCAD Mechanical 2004 DX|Company: Autodesk"
 90
        0
280
     0
281
     0
  0
CLASS
  1
ACMIDSTANDARDISO
  2
AcmIdStdISO
  3
"Amdt_StdImp|Product Description: AutoCAD Mechanical 2004 DX|Company: Autodesk"
 90
        0
280
     0
281
     0
  0
CLASS
  1
ACMDATUMSTANDARDISO
  2
AcmDatumStdISO
  3
"Amdt_StdImp|Product Description: AutoCAD Mechanical 2004 DX|Company: Autodesk"
 90
        0
280
     0
281
     0
  0
CLASS
  1
ACMBOMSTANDARDISO
  2
AcmBOMStdISO
  3
"Amdt_StdImp|Product Description: AutoCAD Mechanical 2004 DX|Company: Autodesk"
 90
        0
280
     0
281
     0
  0
CLASS
  1
ACMDETAILSTANDARDISO
  2
AmdtDetailSymStdISO
  3
"Amdt_StdImp|Product Description: AutoCAD Mechanical 2004 DX|Company: Autodesk"
 90
        0
280
     0
281
     0
  0
CLASS
  1
ACMSECTIONSTANDARDISO
  2
AmdtSectionSymStdISO
  3
"Amdt_StdImp|Product Description: AutoCAD Mechanical 2004 DX|Company: Autodesk"
 90
        0
280
     0
281
     0
  0
CLASS
  1
ACMCENTERLINESTANDARDISO
  2
AmdtCenterLineStdISO
  3
"Amdt_StdImp|Product Description: AutoCAD Mechanical 2004 DX|Company: Autodesk"
 90
        0
280
     0
281
     0
  0
CLASS
  1
ACMNOTESTANDARDISO
  2
AmdtNoteStdISO
  3
"Amdt_StdImp|Product Description: AutoCAD Mechanical 2004 DX|Company: Autodesk"
 90
        0
280
     0
281
     0
  0
CLASS
  1
ACAMGHOLECHARTSTDISO
  2
AcAmgHoleChartStdISO
  3
ACMSYMBB_MODULE_NAME
 90
        0
280
     0
281
     0
  0
CLASS
  1
AMDTNOTE
  2
AmdtNote
  3
"AcmSymBB|Product Description: AutoCAD Mechanical 2004 DX|Company: Autodesk"
 90
    33791
280
     0
281
     1
  0
CLASS
  1
STDPART2D
  2
AmgStdPart
  3
"AmgStdPart|Product Description: AutoCAD Mechanical 2000|Company: Autodesk"
 90
    33791
280
     0
281
     1
  0
CLASS
  1
TABLESTYLE
  2
AcDbTableStyle
  3
ObjectDBX Classes
 90
     2047
280
     0
281
     0
  0
CLASS
  1
AM_DRAWING_MGR
  2
AcDmDwgMgr
  3
AcMechDwgViewMgmt
 90
        0
280
     0
281
     0
  0
CLASS
  1
AM_DWG_DOCUMENT
  2
AcDmDwgDocument
  3
AcMechDwgViewMgmt
 90
        0
280
     0
281
     0
  0
CLASS
  1
AM_DWG_SHEET
  2
AcDmSheet
  3
AcMechDwgViewMgmt
 90
        0
280
     0
281
     0
  0
CLASS
  1
AM_VIEWDIMPARMAP
  2
AcDmViewDimParMap
  3
AcMechDwgViewMgmt
 90
        0
280
     0
281
     0
  0
CLASS
  1
AM_DWGMGR_NAME
  2
AcDmDwgMgrName
  3
AcMechDwgViewMgmt
 90
        0
280
     0
281
     0
  0
CLASS
  1
AMDTMENUSTATEMGR
  2
AmdtMenuStateMgr
  3
McadcomServices
 90
        0
280
     0
281
     0
  0
CLASS
  1
AMDTMCOMMENUSTATE
  2
AmdtMcomMenuState
  3
McadcomServices
 90
        0
280
     0
281
     0
  0
CLASS
  1
MAPIAMMOUDLE
  2
MApiAmModule
  3
MApiAmServices
 90
        0
280
     0
281
     0
  0
CLASS
  1
AMDTADMENUSTATE
  2
AmdtAdMenuState
  3
DesignerServices
 90
        0
280
     0
281
     0
  0
CLASS
  1
ADAPPL
  2
AcAdAppl
  3
DesignerServices
 90
        0
280
     0
281
     0
  0
CLASS
  1
DEPMGR
  2
AcAdDepMgr
  3
DesignerServices
 90
        0
280
     0
281
     0
  0
CLASS
  1
PARAMMGR
  2
AcAdParamMgr
  3
DesignerServices
 90
        0
280
     0
281
     0
  0
CLASS
  1
PARAMSCOPE
  2
AcAdParamScope
  3
DesignerServices
 90
        0
280
     0
281
     0
  0
CLASS
  1
NAMEDAPPL
  2
AcAdNamedAppl
  3
DesignerServices
 90
        0
280
     0
281
     0
  0
CLASS
  1
AMDTDMMENUSTATE
  2
AmdtDmMenuState
  3
AcMechDwgViewMgmt
 90
        0
280
     0
281
     0
  0
CLASS
  1
AMDTAMMENUSTATE
  2
AmdtAmMenuState
  3
DesignerAssemblies
 90
        0
280
     0
281
     0
  0
CLASS
  1
ACAMPROJECT
  2
AcAmProject
  3
DesignerAssemblies
 90
        0
280
     0
281
     0
  0
CLASS
  1
ACAMGRCOMPDEF
  2
AcAmGrCompDef
  3
DesignerAssemblies
 90
        0
280
     0
281
     0
  0
CLASS
  1
ACCMCONTEXT
  2
AcCmContext
  3
DesignerAssemblies
 90
        0
280
     0
281
     0
  0
CLASS
  1
ACAMCOMPDEF
  2
AcAmCompDef
  3
DesignerAssemblies
 90
        0
280
     0
281
     0
  0
CLASS
  1
ACAMCOMPDEFMGR
  2
AcAmCompDefMgr
  3
DesignerAssemblies
 90
        0
280
     0
281
     0
  0
CLASS
  1
AMCONTEXTMGR
  2
AcAmContextMgr
  3
DesignerAssemblies
 90
        0
280
     0
281
     0
  0
CLASS
  1
ACAMCONTEXTMODELER
  2
AcAmContextModeler
  3
DesignerAssemblies
 90
        0
280
     0
281
     0
  0
CLASS
  1
ACMTHREADLINESTANDARDISO
  2
AmdtThreadLineStdISO
  3
"Amdt_StdImp|Product Description: AutoCAD Mechanical 2004 DX|Company: Autodesk"
 90
        0
280
     0
281
     0
  0
CLASS
  1
ACMTHREADLINESTANDARDANSI
  2
AmdtThreadLineStdANSI
  3
"Amdt_StdImp|Product Description: AutoCAD Mechanical 2004 DX|Company: Autodesk"
 90
    32768
280
     0
281
     0
  0
CLASS
  1
CATALOGSTATE
  2
AcAmCatalogState
  3
DesignerAssemblies
 90
        0
280
     0
281
     0
  0
CLASS
  1
ACAMGRCOMPDEFSET
  2
AcAmGrCompDefSet
  3
DesignerAssemblies
 90
        0
280
     0
281
     0
  0
CLASS
  1
AMDTBROWSERDBTAB
  2
AmdtBrowserDbTab
  3
McadcomServices
 90
        0
280
     0
281
     0
  0
CLASS
  1
CBROWSERAPPOBJECT
  2
CBrowserAppObject
  3
McadcomServices
 90
        0
280
     0
281
     0
  0
CLASS
  1
DM_PLACEHOLDER
  2
AcDmSelsetPlaceholder
  3
AcMechDwgViewMgmt
 90
        0
280
     0
281
     0
  0
CLASS
  1
VAACXREFPANELOBJECT
  2
VaAcXREFPanelObject
  3
VAAC_ADDIN
 90
        0
280
     0
281
     0
  0
CLASS
  1
VAACIMAGEINVENTORY
  2
VaAcImageInventory
  3
VAAC_ADDIN
 90
        0
280
     0
281
     0
  0
CLASS
  1
SORTENTSTABLE
  2
AcDbSortentsTable
  3
ObjectDBX Classes
 90
    32768
280
     0
281
     0
  0
CLASS
  1
ACRFATTGENMGR
  2
AcRfAttGeneralMgr
  3
AcAttribServices
 90
        0
280
     0
281
     0
  0
CLASS
  1
AMDTEDGESTANDARDISO13715
  2
AmdtEdgeStdISO13715
  3
"Amdt_StdImp|Product Description: AutoCAD Mechanical 2004 DX|Company: Autodesk"
 90
        0
280
     0
281
     0
  0
CLASS
  1
AMDTNOTETEMPLATEDB
  2
AmdtNoteTemplateDB
  3
AMDT_STDIMP_MODULE_NAME
 90
        0
280
     0
281
     0
  0
ENDSEC
  0
SECTION
  2
TABLES
  0
TABLE
  2
VPORT
  5
8
330
0
100
AcDbSymbolTable
 70
     3
  0
VPORT
  5
6D03
330
8
100
AcDbSymbolTableRecord
100
AcDbViewportTableRecord
  2
*Active
 70
     0
 10
0.0
 20
0.0
 11
1.0
 21
1.0
 12
375.8823173622529
 22
433.9287198039878
 13
0.0
 23
0.0
 14
2.5
 24
2.5
 15
10.0
 25
10.0
 16
0.0
 26
0.0
 36
1.0
 17
0.0
 27
0.0
 37
0.0
 40
677.2414289397427
 41
1.81766917293233
 42
50.0
 43
0.0
 44
0.0
 50
0.0
 51
0.0
 71
     0
 72
   100
 73
     1
 74
     1
 75
     0
 76
     0
 77
     0
 78
     0
281
     0
 65
     1
110
0.0
120
0.0
130
0.0
111
1.0
121
0.0
131
0.0
112
0.0
122
1.0
132
0.0
 79
     0
146
0.0
  0
ENDTAB
  0
TABLE
  2
LTYPE
  5
5
330
0
100
AcDbSymbolTable
 70
    16
  0
LTYPE
  5
13
330
5
100
AcDbSymbolTableRecord
100
AcDbLinetypeTableRecord
  2
BYBLOCK
 70
     0
  3

 72
    65
 73
     0
 40
0.0
  0
LTYPE
  5
14
330
5
100
AcDbSymbolTableRecord
100
AcDbLinetypeTableRecord
  2
BYLAYER
 70
     0
  3

 72
    65
 73
     0
 40
0.0
  0
LTYPE
  5
15
330
5
100
AcDbSymbolTableRecord
100
AcDbLinetypeTableRecord
  2
CONTINUOUS
 70
     0
  3
Solid line
 72
    65
 73
     0
 40
0.0
  0
LTYPE
  5
23
330
5
100
AcDbSymbolTableRecord
100
AcDbLinetypeTableRecord
  2
HIDDEN
 70
     0
  3
_ _ _ _ _ _ _ _ _ _ _ _ _ _ _ _ _ _ _ _ _ _ _
 72
    65
 73
     2
 40
0.375
 49
0.25
 74
     0
 49
-0.125
 74
     0
  0
LTYPE
  5
24
330
5
100
AcDbSymbolTableRecord
100
AcDbLinetypeTableRecord
  2
CENTER
 70
     0
  3
____ _ ____ _ ____ _ ____ _ ____ _ ____ _ ____
 72
    65
 73
     4
 40
2.0
 49
1.25
 74
     0
 49
-0.25
 74
     0
 49
0.25
 74
     0
 49
-0.25
 74
     0
  0
LTYPE
  5
7CE
330
5
100
AcDbSymbolTableRecord
100
AcDbLinetypeTableRecord
  2
AMCONSTR
 70
     0
  3
_______________________
 72
    65
 73
     2
 40
9999.0
 49
9999.0
 74
     0
 49
0.0
 74
     0
  0
LTYPE
  5
7CF
330
5
100
AcDbSymbolTableRecord
100
AcDbLinetypeTableRecord
  2
AM_ISO08W050X2
 70
     0
  3
__ . __ . __ . __ . __ . __
 72
    65
 73
     4
 40
9.0
 49
6.0
 74
     0
 49
-0.75
 74
     0
 49
1.5
 74
     0
 49
-0.75
 74
     0
  0
LTYPE
  5
7D4
330
5
100
AcDbSymbolTableRecord
100
AcDbLinetypeTableRecord
  2
PHANTOM2
 70
     0
  3
Phantom (.5x) ___ _ _ ___ _ _ ___ _ _ ___ _ _
 72
    65
 73
     6
 40
1.25
 49
0.625
 74
     0
 49
-0.125
 74
     0
 49
0.125
 74
     0
 49
-0.125
 74
     0
 49
0.125
 74
     0
 49
-0.125
 74
     0
  0
LTYPE
  5
7E3
330
5
100
AcDbSymbolTableRecord
100
AcDbLinetypeTableRecord
  2
ACANSTGB
 70
     0
  3
__ . . __ . .
 72
    65
 73
     6
 40
0.35433070866
 49
0.15748031496
 74
     0
 49
-0.03937007874
 74
     0
 49
0.03937007874
 74
     0
 49
-0.03937007874
 74
     0
 49
0.03937007874
 74
     0
 49
-0.03937007874
 74
     0
  0
LTYPE
  5
7E4
330
5
100
AcDbSymbolTableRecord
100
AcDbLinetypeTableRecord
  2
ACANSTGL
 70
     0
  3
_ _ _ _ _
 72
    65
 73
     2
 40
0.11811023622
 49
0.07874015748
 74
     0
 49
-0.03937007874
 74
     0
  0
LTYPE
  5
C13
330
5
100
AcDbSymbolTableRecord
100
AcDbLinetypeTableRecord
  2
ACISOWELD
 70
     0
  3
_ _ _ _ _
 72
    65
 73
     2
 40
2.0
 49
2.0
 74
     0
 49
-1.0
 74
     0
  0
LTYPE
  5
C14
330
5
100
AcDbSymbolTableRecord
100
AcDbLinetypeTableRecord
  2
ACISOTGB
 70
     0
  3
__ . . __ . .
 72
    65
 73
     6
 40
9.0
 49
4.0
 74
     0
 49
-1.0
 74
     0
 49
1.0
 74
     0
 49
-1.0
 74
     0
 49
1.0
 74
     0
 49
-1.0
 74
     0
  0
LTYPE
  5
C15
330
5
100
AcDbSymbolTableRecord
100
AcDbLinetypeTableRecord
  2
ACISOTGL
 70
     0
  3
_ _ _ _ _
 72
    65
 73
     2
 40
3.0
 49
2.0
 74
     0
 49
-1.0
 74
     0
  0
LTYPE
  5
16FD
330
5
100
AcDbSymbolTableRecord
100
AcDbLinetypeTableRecord
  2
AM_ISO02W050
 70
     0
  3
__ __ __ __ __ __ __ __ __ __ __ __ __ __ __
 72
    65
 73
     2
 40
7.5
 49
6.0
 74
     0
 49
-1.5
 74
     0
  0
LTYPE
  5
16FE
330
5
100
AcDbSymbolTableRecord
100
AcDbLinetypeTableRecord
  2
AM_ISO08W050
 70
     0
  3
____ . ____ . ____ . ____ . ____ . ____ . ____
 72
    65
 73
     4
 40
18.0
 49
12.0
 74
     0
 49
-1.5
 74
     0
 49
3.0
 74
     0
 49
-1.5
 74
     0
  0
LTYPE
  5
16FF
330
5
100
AcDbSymbolTableRecord
100
AcDbLinetypeTableRecord
  2
AM_ISO09W050
 70
     0
  3
_____ . . _____ . . _____ . . ____ .. ____
 72
    65
 73
     6
 40
22.5
 49
12.0
 74
     0
 49
-1.5
 74
     0
 49
3.0
 74
     0
 49
-1.5
 74
     0
 49
3.0
 74
     0
 49
-1.5
 74
     0
  0
LTYPE
  5
1700
330
5
100
AcDbSymbolTableRecord
100
AcDbLinetypeTableRecord
  2
AM_ISO02W050x2
 70
     0
  3
 _ _ _ _ _ _ _ _ _ _ _ _
 72
    65
 73
     2
 40
3.75
 49
3.0
 74
     0
 49
-0.75
 74
     0
  0
LTYPE
  5
1701
330
5
100
AcDbSymbolTableRecord
100
AcDbLinetypeTableRecord
  2
Amzigzag
 70
     0
  3
/\/-/\/-/\/-/\/-/\/-/\/
 72
    65
 73
     2
 40
11.0001
 49
0.0001
 74
     4
 75
   135
340
7D2
 46
0.04
 50
0.0
 44
0.0
 45
0.0
 49
-11.0
 74
     0
  0
ENDTAB
  0
TABLE
  2
LAYER
  5
2
102
{ACAD_XDICTIONARY
360
6C50
102
}
330
0
100
AcDbSymbolTable
 70
     7
  0
LAYER
  5
10
330
2
100
AcDbSymbolTableRecord
100
AcDbLayerTableRecord
  2
0
 70
     0
 62
     7
  6
CONTINUOUS
370
    -3
390
B32
  0
LAYER
  5
26
330
2
100
AcDbSymbolTableRecord
100
AcDbLayerTableRecord
  2
DEFPOINTS
 70
     0
 62
     7
  6
CONTINUOUS
290
     0
370
    -3
390
B32
  0
LAYER
  5
516
330
2
100
AcDbSymbolTableRecord
100
AcDbLayerTableRecord
  2
ASHADE
 70
     0
 62
     7
  6
CONTINUOUS
370
    -3
390
B32
  0
LAYER
  5
7F7
330
2
100
AcDbSymbolTableRecord
100
AcDbLayerTableRecord
  2
LOGO
 70
     0
 62
     7
  6
CONTINUOUS
370
    -3
390
B32
  0
LAYER
  5
2E05
330
2
100
AcDbSymbolTableRecord
100
AcDbLayerTableRecord
  2
CENTER
 70
     0
 62
     1
  6
CENTER
370
    -3
390
B32
  0
LAYER
  5
62F0
330
2
100
AcDbSymbolTableRecord
100
AcDbLayerTableRecord
  2
UMCL2
 70
     0
 62
     5
  6
CONTINUOUS
370
    -3
390
B32
  0
LAYER
  5
62F1
330
2
100
AcDbSymbolTableRecord
100
AcDbLayerTableRecord
  2
UMCL1
 70
     0
 62
     7
  6
CONTINUOUS
370
    -3
390
B32
  0
ENDTAB
  0
TABLE
  2
STYLE
  5
3
330
0
100
AcDbSymbolTable
 70
    10
  0
STYLE
  5
11
330
3
100
AcDbSymbolTableRecord
100
AcDbTextStyleTableRecord
  2
STANDARD
 70
     0
 40
0.0
 41
1.0
 50
0.0
 71
     0
 42
3.5
  3
ISOCP.SHX
  4

  0
STYLE
  5
22
330
3
100
AcDbSymbolTableRecord
100
AcDbTextStyleTableRecord
  2
DAYUS
 70
     0
 40
0.0
 41
1.0
 50
0.0
 71
     0
 42
3.0
  3
simplex
  4
dayus
  0
STYLE
  5
27B
330
3
100
AcDbSymbolTableRecord
100
AcDbTextStyleTableRecord
  2
CHINESET
 70
     0
 40
0.0
 41
1.0
 50
0.0
 71
     0
 42
4.0
  3
simplex.shx
  4
chineset.shx
  0
STYLE
  5
7D2
330
3
100
AcDbSymbolTableRecord
100
AcDbTextStyleTableRecord
  2

 70
     1
 40
0.0
 41
1.0
 50
0.0
 71
     0
 42
4.0
  3
ltypeshp.shx
  4

  0
STYLE
  5
7D7
330
3
100
AcDbSymbolTableRecord
100
AcDbTextStyleTableRecord
  2
ACANSTS
 70
     0
 40
1.0
 41
1.0
 50
0.0
 71
     0
 42
4.0
  3
romans.shx
  4
chineset.shx
  0
STYLE
  5
7E2
330
3
100
AcDbSymbolTableRecord
100
AcDbTextStyleTableRecord
  2
ACANSGDT
 70
     0
 40
0.0
 41
1.0
 50
0.0
 71
     0
 42
4.0
  3
amgdtans.shx
  4

  0
STYLE
  5
C19
330
3
100
AcDbSymbolTableRecord
100
AcDbTextStyleTableRecord
  2
ACISOTS
 70
     0
 40
1.0
 41
1.0
 50
0.0
 71
     0
 42
2.5
  3
isocp.shx
  4
chineset.shx
  0
STYLE
  5
C1A
330
3
100
AcDbSymbolTableRecord
100
AcDbTextStyleTableRecord
  2
ACISOGDT
 70
     0
 40
0.0
 41
1.0
 50
0.0
 71
     0
 42
2.5
  3
amgdt.shx
  4

  0
STYLE
  5
62F3
330
3
100
AcDbSymbolTableRecord
100
AcDbTextStyleTableRecord
  2
ROMANSS
 70
     0
 40
0.0
 41
1.0
 50
0.0
 71
     0
 42
3.0
  3
ROMANSS.SHX
  4
LMP
  0
ENDTAB
  0
TABLE
  2
VIEW
  5
6
330
0
100
AcDbSymbolTable
 70
     0
  0
ENDTAB
  0
TABLE
  2
UCS
  5
7
330
0
100
AcDbSymbolTable
 70
     0
  0
ENDTAB
  0
TABLE
  2
APPID
  5
9
330
0
100
AcDbSymbolTable
 70
    29
  0
APPID
  5
12
330
9
100
AcDbSymbolTableRecord
100
AcDbRegAppTableRecord
  2
ACAD
 70
     0
  0
APPID
  5
514
330
9
100
AcDbSymbolTableRecord
100
AcDbRegAppTableRecord
  2
AVE_RENDER
 70
     0
  0
APPID
  5
515
330
9
100
AcDbSymbolTableRecord
100
AcDbRegAppTableRecord
  2
AVE_ENTITY_MATERIAL
 70
     0
  0
APPID
  5
522
330
9
100
AcDbSymbolTableRecord
100
AcDbRegAppTableRecord
  2
AVE_FINISH
 70
     0
  0
APPID
  5
523
330
9
100
AcDbSymbolTableRecord
100
AcDbRegAppTableRecord
  2
AVE_MATERIAL
 70
     0
  0
APPID
  5
524
330
9
100
AcDbSymbolTableRecord
100
AcDbRegAppTableRecord
  2
AVE_GLOBAL
 70
     0
  0
APPID
  5
7AD
330
9
100
AcDbSymbolTableRecord
100
AcDbRegAppTableRecord
  2
MCAD_NO_VIS
 70
     0
  0
APPID
  5
7AE
330
9
100
AcDbSymbolTableRecord
100
AcDbRegAppTableRecord
  2
ACAD_TEMP_GRAPHIC
 70
     0
  0
APPID
  5
7BF
330
9
100
AcDbSymbolTableRecord
100
AcDbRegAppTableRecord
  2
ACATTRIBSERVICES
 70
     0
  0
APPID
  5
C22
330
9
100
AcDbSymbolTableRecord
100
AcDbRegAppTableRecord
  2
GENIUS_GENODEF_13
 70
     0
  0
APPID
  5
C23
330
9
100
AcDbSymbolTableRecord
100
AcDbRegAppTableRecord
  2
GENIUS_GENOREF_13
 70
     0
  0
APPID
  5
C24
330
9
100
AcDbSymbolTableRecord
100
AcDbRegAppTableRecord
  2
GENIUS_GENOBJ-N-CEN_13
 70
     0
  0
APPID
  5
16D2
330
9
100
AcDbSymbolTableRecord
100
AcDbRegAppTableRecord
  2
GENIUS_GENDTOL_13
 70
     0
  0
APPID
  5
353F
330
9
100
AcDbSymbolTableRecord
100
AcDbRegAppTableRecord
  2
GENIUS_GENDIMSH_14
 70
     0
  0
APPID
  5
4D84
330
9
100
AcDbSymbolTableRecord
100
AcDbRegAppTableRecord
  2
GEVID1082602174
 70
     0
  0
APPID
  5
4D85
330
9
100
AcDbSymbolTableRecord
100
AcDbRegAppTableRecord
  2
GEVDC
 70
     0
  0
APPID
  5
4D88
330
9
100
AcDbSymbolTableRecord
100
AcDbRegAppTableRecord
  2
GENIUS_GENBH_13
 70
     0
  0
APPID
  5
4D8E
330
9
100
AcDbSymbolTableRecord
100
AcDbRegAppTableRecord
  2
GENIUS_GENOLIS_13
 70
     0
  0
APPID
  5
4D8F
330
9
100
AcDbSymbolTableRecord
100
AcDbRegAppTableRecord
  2
GENIUS_GENOENT_13
 70
     0
  0
APPID
  5
4D90
330
9
100
AcDbSymbolTableRecord
100
AcDbRegAppTableRecord
  2
GENIUS_GENOBJ-NBEHI-BHF_13
 70
     0
  0
APPID
  5
4D92
330
9
100
AcDbSymbolTableRecord
100
AcDbRegAppTableRecord
  2
GENIUS_GENOBJ-NBEHI-BHB_13
 70
     0
  0
APPID
  5
5F39
330
9
100
AcDbSymbolTableRecord
100
AcDbRegAppTableRecord
  2
GEVID1082701535
 70
     0
  0
APPID
  5
5F3B
330
9
100
AcDbSymbolTableRecord
100
AcDbRegAppTableRecord
  2
GEVRADREF
 70
     0
  0
APPID
  5
62C2
330
9
100
AcDbSymbolTableRecord
100
AcDbRegAppTableRecord
  2
AD_DRAW
 70
     0
  0
APPID
  5
62E0
330
9
100
AcDbSymbolTableRecord
100
AcDbRegAppTableRecord
  2
DESIGNERASSEMBLIES
 70
     0
  0
APPID
  5
62E6
330
9
100
AcDbSymbolTableRecord
100
AcDbRegAppTableRecord
  2
ACADM_DIM_EDIT
 70
     0
  0
APPID
  5
62E7
330
9
100
AcDbSymbolTableRecord
100
AcDbRegAppTableRecord
  2
AMDT_DM_ADJ
 70
     0
  0
APPID
  5
67CA
330
9
100
AcDbSymbolTableRecord
100
AcDbRegAppTableRecord
  2
GENIUS_GENREC_14
 70
     0
  0
APPID
  5
67CB
330
9
100
AcDbSymbolTableRecord
100
AcDbRegAppTableRecord
  2
GENIUS_GENOBJ-N-REC_13
 70
     0
  0
ENDTAB
  0
TABLE
  2
DIMSTYLE
  5
A
330
0
100
AcDbSymbolTable
 70
    15
100
AcDbDimStyleTable
 71
     1
340
C1B
  0
DIMSTYLE
105
7E8
330
A
100
AcDbSymbolTableRecord
100
AcDbDimStyleTableRecord
  2
AM_ANSI
 70
     0
  4
mm
 41
0.1
 42
0.05
 43
0.5
 44
0.1
 47
0.1
 48
0.1
 78
     7
140
0.12
141
0.0
146
0.71
147
0.06
176
   256
177
   256
178
     2
274
     4
284
     7
340
11
  0
DIMSTYLE
105
7E9
330
A
100
AcDbSymbolTableRecord
100
AcDbDimStyleTableRecord
  2
AM_ANSI$3
 70
     0
  4
mm
 41
0.1
 42
0.05
 43
0.5
 44
0.1
 47
0.1
 48
0.1
 78
     7
140
0.12
141
0.0
146
0.71
147
0.06
176
   256
177
   256
178
     2
274
     4
284
     7
288
     1
340
11
  0
DIMSTYLE
105
7EA
330
A
100
AcDbSymbolTableRecord
100
AcDbDimStyleTableRecord
  2
AM_ANSI$4
 70
     0
  4
mm
 41
0.1
 42
0.05
 43
0.5
 44
0.1
 47
0.1
 48
0.1
 78
     7
140
0.12
141
0.0
146
0.71
147
0.06
176
   256
177
   256
178
     2
274
     4
284
     7
288
     1
340
11
  0
DIMSTYLE
105
7EB
330
A
100
AcDbSymbolTableRecord
100
AcDbDimStyleTableRecord
  2
AM_ANSI$7
 70
     0
  4
mm
 41
0.1
 42
0.05
 43
0.5
 44
0.1
 47
0.1
 48
0.1
 78
     7
140
0.24
141
0.0
146
0.71
147
0.06
176
   256
177
   256
178
     2
274
     4
284
     7
340
11
  0
DIMSTYLE
105
7EC
330
A
100
AcDbSymbolTableRecord
100
AcDbDimStyleTableRecord
  2
AM_ANSI$SF
 70
     0
  4
mm
 41
0.1
 42
0.05
 43
0.5
 44
0.1
 47
0.1
 48
0.1
 75
     1
 76
     1
 78
     7
140
0.12
141
0.0
146
0.71
147
0.06
176
   256
177
   256
178
     2
274
     4
284
     7
340
11
  0
DIMSTYLE
105
7F1
330
A
100
AcDbSymbolTableRecord
100
AcDbDimStyleTableRecord
  2
AM_ANSI$SH
 70
     0
  4
mm
 41
0.1
 42
0.05
 43
0.5
 44
0.1
 47
0.1
 48
0.1
 75
     1
 76
     1
 78
     7
140
0.12
141
0.0
146
0.71
147
0.06
173
     1
176
   256
177
   256
178
     2
274
     4
284
     7
340
11
341
7ED
343
7ED
  0
DIMSTYLE
105
C1B
330
A
100
AcDbSymbolTableRecord
100
AcDbDimStyleTableRecord
  2
AM_ISO
 70
     0
  4
"
 41
2.0
 42
1.0
 43
5.0
 44
1.5
 47
0.1
 48
0.1
 73
     0
 74
     0
 77
     1
 78
     8
 79
     2
140
2.0
141
3.0
143
0.0393701
146
0.71
147
0.6
172
     1
176
   256
177
   256
178
   256
271
     2
272
     2
283
     0
284
     8
340
11
371
    -1
372
    -1
  0
DIMSTYLE
105
C1C
330
A
100
AcDbSymbolTableRecord
100
AcDbDimStyleTableRecord
  2
AM_ISO$3
 70
     0
  4
"
 41
2.0
 42
1.0
 43
5.0
 44
1.5
 47
0.1
 48
0.1
 73
     0
 77
     1
 78
     8
 79
     2
140
2.0
141
3.0
143
0.0393701
146
0.71
147
0.6
176
   256
177
   256
178
   256
271
     2
272
     2
283
     0
284
     8
288
     1
289
     0
340
11
371
    -1
372
    -1
  0
DIMSTYLE
105
C1D
330
A
100
AcDbSymbolTableRecord
100
AcDbDimStyleTableRecord
  2
AM_ISO$4
 70
     0
  4
"
 41
2.0
 42
1.0
 43
5.0
 44
1.5
 47
0.1
 48
0.1
 73
     0
 77
     1
 78
     8
 79
     2
140
2.0
141
3.0
143
0.0393701
146
0.71
147
0.6
176
   256
177
   256
178
   256
271
     2
272
     2
283
     0
284
     8
288
     1
289
     0
340
11
371
    -1
372
    -1
  0
DIMSTYLE
105
C1E
330
A
100
AcDbSymbolTableRecord
100
AcDbDimStyleTableRecord
  2
AM_ISO$6
 70
     0
  4
"
 41
2.0
 42
1.0
 43
5.0
 44
1.5
 47
0.1
 48
0.1
 73
     0
 74
     0
 78
     8
 79
     2
140
2.0
141
3.0
143
0.0393701
146
0.71
147
0.6
172
     1
176
   256
177
   256
178
   256
271
     2
272
     2
283
     0
284
     8
340
11
371
    -1
372
    -1
  0
DIMSTYLE
105
C1F
330
A
100
AcDbSymbolTableRecord
100
AcDbDimStyleTableRecord
  2
AM_ISO$7
 70
     0
  4
"
 41
2.0
 42
1.0
 43
5.0
 44
1.5
 47
0.1
 48
0.1
 73
     0
 74
     0
 77
     1
 78
     8
 79
     2
140
5.0
141
3.0
143
0.0393701
146
0.71
147
0.6
172
     1
176
   256
177
   256
178
   256
271
     2
272
     2
283
     0
284
     8
340
11
371
    -1
372
    -1
  0
DIMSTYLE
105
C20
330
A
100
AcDbSymbolTableRecord
100
AcDbDimStyleTableRecord
  2
AM_ISO$SF
 70
     0
  4
"
 41
2.5
 42
1.0
 43
10.0
 44
1.0
 47
0.1
 48
0.1
 73
     0
 74
     0
 75
     1
 76
     1
 77
     1
 78
     8
 79
     2
140
3.5
141
0.0
143
0.0393701
146
0.71
147
1.5
172
     1
176
   256
177
   256
178
     2
271
     2
272
     3
274
     4
283
     0
284
     8
340
11
371
    -1
372
    -1
  0
DIMSTYLE
105
C21
330
A
100
AcDbSymbolTableRecord
100
AcDbDimStyleTableRecord
  2
AM_ISO$SH
 70
     0
  4
"
 41
2.5
 42
1.0
 43
10.0
 44
1.0
 47
0.1
 48
0.1
 73
     0
 74
     0
 75
     1
 76
     1
 77
     1
 78
     8
 79
     2
140
3.5
141
0.0
143
0.0393701
144
2.0
146
0.71
147
1.5
172
     1
173
     1
176
   256
177
   256
178
     2
271
     2
272
     3
274
     4
283
     0
284
     8
340
11
341
7ED
343
7ED
371
    -1
372
    -1
  0
DIMSTYLE
105
62F4
330
A
100
AcDbSymbolTableRecord
100
AcDbDimStyleTableRecord
  2
Standard
 70
     0
340
11
  0
ENDTAB
  0
TABLE
  2
BLOCK_RECORD
  5
1
330
0
100
AcDbSymbolTable
 70
     5
  0
BLOCK_RECORD
  5
1E
102
{ACAD_XDICTIONARY
360
708
102
}
330
1
100
AcDbSymbolTableRecord
100
AcDbBlockTableRecord
  2
*MODEL_SPACE
340
B33
  0
BLOCK_RECORD
  5
1A
102
{ACAD_XDICTIONARY
360
70A
102
}
330
1
100
AcDbSymbolTableRecord
100
AcDbBlockTableRecord
  2
*PAPER_SPACE
340
B34
  0
BLOCK_RECORD
  5
517
330
1
100
AcDbSymbolTableRecord
100
AcDbBlockTableRecord
  2
AVE_RENDER
340
0
102
{BLKREFS
331
51A
331
51B
331
51C
331
51D
331
51E
331
51F
331
520
331
521
102
}
  0
BLOCK_RECORD
  5
525
330
1
100
AcDbSymbolTableRecord
100
AcDbBlockTableRecord
  2
AVE_GLOBAL
340
0
102
{BLKREFS
331
528
102
}
  0
BLOCK_RECORD
  5
7ED
330
1
100
AcDbSymbolTableRecord
100
AcDbBlockTableRecord
  2
GENAXEH
340
0
  0
ENDTAB
  0
ENDSEC
  0
SECTION
  2
BLOCKS
  0
BLOCK
  5
29
330
1E
100
AcDbEntity
  8
0
100
AcDbBlockBegin
  2
*MODEL_SPACE
 70
     0
 10
0.0
 20
0.0
 30
0.0
  3
*MODEL_SPACE
  1

  0
ENDBLK
  5
2A
330
1E
100
AcDbEntity
  8
0
100
AcDbBlockEnd
  0
BLOCK
  5
27
330
1A
100
AcDbEntity
 67
     1
  8
0
100
AcDbBlockBegin
  2
*PAPER_SPACE
 70
     0
 10
0.0
 20
0.0
 30
0.0
  3
*PAPER_SPACE
  1

  0
ENDBLK
  5
28
330
1A
100
AcDbEntity
 67
     1
  8
0
100
AcDbBlockEnd
  0
BLOCK
  5
518
330
517
100
AcDbEntity
  8
0
100
AcDbBlockBegin
  2
AVE_RENDER
 70
     0
 10
0.0
 20
0.0
 30
0.0
  3
AVE_RENDER
  1
AVE_RENDER
  0
ENDBLK
  5
519
330
517
100
AcDbEntity
  8
0
100
AcDbBlockEnd
  0
BLOCK
  5
526
330
525
100
AcDbEntity
  8
0
100
AcDbBlockBegin
  2
AVE_GLOBAL
 70
     0
 10
0.0
 20
0.0
 30
0.0
  3
AVE_GLOBAL
  1
AVE_GLOBAL
  0
ENDBLK
  5
527
330
525
100
AcDbEntity
  8
0
100
AcDbBlockEnd
  0
BLOCK
  5
7EF
330
7ED
100
AcDbEntity
  8
0
100
AcDbBlockBegin
  2
GENAXEH
 70
     0
 10
0.0
 20
0.0
 30
0.0
  3
GENAXEH
  1

  0
LINE
  5
7EE
330
7ED
100
AcDbEntity
  8
0
100
AcDbLine
 10
-1.0
 20
0.0
 30
0.0
 11
1.0
 21
0.0
 31
0.0
  0
ENDBLK
  5
7F0
330
7ED
100
AcDbEntity
  8
0
100
AcDbBlockEnd
  0
ENDSEC
  0
SECTION
  2
ENTITIES
  0
INSERT
  5
51A
330
1E
100
AcDbEntity
  8
ASHADE
 62
     1
100
AcDbBlockReference
  2
AVE_RENDER
 10
0.0
 20
0.0
 30
0.0
1001
AVE_RENDER
1002
{
1070
     7
1000
Pref
1070
    30
1070
    20
1070
     1
1070
     0
1000

1070
    10
1070
     1
1070
    10
1040
1.0
1070
     1
1040
0.3
1040
0.7
1040
0.0
1040
10.0
1010
-1.0
1020
-1.0
1030
-1.0
1040
0.3
1070
    49
1070
     0
1070
     0
1010
1.0
1020
1.0
1030
1.0
1040
45.0
1070
     1
1070
     0
1000
WCS
1040
0.0
1070
     0
1040
10.0
1002
}
  0
INSERT
  5
51B
330
1E
100
AcDbEntity
  8
ASHADE
 62
     3
100
AcDbBlockReference
  2
AVE_RENDER
 10
0.0
 20
0.0
 30
0.0
1001
AVE_RENDER
1002
{
1070
     0
1000
Full Opt
1070
     0
1070
     1
1070
     1
1070
     1
1070
     0
1070
     0
1070
     0
1070
     1
1070
     1
1040
0.0001
1040
0.0001
1002
}
  0
INSERT
  5
51C
330
1E
100
AcDbEntity
  8
ASHADE
 62
     4
100
AcDbBlockReference
  2
AVE_RENDER
 10
0.0
 20
0.0
 30
0.0
1001
AVE_RENDER
1002
{
1070
     0
1000
Quick Opt
1070
     0
1070
     1
1070
     1
1070
     1
1070
     0
1070
     0
1070
     1
1002
}
  0
INSERT
  5
51D
330
1E
100
AcDbEntity
  8
ASHADE
 62
     5
100
AcDbBlockReference
  2
AVE_RENDER
 10
0.0
 20
0.0
 30
0.0
1001
AVE_RENDER
1002
{
1070
     1
1000
Scanl Opt
1070
     2
1070
     0
1070
     2
1040
2.0
1040
4.0
1070
     0
1070
     1
1070
     0
1040
0.03
1002
}
  0
INSERT
  5
51E
330
1E
100
AcDbEntity
  8
ASHADE
 62
     6
100
AcDbBlockReference
  2
AVE_RENDER
 10
0.0
 20
0.0
 30
0.0
1001
AVE_RENDER
1002
{
1070
     2
1000
Raytr Opt
1070
     2
1070
     0
1070
     2
1040
2.0
1040
4.0
1070
     0
1070
     1
1070
     1
1040
0.03
1070
     3
1040
0.03
1002
}
  0
INSERT
  5
51F
330
1E
100
AcDbEntity
  8
ASHADE
 62
     7
100
AcDbBlockReference
  2
AVE_RENDER
 10
0.0
 20
0.0
 30
0.0
1001
AVE_RENDER
1002
{
1070
     0
1000
RFile Opt
1070
     1
1070
   640
1070
   480
1070
 10000
1070
     1
1070
     8
1070
     8
1070
     0
1070
     0
1070
     0
1070
     0
1070
     0
1070
     0
1070
     0
1002
}
  0
INSERT
  5
520
330
1E
100
AcDbEntity
  8
ASHADE
 62
     8
100
AcDbBlockReference
  2
AVE_RENDER
 10
0.0
 20
0.0
 30
0.0
1001
AVE_RENDER
1002
{
1070
     0
1000
Fog Opt
1070
     0
1070
     0
1040
0.0
1040
1.0
1040
0.0
1040
1.0
1010
0.5
1020
0.5
1030
0.5
1002
}
  0
INSERT
  5
521
330
1E
100
AcDbEntity
  8
ASHADE
 62
     9
100
AcDbBlockReference
  2
AVE_RENDER
 10
0.0
 20
0.0
 30
0.0
1001
AVE_RENDER
1002
{
1070
     0
1000
BG Opt
1070
     0
1070
     1
1010
0.0
1020
0.0
1030
0.0
1010
1.0
1020
0.0
1030
0.0
1010
0.0
1020
1.0
1030
0.0
1010
0.0
1020
0.0
1030
1.0
1040
0.5
1040
0.33
1040
0.0
1000

1070
     1
1000

1070
     1
1070
     1
1040
1.0
1040
1.0
1040
0.0
1040
0.0
1070
     0
1002
}
  0
INSERT
  5
528
330
1E
100
AcDbEntity
  8
ASHADE
 62
     1
100
AcDbBlockReference
  2
AVE_GLOBAL
 10
0.0
 20
0.0
 30
0.0
1001
AVE_MATERIAL
1002
{
1000
*整體*
1000
2
1000
整體修飾.
1002
{
1002
}
1002
{
1070
    63
1002
{
1002
{
1010
-1.0
1020
-1.0
1030
-1.0
1002
}
1040
0.1000000014901161
1000

1040
0.0
1002
{
1002
}
1040
0.0
1002
{
1002
}
1040
0.0
1002
}
1002
{
1002
{
1010
-1.0
1020
-1.0
1030
-1.0
1002
}
1040
0.6999999880790711
1000

1040
0.0
1002
{
1002
}
1040
0.0
1002
{
1002
}
1040
0.0
1002
}
1002
{
1002
{
1010
-1.0
1020
-1.0
1030
-1.0
1002
}
1040
0.2000000029802322
1000

1040
0.0
1002
{
1002
}
1040
0.0
1002
{
1002
}
1040
0.0
1002
}
1002
{
1070
     0
1002
{
1070
     1
1002
{
1040
1.0
1040
1.0
1000

1040
0.0
1002
{
1002
}
1040
0.0
1002
{
1002
}
1040
0.0
1002
}
1002
}
1040
1.0
1040
0.0
1040
0.0
1002
}
1002
{
1040
1.0
1040
1.0
1000

1040
0.0
1002
{
1002
}
1040
0.0
1002
{
1002
}
1040
0.0
1002
}
1002
{
1040
0.5
1040
1.0
1000

1040
0.0
1002
{
1002
}
1040
0.0
1002
{
1002
}
1040
0.0
1002
}
1002
{
1070
     0
1040
0.0
1002
{
1002
}
1040
1.0
1002
{
1002
}
1040
0.0
1002
}
1002
{
1040
0.0
1002
{
1002
{
1010
0.0
1020
0.0
1030
0.0
1002
}
1040
1.0
1000

1040
0.0
1002
{
1002
}
1040
0.0
1002
{
1002
}
1040
0.0
1002
}
1002
}
1002
{
1002
{
1070
     1
1002
{
1040
0.0
1040
1.0
1000

1040
0.0
1002
{
1002
}
1040
0.0
1002
{
1002
}
1040
0.0
1002
}
1002
}
1040
0.0
1002
{
1002
}
1010
1.0
1020
0.0
1030
0.0
1010
0.0
1020
1.0
1030
0.0
1010
0.0
1020
0.0
1030
1.0
1070
     0
1002
}
1002
{
1002
{
1040
1.0
1040
1.0
1002
{
1070
     1
1002
{
1040
1.0
1040
1.0
1000

1040
0.0
1002
{
1002
}
1040
0.0
1002
{
1002
}
1040
0.0
1002
}
1002
}
1002
}
1070
     0
1040
0.0
1002
{
1002
}
1002
}
1002
{
1002
}
1002
}
1002
{
1071
        3
1070
     3
1070
     0
1002
{
1070
     2
1070
     0
1070
     0
1040
0.0
1002
}
1070
     0
1070
     2
1002
{
1002
}
1002
}
1002
{
1040
8030.0
1040
190.3000030517578
1040
0.3050000071525574
1040
228.0
1040
545.0
1040
14.0
1040
17.39999961853027
1040
0.4560000002384186
1002
}
1002
}
  0
TEXT
  5
2F4E
330
1E
100
AcDbEntity
  8
LOGO
 62
     7
100
AcDbText
 10
160.7237045369927
 20
184.0502369858993
 30
0.0
 40
20.12611764705882
  1
Order example:
 41
0.8
  7
CHINESET
100
AcDbText
  0
TEXT
  5
2F4F
330
1E
100
AcDbEntity
  8
LOGO
 62
     7
100
AcDbText
 10
164.3344964790949
 20
212.3836434671267
 30
0.0
 40
30.18917647058824
  1
訂購代號:
  7
CHINESET
100
AcDbText
  0
LINE
  5
2F50
330
1E
100
AcDbEntity
  8
LOGO
 62
     1
100
AcDbLine
 10
931.8658969790085
 20
250.1770594810504
 30
0.0
 11
-180.1021030209936
 21
250.1770594810504
 31
0.0
  0
LINE
  5
2F51
330
1E
100
AcDbEntity
  8
LOGO
 62
     1
100
AcDbLine
 10
931.8658969790085
 20
99.23117712810899
 30
0.0
 11
-180.1021030209936
 21
99.23117712810899
 31
0.0
  0
LINE
  5
2F62
330
1E
100
AcDbEntity
  8
0
 62
     4
100
AcDbLine
 10
931.8658969790071
 20
250.1770594810504
 30
0.0
 11
-180.1021030209922
 21
250.1770594810504
 31
0.0
  0
LINE
  5
2F64
330
1E
100
AcDbEntity
  8
LOGO
 62
     1
100
AcDbLine
 10
151.9788381554776
 20
99.23117712810899
 30
0.0
 11
151.9788381554776
 21
250.1770594810504
 31
0.0
  0
LINE
  5
2F65
330
1E
100
AcDbEntity
  8
LOGO
 62
     1
100
AcDbLine
 10
-180.1021030209936
 20
99.23117712810899
 30
0.0
 11
-180.1021030209936
 21
250.1770594810504
 31
0.0
  0
TEXT
  5
2F66
330
1E
100
AcDbEntity
  8
LOGO
  6
Continuous
 62
     5
100
AcDbText
 10
-139.1886652440387
 20
128.8842679191459
 30
0.0
 40
22.64188235294118
  1
金器工業股份有限公司
  7
CHINESET
100
AcDbText
  0
TEXT
  5
2F67
330
1E
100
AcDbEntity
  8
LOGO
  6
Continuous
 62
     5
100
AcDbText
 10
-168.6781199552026
 20
106.237949532456
 30
0.0
 40
15.09458823529412
  1
MINDMAN INDUSTRIAL CO.,LTD
 41
0.85
  7
CHINESET
100
AcDbText
  0
LINE
  5
2F68
330
1E
100
AcDbEntity
  8
LOGO
 62
     1
100
AcDbLine
 10
151.9788381554776
 20
219.9878830104627
 30
0.0
 11
-69.408455962169
 21
219.9878830104627
 31
0.0
  0
LINE
  5
2F69
330
1E
100
AcDbEntity
  8
LOGO
 62
     1
100
AcDbLine
 10
151.9788381554776
 20
189.7987065398736
 30
0.0
 11
-69.408455962169
 21
189.7987065398736
 31
0.0
  0
LINE
  5
2F6A
330
1E
100
AcDbEntity
  8
LOGO
 62
     1
100
AcDbLine
 10
151.9788381554776
 20
159.6095300692858
 30
0.0
 11
-180.1021030209936
 21
159.6095300692858
 31
0.0
  0
SOLID
  5
2F6B
330
1E
100
AcDbEntity
  8
LOGO
 62
     5
100
AcDbTrace
 10
-164.4412254771587
 20
184.7021344650156
 30
0.0
 11
-157.9147216062133
 21
184.702134465013
 31
0.0
 12
-130.6834468343331
 22
246.5913953101936
 32
0.0
 13
-124.1569429633882
 23
246.5913953101885
 33
0.0
  0
SOLID
  5
2F6C
330
1E
100
AcDbEntity
  8
LOGO
 62
     5
100
AcDbTrace
 10
-155.2140993147827
 20
184.7021344650156
 30
0.0
 11
-148.6875954438387
 21
184.7021344650156
 31
0.0
 12
-124.1569429633882
 22
241.6402544425765
 32
0.0
 13
-130.6834468343331
 23
217.7097402491067
 33
0.0
  0
SOLID
  5
2F6D
330
1E
100
AcDbEntity
  8
LOGO
 62
     2
100
AcDbTrace
 10
-157.9147216062133
 20
184.702134465013
 30
0.0
 11
-155.2140993147827
 21
184.7021344650156
 31
0.0
 12
-124.1569429633882
 22
246.5913953101885
 32
0.0
 13
-121.4563206719601
 23
246.5913953101885
 33
0.0
  0
SOLID
  5
2F6E
330
1E
100
AcDbEntity
  8
LOGO
 62
     5
100
AcDbTrace
 10
-174.9048116770834
 20
162.1969487031351
 30
0.0
 11
-172.6542931008916
 21
162.1969487031351
 31
0.0
 12
-166.316657623981
 22
173.4495415840736
 32
0.0
 13
-164.0661390477937
 23
173.4495415840736
 33
0.0
  0
SOLID
  5
2F6F
330
1E
100
AcDbEntity
  8
LOGO
 62
     5
100
AcDbTrace
 10
-166.316657623981
 20
173.4495415840736
 30
0.0
 11
-164.0661390477937
 21
173.4495415840736
 31
0.0
 12
-166.316657623981
 22
162.1969487031351
 32
0.0
 13
-164.0661390477937
 23
162.1969487031351
 33
0.0
  0
SOLID
  5
2F70
330
1E
100
AcDbEntity
  8
LOGO
 62
     5
100
AcDbTrace
 10
-166.316657623981
 20
162.1969487031351
 30
0.0
 11
-164.0661390477937
 21
162.1969487031351
 31
0.0
 12
-157.7285035708746
 22
173.4495415840736
 32
0.0
 13
-155.477984994689
 23
173.4495415840736
 33
0.0
  0
SOLID
  5
2F71
330
1E
100
AcDbEntity
  8
LOGO
 62
     5
100
AcDbTrace
 10
-157.7285035708746
 20
173.4495415840736
 30
0.0
 11
-155.477984994689
 21
173.4495415840736
 31
0.0
 12
-157.7285035708746
 22
162.1969487031351
 32
0.0
 13
-155.477984994689
 23
162.1969487031351
 33
0.0
  0
POLYLINE
  5
2F72
330
1E
100
AcDbEntity
  8
LOGO
 62
     5
100
AcDb2dPolyline
 66
     1
 10
0.0
 20
0.0
 30
0.0
 40
2.254125176470588
 41
2.254125176470588
  0
VERTEX
  5
2F73
330
2F72
100
AcDbEntity
  8
LOGO
 62
     5
100
AcDbVertex
100
AcDb2dVertex
 10
-82.29188754586084
 20
168.9485044316972
 30
0.0
 42
1.0
  0
VERTEX
  5
2F74
330
2F72
100
AcDbEntity
  8
LOGO
 62
     5
100
AcDbVertex
100
AcDb2dVertex
 10
-89.05426307527386
 20
168.9485044316972
 30
0.0
 42
1.0
  0
SEQEND
  5
2F75
330
2F72
100
AcDbEntity
  8
LOGO
 62
     5
  0
POLYLINE
  5
2F76
330
1E
100
AcDbEntity
  8
LOGO
 62
     5
100
AcDb2dPolyline
 66
     1
 10
0.0
 20
0.0
 30
0.0
 70
     1
  0
VERTEX
  5
2F77
330
2F76
100
AcDbEntity
  8
LOGO
 62
     5
100
AcDbVertex
100
AcDb2dVertex
 10
-101.8016417386811
 20
167.8232451436037
 30
0.0
 42
1.000000057330635
  0
VERTEX
  5
2F78
330
2F76
100
AcDbEntity
  8
LOGO
 62
     5
100
AcDbVertex
100
AcDb2dVertex
 10
-95.05008601011514
 20
167.8232451436037
 30
0.0
 42
1.000000057330635
  0
SEQEND
  5
2F79
330
2F76
100
AcDbEntity
  8
LOGO
 62
     5
  0
CIRCLE
  5
2F7A
330
1E
100
AcDbEntity
  8
LOGO
 62
     5
100
AcDbCircle
 10
-98.42586387439702
 20
167.8232451436037
 30
0.0
 40
3.375777864282353
  0
POLYLINE
  5
2F7B
330
1E
100
AcDbEntity
  8
LOGO
 62
     5
100
AcDb2dPolyline
 66
     1
 10
0.0
 20
0.0
 30
0.0
 70
     1
 40
2.254125176470588
 41
2.254125176470588
  0
VERTEX
  5
2F7C
330
2F7B
100
AcDbEntity
  8
LOGO
 62
     5
100
AcDbVertex
100
AcDb2dVertex
 10
-102.9341142273392
 20
167.8232451436037
 30
0.0
 42
1.0
  0
VERTEX
  5
2F7D
330
2F7B
100
AcDbEntity
  8
LOGO
 62
     5
100
AcDbVertex
100
AcDb2dVertex
 10
-93.91761352145705
 20
167.8232451436037
 30
0.0
 42
1.0
  0
SEQEND
  5
2F7E
330
2F7B
100
AcDbEntity
  8
LOGO
 62
     5
  0
LINE
  5
2F7F
330
1E
100
AcDbEntity
  8
LOGO
 62
     5
100
AcDbLine
 10
-81.17203815819175
 20
162.1969487031351
 30
0.0
 11
-81.17203815819175
 21
168.9485044316972
 31
0.0
  0
SOLID
  5
2F80
330
1E
100
AcDbEntity
  8
LOGO
 62
     5
100
AcDbTrace
 10
-95.05031106196794
 20
173.4495415840736
 30
0.0
 11
-92.79979248578205
 21
173.4495415840736
 31
0.0
 12
-95.05031106196794
 22
162.1969487031351
 32
0.0
 13
-92.79979248578205
 23
162.1969487031351
 33
0.0
  0
SOLID
  5
2F81
330
1E
100
AcDbEntity
  8
LOGO
 62
     5
100
AcDbTrace
 10
-90.17411246294637
 20
162.1969487031351
 30
0.0
 11
-87.92359388675526
 21
162.1969487031351
 31
0.0
 12
-90.17411246294637
 22
173.4495415840736
 32
0.0
 13
-87.92359388675526
 23
173.4495415840736
 33
0.0
  0
SOLID
  5
2F82
330
1E
100
AcDbEntity
  8
LOGO
 62
     5
100
AcDbTrace
 10
-83.42255673437898
 20
168.9485044316972
 30
0.0
 11
-81.17203815819175
 21
168.9485044316972
 31
0.0
 12
-83.42255673437898
 22
162.1969487031351
 32
0.0
 13
-81.17203815819175
 23
162.1969487031351
 33
0.0
  0
LINE
  5
2F83
330
1E
100
AcDbEntity
  8
LOGO
 62
     1
100
AcDbLine
 10
-69.408455962169
 20
159.6095300692858
 30
0.0
 11
-69.408455962169
 21
250.1770594810504
 31
0.0
  0
SOLID
  5
2F84
330
1E
100
AcDbEntity
  8
LOGO
 62
     5
100
AcDbTrace
 10
-90.3991643205652
 20
241.6402544425765
 30
0.0
 11
-96.92566819151057
 21
217.7097402491067
 31
0.0
 12
-90.3991643205652
 22
184.702134465013
 32
0.0
 13
-96.92566819151057
 23
184.702134465013
 33
0.0
  0
SOLID
  5
2F85
330
1E
100
AcDbEntity
  8
LOGO
 62
     5
100
AcDbTrace
 10
-87.69854202913711
 20
184.702134465013
 30
0.0
 11
-81.17203815819175
 21
184.702134465013
 31
0.0
 12
-87.69854202913711
 22
246.5913953101885
 32
0.0
 13
-81.17203815819175
 23
246.5913953101936
 33
0.0
  0
SOLID
  5
2F86
330
1E
100
AcDbEntity
  8
LOGO
 62
     2
100
AcDbTrace
 10
-90.3991643205652
 20
246.5913953101936
 30
0.0
 11
-87.69854202913711
 21
246.5913953101885
 31
0.0
 12
-90.3991643205652
 22
184.702134465013
 32
0.0
 13
-87.69854202913711
 23
184.702134465013
 33
0.0
  0
POLYLINE
  5
2F87
330
1E
100
AcDbEntity
  8
LOGO
 62
     5
100
AcDb2dPolyline
 66
     1
 10
0.0
 20
0.0
 30
0.0
 40
2.254125176470588
 41
2.254125176470588
  0
VERTEX
  5
2F88
330
2F87
100
AcDbEntity
  8
LOGO
 62
     5
100
AcDbVertex
100
AcDb2dVertex
 10
-114.5494705057983
 20
168.9485044316972
 30
0.0
 42
1.0
  0
VERTEX
  5
2F89
330
2F87
100
AcDbEntity
  8
LOGO
 62
     5
100
AcDbVertex
100
AcDb2dVertex
 10
-121.3118460352111
 20
168.9485044316972
 30
0.0
 42
1.0
  0
SEQEND
  5
2F8A
330
2F87
100
AcDbEntity
  8
LOGO
 62
     5
  0
POLYLINE
  5
2F8B
330
1E
100
AcDbEntity
  8
LOGO
 62
     5
100
AcDb2dPolyline
 66
     1
 10
0.0
 20
0.0
 30
0.0
 40
2.254125176470588
 41
2.254125176470588
  0
VERTEX
  5
2F8C
330
2F8B
100
AcDbEntity
  8
LOGO
 62
     5
100
AcDbVertex
100
AcDb2dVertex
 10
-107.7979147772348
 20
168.9485044316972
 30
0.0
 42
1.0
  0
VERTEX
  5
2F8D
330
2F8B
100
AcDbEntity
  8
LOGO
 62
     5
100
AcDbVertex
100
AcDb2dVertex
 10
-114.5602903066483
 20
168.9485044316972
 30
0.0
 42
1.0
  0
SEQEND
  5
2F8E
330
2F8B
100
AcDbEntity
  8
LOGO
 62
     5
  0
POLYLINE
  5
2F8F
330
1E
100
AcDbEntity
  8
LOGO
 62
     5
100
AcDb2dPolyline
 66
     1
 10
0.0
 20
0.0
 30
0.0
 40
2.254125176470588
 41
2.254125176470588
  0
VERTEX
  5
2F90
330
2F8F
100
AcDbEntity
  8
LOGO
 62
     5
100
AcDbVertex
100
AcDb2dVertex
 10
-140.0554977371714
 20
168.9485044316972
 30
0.0
 42
1.0
  0
VERTEX
  5
2F91
330
2F8F
100
AcDbEntity
  8
LOGO
 62
     5
100
AcDbVertex
100
AcDb2dVertex
 10
-146.8178732665831
 20
168.9485044316972
 30
0.0
 42
1.0
  0
SEQEND
  5
2F92
330
2F8F
100
AcDbEntity
  8
LOGO
 62
     5
  0
SOLID
  5
2F93
330
1E
100
AcDbEntity
  8
LOGO
 62
     5
100
AcDbTrace
 10
-147.9377226542515
 20
173.4495415840736
 30
0.0
 11
-145.6872040780663
 21
173.4495415840736
 31
0.0
 12
-147.9377226542515
 22
162.1969487031351
 32
0.0
 13
-145.6872040780663
 23
162.1969487031351
 33
0.0
  0
SOLID
  5
2F94
330
1E
100
AcDbEntity
  8
LOGO
 62
     5
100
AcDbTrace
 10
-141.1861669256886
 20
168.9485044316972
 30
0.0
 11
-138.9356483494989
 21
168.9485044316972
 31
0.0
 12
-141.1861669256886
 22
162.1969487031351
 32
0.0
 13
-138.9356483494989
 23
162.1969487031351
 33
0.0
  0
POLYLINE
  5
2F95
330
1E
100
AcDbEntity
  8
LOGO
 62
     5
100
AcDb2dPolyline
 66
     1
 10
0.0
 20
0.0
 30
0.0
 70
     1
 40
2.254125176470588
 41
2.254125176470588
  0
VERTEX
  5
2F96
330
2F95
100
AcDbEntity
  8
LOGO
 62
     5
100
AcDbVertex
100
AcDb2dVertex
 10
-135.191697187277
 20
167.8232451436037
 30
0.0
 42
1.0
  0
VERTEX
  5
2F97
330
2F95
100
AcDbEntity
  8
LOGO
 62
     5
100
AcDbVertex
100
AcDb2dVertex
 10
-126.1751964813948
 20
167.8232451436037
 30
0.0
 42
1.0
  0
SEQEND
  5
2F98
330
2F95
100
AcDbEntity
  8
LOGO
 62
     5
  0
SOLID
  5
2F99
330
1E
100
AcDbEntity
  8
LOGO
 62
     5
100
AcDbTrace
 10
-127.3078940219066
 20
176.8253194483577
 30
0.0
 11
-125.0573754457209
 21
176.8253194483577
 31
0.0
 12
-127.3078940219066
 22
162.1969487031351
 32
0.0
 13
-125.0573754457209
 23
162.1969487031351
 33
0.0
  0
SOLID
  5
2F9A
330
1E
100
AcDbEntity
  8
LOGO
 62
     5
100
AcDbTrace
 10
-122.4316954228789
 20
173.4495415840736
 30
0.0
 11
-120.1811768466918
 21
173.4495415840736
 31
0.0
 12
-122.4316954228789
 22
162.1969487031351
 32
0.0
 13
-120.1811768466918
 23
162.1969487031351
 33
0.0
  0
SOLID
  5
2F9B
330
1E
100
AcDbEntity
  8
LOGO
 62
     5
100
AcDbTrace
 10
-115.6801396943156
 20
168.9485044316972
 30
0.0
 11
-113.4296211181285
 21
168.9485044316972
 31
0.0
 12
-115.6801396943156
 22
162.1969487031351
 32
0.0
 13
-113.4296211181285
 23
162.1969487031351
 33
0.0
  0
SOLID
  5
2F9C
330
1E
100
AcDbEntity
  8
LOGO
 62
     5
100
AcDbTrace
 10
-108.928583965752
 20
168.9485044316972
 30
0.0
 11
-106.6780653895664
 21
168.9485044316972
 31
0.0
 12
-108.928583965752
 22
162.1969487031299
 32
0.0
 13
-106.6780653895664
 23
162.1969487031299
 33
0.0
  0
SOLID
  5
2F9D
330
1E
100
AcDbEntity
  8
LOGO
 62
     5
100
AcDbTrace
 10
-152.813921253281
 20
175.024904587404
 30
0.0
 11
-150.5634026770878
 21
175.024904587404
 31
0.0
 12
-152.813921253281
 22
176.8253194483577
 32
0.0
 13
-150.5634026770878
 23
176.8253194483577
 33
0.0
  0
SOLID
  5
2F9E
330
1E
100
AcDbEntity
  8
LOGO
 62
     5
100
AcDbTrace
 10
-152.813921253281
 20
173.4495415840736
 30
0.0
 11
-150.5634026770878
 21
173.4495415840736
 31
0.0
 12
-152.813921253281
 22
162.1969487031299
 32
0.0
 13
-150.5634026770878
 23
162.1969487031351
 33
0.0
  0
SOLID
  5
2F9F
330
1E
100
AcDbEntity
  8
LOGO
 62
     5
100
AcDbTrace
 10
-130.6834468343331
 20
184.7021344650156
 30
0.0
 11
-124.1569429633882
 21
184.7021344650156
 31
0.0
 12
-130.6834468343331
 22
217.7097402491067
 32
0.0
 13
-124.1569429633882
 23
241.6402544425765
 33
0.0
  0
SOLID
  5
2FA0
330
1E
100
AcDbEntity
  8
LOGO
 62
     5
100
AcDbTrace
 10
-121.4563206719601
 20
246.5913953101885
 30
0.0
 11
-114.9298168010148
 21
246.5913953101936
 31
0.0
 12
-121.4563206719601
 22
189.6532753326279
 32
0.0
 13
-114.9298168010148
 23
213.5837895260975
 33
0.0
  0
SOLID
  5
2FA1
330
1E
100
AcDbEntity
  8
LOGO
 62
     2
100
AcDbTrace
 10
-124.1569429633882
 20
246.5913953101885
 30
0.0
 11
-121.4563206719601
 21
246.5913953101885
 31
0.0
 12
-124.1569429633882
 22
184.7021344650156
 32
0.0
 13
-121.4563206719601
 23
184.7021344650156
 33
0.0
  0
SOLID
  5
2FA2
330
1E
100
AcDbEntity
  8
LOGO
 62
     5
100
AcDbTrace
 10
-121.4563206719601
 20
189.6532753326279
 30
0.0
 11
-114.9298168010148
 21
213.5837895260975
 31
0.0
 12
-90.3991643205652
 22
246.5913953101936
 32
0.0
 13
-96.92566819151057
 23
246.5913953101936
 33
0.0
  0
SOLID
  5
2FA3
330
1E
100
AcDbEntity
  8
LOGO
 62
     5
100
AcDbTrace
 10
-121.4563206719601
 20
184.7021344650156
 30
0.0
 11
-114.9298168010148
 21
184.7021344650156
 31
0.0
 12
-90.3991643205652
 22
241.6402544425765
 32
0.0
 13
-96.92566819151057
 23
217.7097402491067
 33
0.0
  0
SOLID
  5
2FA4
330
1E
100
AcDbEntity
  8
LOGO
 62
     2
100
AcDbTrace
 10
-124.1569429633882
 20
184.7021344650156
 30
0.0
 11
-121.4563206719601
 21
184.7021344650156
 31
0.0
 12
-90.3991643205652
 22
246.5913953101936
 32
0.0
 13
-87.69854202913711
 23
246.5913953101885
 33
0.0
  0
TEXT
  5
2FA5
330
1E
100
AcDbEntity
  8
LOGO
 62
     6
100
AcDbText
 10
73.99262117049805
 20
167.1568241869326
 30
0.0
 40
15.09458823529412
  1
m/m
  7
CHINESET
 72
     1
 11
100.5878480612543
 21
174.7041183045797
 31
0.0
100
AcDbText
 73
     2
  0
TEXT
  5
2FA6
330
1E
100
AcDbEntity
  8
LOGO
 62
     6
100
AcDbText
 10
73.99262117049805
 20
227.5351771281096
 30
0.0
 40
15.09458823529412
  1
1 : 1
  7
CHINESET
 72
     1
 11
100.5878480612543
 21
235.0824712457566
 31
0.0
100
AcDbText
 73
     2
  0
LINE
  5
2FA7
330
1E
100
AcDbEntity
  8
LOGO
 62
     1
100
AcDbLine
 10
51.34824992018343
 20
159.6095300692858
 30
0.0
 11
51.34824992018343
 21
250.1770594810504
 31
0.0
  0
CIRCLE
  5
2FA8
330
1E
100
AcDbEntity
  8
LOGO
  6
Continuous
 62
     6
100
AcDbCircle
 10
79.29776803908225
 20
204.9255822098625
 30
0.0
 40
8.764273215968639
  0
CIRCLE
  5
2FA9
330
1E
100
AcDbEntity
  8
LOGO
  6
Continuous
 62
     6
100
AcDbCircle
 10
79.29776803908225
 20
204.9255822098625
 30
0.0
 40
5.135088247346765
  0
LINE
  5
2FAA
330
1E
100
AcDbEntity
  8
LOGO
 62
     6
100
AcDbLine
 10
134.3734778914895
 20
196.1613089938934
 30
0.0
 11
134.3734778914895
 21
213.6898554258315
 31
0.0
  0
LINE
  5
2FAB
330
1E
100
AcDbEntity
  8
LOGO
 62
     6
100
AcDbLine
 10
106.8979844527137
 20
199.7904939625161
 30
0.0
 11
106.8979844527137
 21
210.0606704572102
 31
0.0
  0
LINE
  5
2FAC
330
1E
100
AcDbEntity
  8
LOGO
  6
Continuous
 62
     6
100
AcDbLine
 10
106.8979844527137
 20
210.0606704572102
 30
0.0
 11
134.3734778914895
 21
213.6898554258315
 31
0.0
  0
LINE
  5
2FAD
330
1E
100
AcDbEntity
  8
LOGO
  6
Continuous
 62
     6
100
AcDbLine
 10
106.8979844527137
 20
199.7904939625161
 30
0.0
 11
134.3734778914895
 21
196.1613089938934
 31
0.0
  0
LINE
  5
2FE5
330
1E
100
AcDbEntity
  8
LOGO
 62
     6
100
AcDbLine
 10
647.081935539858
 20
167.1568241869333
 30
0.0
 11
647.081935539858
 21
111.8100006575206
 31
0.0
  0
LINE
  5
2FE6
330
1E
100
AcDbEntity
  8
LOGO
 62
     6
100
AcDbLine
 10
515.983403892254
 20
167.1568241869333
 30
0.0
 11
515.983403892254
 21
111.8100006575206
 31
0.0
  0
LINE
  5
2FE7
330
1E
100
AcDbEntity
  8
LOGO
 62
     6
100
AcDbLine
 10
470.2918470724216
 20
167.1568241869333
 30
0.0
 11
470.2918470724216
 21
111.8100006575206
 31
0.0
  0
LINE
  5
2FE8
330
1E
100
AcDbEntity
  8
LOGO
 62
     6
100
AcDbLine
 10
369.6612588371284
 20
167.1568241869333
 30
0.0
 11
369.6612588371284
 21
111.8100006575206
 31
0.0
  0
LINE
  5
2FE9
330
1E
100
AcDbEntity
  8
LOGO
 62
     6
100
AcDbLine
 10
470.2918470724216
 20
111.8100006575206
 30
0.0
 11
369.6612588371284
 21
111.8100006575206
 31
0.0
  0
LINE
  5
2FEA
330
1E
100
AcDbEntity
  8
LOGO
 62
     6
100
AcDbLine
 10
647.081935539858
 20
111.8100006575206
 30
0.0
 11
515.983403892254
 21
111.8100006575206
 31
0.0
  0
LINE
  5
2FEB
330
1E
100
AcDbEntity
  8
LOGO
  6
Continuous
 62
     7
100
AcDbLine
 10
488.156618007973
 20
212.2801866417008
 30
0.0
 11
508.1522761709386
 21
212.2801866417008
 31
0.0
  0
LINE
  5
2FEC
330
1E
100
AcDbEntity
  8
LOGO
 62
     6
100
AcDbLine
 10
480.3549058959511
 20
235.0824712457566
 30
0.0
 11
359.5982000135984
 21
235.0824712457566
 31
0.0
  0
LINE
  5
2FED
330
1E
100
AcDbEntity
  8
LOGO
 62
     6
100
AcDbLine
 10
480.3549058959511
 20
189.7987065398736
 30
0.0
 11
359.5982000135984
 21
189.7987065398736
 31
0.0
  0
LINE
  5
2FEE
330
1E
100
AcDbEntity
  8
LOGO
 62
     6
100
AcDbLine
 10
359.5982000135984
 20
235.0824712457566
 30
0.0
 11
359.5982000135984
 21
189.7987065398736
 31
0.0
  0
LINE
  5
2FEF
330
1E
100
AcDbEntity
  8
LOGO
 62
     6
100
AcDbLine
 10
480.3549058959511
 20
235.0824712457566
 30
0.0
 11
480.3549058959511
 21
189.7987065398736
 31
0.0
  0
LINE
  5
2FF0
330
1E
100
AcDbEntity
  8
LOGO
 62
     6
100
AcDbLine
 10
419.9765529547744
 20
189.7987065398736
 30
0.0
 11
419.9765529547744
 21
167.1568241869333
 31
0.0
  0
TEXT
  5
2FF1
330
1E
100
AcDbEntity
  8
LOGO
  6
Continuous
 62
     7
100
AcDbText
 10
371.4582336270433
 20
199.8617653634033
 30
0.0
 40
25.15764705882353
  1
MHBD
  7
CHINESET
 72
     1
 11
419.9765529547744
 21
212.440588892815
 31
0.0
100
AcDbText
 73
     2
  0
LINE
  5
2FF2
330
1E
100
AcDbEntity
  8
LOGO
 62
     6
100
AcDbLine
 10
470.2918470724216
 20
167.1568241869333
 30
0.0
 11
369.6612588371284
 21
167.1568241869333
 31
0.0
  0
LINE
  5
2FF3
330
1E
100
AcDbEntity
  8
LOGO
 62
     6
100
AcDbLine
 10
647.081935539858
 20
235.0824712457566
 30
0.0
 11
515.983403892254
 21
235.0824712457566
 31
0.0
  0
LINE
  5
2FF4
330
1E
100
AcDbEntity
  8
LOGO
 62
     6
100
AcDbLine
 10
647.081935539858
 20
167.1568241869333
 30
0.0
 11
515.983403892254
 21
167.1568241869333
 31
0.0
  0
LINE
  5
2FF5
330
1E
100
AcDbEntity
  8
LOGO
 62
     6
100
AcDbLine
 10
647.081935539858
 20
189.7987065398736
 30
0.0
 11
515.983403892254
 21
189.7987065398736
 31
0.0
  0
TEXT
  5
2FF6
330
1E
100
AcDbEntity
  8
LOGO
  6
Continuous
 62
     7
100
AcDbText
 10
553.9790562706783
 20
199.5764760605038
 30
0.0
 40
25.15764705882353
  1
110
  7
CHINESET
 72
     1
 11
581.5326697160564
 21
212.1552995899155
 31
0.0
100
AcDbText
 73
     2
  0
LINE
  5
2FF7
330
1E
100
AcDbEntity
  8
LOGO
 62
     6
100
AcDbLine
 10
581.5326697160564
 20
189.7987065398736
 30
0.0
 11
581.5326697160564
 21
167.1568241869333
 31
0.0
  0
LINE
  5
2FF8
330
1E
100
AcDbEntity
  8
LOGO
 62
     6
100
AcDbLine
 10
515.983403892254
 20
235.0824712457566
 30
0.0
 11
515.983403892254
 21
189.7987065398736
 31
0.0
  0
LINE
  5
2FFD
330
1E
100
AcDbEntity
  8
LOGO
 62
     6
100
AcDbLine
 10
647.081935539858
 20
235.0824712457566
 30
0.0
 11
647.081935539858
 21
189.7987065398736
 31
0.0
  0
LINE
  5
2FFE
330
1E
100
AcDbEntity
  8
LOGO
 62
     1
100
AcDbLine
 10
931.8658969790085
 20
99.23117712810899
 30
0.0
 11
931.8658969790085
 21
250.1770594810504
 31
0.0
  0
TEXT
  5
3075
330
1E
100
AcDbEntity
  8
LOGO
 62
     6
100
AcDbText
 10
-56.96215932351333
 20
227.5426055672018
 30
989.2744460597308
 40
15.09458823529412
  1
比例 Scale:
 41
0.9
  7
CHINESET
 72
     4
 11
-9.030103020992328
 21
235.0824712457566
 31
989.2744460597308
100
AcDbText
  0
TEXT
  5
3076
330
1E
100
AcDbEntity
  8
LOGO
 62
     6
100
AcDbText
 10
-51.68579209662259
 20
197.5583302082383
 30
989.2744460597308
 40
15.09458823529412
  1
投影 View:
 41
0.9
  7
CHINESET
 72
     4
 11
-9.030103020992328
 21
204.8932947751674
 31
989.2744460597308
100
AcDbText
  0
TEXT
  5
3077
330
1E
100
AcDbEntity
  8
LOGO
 62
     6
100
AcDbText
 10
-50.21002655040411
 20
167.1568241869326
 30
989.2744460597308
 40
15.09458823529412
  1
單位 Unit:
 41
0.9
  7
CHINESET
 72
     4
 11
-9.030103020992328
 21
174.7041183045797
 31
989.2744460597308
100
AcDbText
  0
TEXT
  5
3078
330
1E
100
AcDbEntity
  8
LOGO
  6
Continuous
 62
     6
100
AcDbText
 10
396.0168890892282
 20
118.0994124222267
 30
989.2744460597308
 40
12.57882352941176
  1
Model
  7
CHINESET
 72
     4
 11
419.9765529547744
 21
124.3888241869326
 31
989.2744460597308
100
AcDbText
  0
TEXT
  5
3079
330
1E
100
AcDbEntity
  8
LOGO
  6
Continuous
 62
     6
100
AcDbText
 10
559.0704848421069
 20
118.0994124222267
 30
989.2744460597308
 40
12.57882352941176
  1
Ratio
  7
CHINESET
 72
     4
 11
581.5326697160564
 21
124.3888241869326
 31
989.2744460597308
100
AcDbText
  0
TEXT
  5
307B
330
1E
100
AcDbEntity
  8
LOGO
 62
     6
100
AcDbText
 10
399.8504353077156
 20
139.9984508659506
 30
989.2744460597308
 40
20.12611764705882
  1
型式
  7
CHINESET
 72
     4
 11
419.9765529547744
 21
149.546471245756
 31
989.2744460597308
100
AcDbText
  0
TEXT
  5
307C
330
1E
100
AcDbEntity
  8
LOGO
 62
     6
100
AcDbText
 10
551.9724344219388
 20
139.7029640665063
 30
989.2744460597308
 40
20.12611764705882
  1
增壓比
  7
CHINESET
 72
     4
 11
581.5326697160564
 21
149.546471245756
 31
989.2744460597308
100
AcDbText
  0
LWPOLYLINE
  5
67C9
330
1E
100
AcDbEntity
  8
0
 62
     4
100
AcDbPolyline
 90
        4
 70
     1
 43
0.0
 10
-180.1021030209922
 20
768.6433998595584
 10
931.865896979008
 20
768.6433998595584
 10
931.865896979008
 20
250.1770594810504
 10
-180.1021030209922
 20
250.1770594810506
1001
GENIUS_GENREC_14
1002
{
1000
PYDIR
1011
-180.1021030209922
1021
250.1770594810504
1031
0.0
1002
}
1002
{
1000
PXDIR
1011
931.865896979008
1021
768.6433998595584
1031
0.0
1002
}
1002
{
1000
PORI
1011
-180.1021030209922
1021
768.6433998595584
1031
0.0
1002
}
1002
{
1000
PINS
1011
-180.1021030209922
1021
768.6433998595584
1031
0.0
1002
}
1002
{
1000
PINS2
1011
931.865896979008
1021
250.1770594810505
1031
0.0
1002
}
1002
{
1000
C
1070
     1
1002
}
1001
GENIUS_GENODEF_13
1002
{
1000
HIER
1070
     0
1002
}
1002
{
1000
MANEDIT
1070
     0
1002
}
1002
{
1000
NOSEL
1070
     0
1002
}
1002
{
1000
BEHIND
1070
     0
1002
}
1002
{
1000
OTHER
1070
     0
1002
}
1002
{
1000
REACTOR
1002
}
1001
GENIUS_GENOBJ-N-REC_13
1002
{
1000
OWNER
1000
GEN
1002
}
  0
LINE
  5
6A2E
330
1E
100
AcDbEntity
  8
CENTER
  6
CENTER
100
AcDbLine
 10
97.00391653824295
 20
638.1898566889757
 30
0.0
 11
657.6192771843202
 21
638.1898566889757
 31
0.0
  0
LINE
  5
6A2F
330
1E
100
AcDbEntity
  8
UMCL1
  6
Continuous
100
AcDbLine
 10
105.6192771843202
 20
695.6898566889757
 30
0.0
 11
198.6192771843202
 21
695.6898566889757
 31
0.0
  0
LINE
  5
6A30
330
1E
100
AcDbEntity
  8
UMCL1
  6
Continuous
100
AcDbLine
 10
105.6192771843202
 20
580.6898566889757
 30
0.0
 11
198.6192771843202
 21
580.6898566889757
 31
0.0
  0
LINE
  5
6A31
330
1E
100
AcDbEntity
  8
UMCL1
  6
Continuous
100
AcDbLine
 10
158.6192771843202
 20
695.6898566889757
 30
0.0
 11
158.6192771843202
 21
580.6898566889757
 31
0.0
  0
LINE
  5
6A32
330
1E
100
AcDbEntity
  8
UMCL1
  6
Continuous
100
AcDbLine
 10
198.6192771843202
 20
695.6898566889757
 30
0.0
 11
198.6192771843202
 21
580.6898566889757
 31
0.0
  0
LINE
  5
6A33
330
1E
100
AcDbEntity
  8
UMCL1
  6
Continuous
100
AcDbLine
 10
428.6192771843202
 20
695.6898566889757
 30
0.0
 11
428.6192771843202
 21
580.6898566889757
 31
0.0
  0
LINE
  5
6A34
330
1E
100
AcDbEntity
  8
UMCL1
  6
Continuous
100
AcDbLine
 10
468.6192771843202
 20
695.6898566889757
 30
0.0
 11
468.6192771843202
 21
580.6898566889757
 31
0.0
  0
LINE
  5
6A35
330
1E
100
AcDbEntity
  8
UMCL1
  6
Continuous
100
AcDbLine
 10
483.6192771843202
 20
676.1898566889757
 30
0.0
 11
483.6192771843202
 21
600.1898566889757
 31
0.0
  0
LINE
  5
6A36
330
1E
100
AcDbEntity
  8
UMCL1
  6
Continuous
100
AcDbLine
 10
653.6192771843202
 20
660.6898566889757
 30
0.0
 11
653.6192771843198
 21
615.6898566889755
 31
0.0
  0
LINE
  5
6A37
330
1E
100
AcDbEntity
  8
UMCL1
  6
Continuous
100
AcDbLine
 10
483.6192771843202
 20
663.1898566889757
 30
0.0
 11
646.7505836356833
 21
663.1898566889757
 31
0.0
  0
LINE
  5
6A38
330
1E
100
AcDbEntity
  8
UMCL1
  6
Continuous
100
AcDbLine
 10
483.6192771843202
 20
613.1898566889757
 30
0.0
 11
646.7505836356836
 21
613.1898566889757
 31
0.0
  0
LINE
  5
6A39
330
1E
100
AcDbEntity
  8
UMCL1
  6
Continuous
100
AcDbLine
 10
468.6192771843202
 20
676.1898566889755
 30
0.0
 11
483.6192771843202
 21
676.1898566889757
 31
0.0
  0
LINE
  5
6A3A
330
1E
100
AcDbEntity
  8
UMCL1
  6
Continuous
100
AcDbLine
 10
468.6192771843202
 20
600.1898566889757
 30
0.0
 11
483.6192771843202
 21
600.1898566889757
 31
0.0
  0
LINE
  5
6A3B
330
1E
100
AcDbEntity
  8
UMCL1
  6
Continuous
100
AcDbLine
 10
428.6192771843202
 20
580.6898566889757
 30
0.0
 11
521.61927718432
 21
580.6898566889757
 31
0.0
  0
LINE
  5
6A3C
330
1E
100
AcDbEntity
  8
UMCL1
  6
Continuous
100
AcDbLine
 10
428.6192771843202
 20
695.6898566889757
 30
0.0
 11
521.61927718432
 21
695.6898566889757
 31
0.0
  0
LINE
  5
6A3D
330
1E
100
AcDbEntity
  8
UMCL1
  6
Continuous
100
AcDbLine
 10
198.6192771843202
 20
691.6898566889757
 30
0.0
 11
428.6192771843202
 21
691.6898566889757
 31
0.0
  0
LINE
  5
6A3E
330
1E
100
AcDbEntity
  8
UMCL1
  6
Continuous
100
AcDbLine
 10
198.6192771843202
 20
584.6898566889757
 30
0.0
 11
428.6192771843202
 21
584.6898566889755
 31
0.0
  0
LINE
  5
6A3F
330
1E
100
AcDbEntity
  8
UMCL1
  6
Continuous
100
AcDbLine
 10
198.6192771843202
 20
670.1898566889757
 30
0.0
 11
428.6192771843202
 21
670.1898566889757
 31
0.0
  0
LINE
  5
6A40
330
1E
100
AcDbEntity
  8
UMCL1
  6
Continuous
100
AcDbLine
 10
198.6192771843202
 20
606.1898566889757
 30
0.0
 11
428.6192771843202
 21
606.1898566889754
 31
0.0
  0
LINE
  5
6A41
330
1E
100
AcDbEntity
  8
UMCL1
  6
Continuous
100
AcDbLine
 10
158.6192771843202
 20
676.1898566889757
 30
0.0
 11
198.6192771843202
 21
676.1898566889757
 31
0.0
  0
LINE
  5
6A42
330
1E
100
AcDbEntity
  8
UMCL1
  6
Continuous
100
AcDbLine
 10
158.6192771843202
 20
600.1898566889757
 30
0.0
 11
198.6192771843202
 21
600.1898566889757
 31
0.0
  0
LINE
  5
6A43
330
1E
100
AcDbEntity
  8
UMCL1
  6
Continuous
100
AcDbLine
 10
428.6192771843202
 20
600.1898566889757
 30
0.0
 11
468.6192771843202
 21
600.1898566889757
 31
0.0
  0
LINE
  5
6A44
330
1E
100
AcDbEntity
  8
UMCL1
  6
Continuous
100
AcDbLine
 10
428.6192771843202
 20
676.1898566889757
 30
0.0
 11
468.6192771843202
 21
676.1898566889757
 31
0.0
  0
LINE
  5
6A45
330
1E
100
AcDbEntity
  8
UMCL1
  6
Continuous
100
AcDbLine
 10
198.6192771843202
 20
660.6898566889757
 30
0.0
 11
428.6192771843202
 21
660.6898566889757
 31
0.0
  0
LINE
  5
6A46
330
1E
100
AcDbEntity
  8
UMCL1
  6
Continuous
100
AcDbLine
 10
198.6192771843202
 20
615.6898566889757
 30
0.0
 11
428.6192771843202
 21
615.6898566889755
 31
0.0
  0
LINE
  5
6A47
330
1E
100
AcDbEntity
  8
CENTER
  6
CENTER
100
AcDbLine
 10
154.6192771843202
 20
415.4815968488552
 30
0.0
 11
657.6192771843202
 21
415.4815968488552
 31
0.0
  0
LINE
  5
6A48
330
1E
100
AcDbEntity
  8
UMCL1
  6
Continuous
100
AcDbLine
 10
198.6192771843202
 20
361.9815968488552
 30
0.0
 11
428.6192771843202
 21
361.9815968488552
 31
0.0
  0
LINE
  5
6A49
330
1E
100
AcDbEntity
  8
UMCL1
  6
Continuous
100
AcDbLine
 10
198.6192771843202
 20
468.9815968488554
 30
0.0
 11
428.6192771843202
 21
468.9815968488554
 31
0.0
  0
LINE
  5
6A4A
330
1E
100
AcDbEntity
  8
UMCL1
  6
Continuous
100
AcDbLine
 10
198.6192771843202
 20
383.4815968488552
 30
0.0
 11
428.6192771843202
 21
383.4815968488552
 31
0.0
  0
LINE
  5
6A4B
330
1E
100
AcDbEntity
  8
UMCL1
  6
Continuous
100
AcDbLine
 10
198.6192771843202
 20
447.4815968488554
 30
0.0
 11
428.6192771843202
 21
447.4815968488554
 31
0.0
  0
LINE
  5
6A4C
330
1E
100
AcDbEntity
  8
UMCL1
  6
Continuous
100
AcDbLine
 10
158.6192771843202
 20
357.9815968488552
 30
0.0
 11
198.6192771843202
 21
357.9815968488552
 31
0.0
  0
LINE
  5
6A4D
330
1E
100
AcDbEntity
  8
UMCL1
  6
Continuous
100
AcDbLine
 10
158.6192771843202
 20
472.9815968488554
 30
0.0
 11
198.6192771843202
 21
472.9815968488554
 31
0.0
  0
LINE
  5
6A4E
330
1E
100
AcDbEntity
  8
UMCL1
  6
Continuous
100
AcDbLine
 10
483.6192771843202
 20
440.4815968488555
 30
0.0
 11
646.7505836356836
 21
440.4815968488555
 31
0.0
  0
LINE
  5
6A4F
330
1E
100
AcDbEntity
  8
UMCL1
  6
Continuous
100
AcDbLine
 10
483.6192771843202
 20
390.4815968488552
 30
0.0
 11
646.7505836356838
 21
390.4815968488552
 31
0.0
  0
LINE
  5
6A50
330
1E
100
AcDbEntity
  8
UMCL1
  6
Continuous
100
AcDbLine
 10
483.6192771843202
 20
453.4815968488555
 30
0.0
 11
483.6192771843202
 21
378.9815968488552
 31
0.0
  0
LINE
  5
6A51
330
1E
100
AcDbEntity
  8
CENTER
  6
CENTER
100
AcDbLine
 10
448.6192771843202
 20
430.2875703372998
 30
0.0
 11
448.6192771843202
 21
399.8411915920359
 31
0.0
  0
LINE
  5
6A52
330
1E
100
AcDbEntity
  8
UMCL1
  6
Continuous
100
AcDbLine
 10
428.6192771843202
 20
357.9815968488552
 30
0.0
 11
468.6192771843202
 21
357.9815968488552
 31
0.0
  0
LINE
  5
6A53
330
1E
100
AcDbEntity
  8
UMCL1
  6
Continuous
100
AcDbLine
 10
468.6192771843202
 20
453.4815968488552
 30
0.0
 11
483.6192771843202
 21
453.4815968488555
 31
0.0
  0
LINE
  5
6A54
330
1E
100
AcDbEntity
  8
UMCL1
  6
Continuous
100
AcDbLine
 10
428.6192771843202
 20
472.9815968488554
 30
0.0
 11
468.6192771843202
 21
472.9815968488554
 31
0.0
  0
LINE
  5
6A55
330
1E
100
AcDbEntity
  8
UMCL1
  6
Continuous
100
AcDbLine
 10
653.6192771843202
 20
437.9815968488554
 30
0.0
 11
653.6192771843202
 21
392.981596848855
 31
0.0
  0
LINE
  5
6A56
330
1E
100
AcDbEntity
  8
CENTER
  6
CENTER
100
AcDbLine
 10
785.8557158587673
 20
476.9815968488554
 30
0.0
 11
785.8557158587673
 21
341.6627015294995
 31
0.0
  0
LINE
  5
6A57
330
1E
100
AcDbEntity
  8
UMCL1
  6
Continuous
100
AcDbLine
 10
843.3557158587669
 20
464.4101161397555
 30
0.0
 11
843.3557158587678
 21
344.4815968488553
 31
0.0
  0
LINE
  5
6A58
330
1E
100
AcDbEntity
  8
UMCL1
  6
Continuous
100
AcDbLine
 10
728.3557158587673
 20
464.4101161397555
 30
0.0
 11
728.3557158587673
 21
344.4815968488553
 31
0.0
  0
LINE
  5
6A59
330
1E
100
AcDbEntity
  8
UMCL1
  6
Continuous
100
AcDbLine
 10
736.9271965678668
 20
472.9815968488554
 30
0.0
 11
834.7842351496675
 21
472.9815968488554
 31
0.0
  0
LINE
  5
6A5A
330
1E
100
AcDbEntity
  8
UMCL1
  6
Continuous
100
AcDbLine
 10
753.3595622402231
 20
453.4815968488552
 30
0.0
 11
818.3518694773106
 21
453.4815968488556
 31
0.0
  0
LINE
  5
6A5B
330
1E
100
AcDbEntity
  8
UMCL1
  6
Continuous
100
AcDbLine
 10
753.3595622402235
 20
377.4815968488553
 30
0.0
 11
818.3518694773111
 21
377.4815968488553
 31
0.0
  0
LINE
  5
6A5C
330
1E
100
AcDbEntity
  8
UMCL1
  6
Continuous
100
AcDbLine
 10
747.8557158587673
 20
382.9854432303115
 30
0.0
 11
747.8557158587668
 21
447.9777504673985
 31
0.0
  0
LINE
  5
6A5D
330
1E
100
AcDbEntity
  8
UMCL1
  6
Continuous
100
AcDbLine
 10
823.8557158587672
 20
382.9854432303115
 30
0.0
 11
823.8557158587672
 21
447.9777504673992
 31
0.0
  0
CIRCLE
  5
6A5E
330
1E
100
AcDbEntity
  8
UMCL1
  6
Continuous
100
AcDbCircle
 10
785.8557158587673
 20
415.4815968488552
 30
0.0
 40
25.00000000000003
  0
ARC
  5
6A5F
330
1E
100
AcDbEntity
  8
UMCL1
  6
Continuous
100
AcDbCircle
 10
785.8557158587673
 20
415.4815968488552
 30
0.0
 40
50.0
100
AcDbArc
 50
220.5358021113172
 51
229.4641978886804
  0
LINE
  5
6A60
330
1E
100
AcDbEntity
  8
UMCL1
  6
Continuous
100
AcDbLine
 10
468.6192771843202
 20
464.4101161397555
 30
0.0
 11
428.6192771843202
 21
464.4101161397555
 31
0.0
  0
LINE
  5
6A61
330
1E
100
AcDbEntity
  8
UMCL1
  6
Continuous
100
AcDbLine
 10
483.6192771843202
 20
447.9777504673985
 30
0.0
 11
468.6192771843202
 21
447.9777504673985
 31
0.0
  0
LINE
  5
6A62
330
1E
100
AcDbEntity
  8
UMCL1
  6
Continuous
100
AcDbLine
 10
483.6192771843202
 20
382.9854432303115
 30
0.0
 11
474.6192771843202
 21
382.9854432303115
 31
0.0
  0
LINE
  5
6A63
330
1E
100
AcDbEntity
  8
UMCL1
  6
Continuous
100
AcDbLine
 10
468.6192771843202
 20
366.5530775579551
 30
0.0
 11
428.6192771843202
 21
366.5530775579551
 31
0.0
  0
LINE
  5
6A64
330
1E
100
AcDbEntity
  8
UMCL1
  6
Continuous
100
AcDbLine
 10
198.6192771843202
 20
464.4101161397555
 30
0.0
 11
158.6192771843202
 21
464.4101161397555
 31
0.0
  0
LINE
  5
6A65
330
1E
100
AcDbEntity
  8
UMCL1
  6
Continuous
100
AcDbLine
 10
198.6192771843202
 20
366.5530775579551
 30
0.0
 11
158.6192771843202
 21
366.5530775579551
 31
0.0
  0
LINE
  5
6A66
330
1E
100
AcDbEntity
  8
UMCL1
  6
Continuous
100
AcDbLine
 10
198.6192771843202
 20
687.1183759798758
 30
0.0
 11
158.6192771843202
 21
687.1183759798758
 31
0.0
  0
LINE
  5
6A67
330
1E
100
AcDbEntity
  8
UMCL1
  6
Continuous
100
AcDbLine
 10
198.6192771843202
 20
589.2613373980753
 30
0.0
 11
158.6192771843202
 21
589.2613373980753
 31
0.0
  0
LINE
  5
6A68
330
1E
100
AcDbEntity
  8
UMCL1
  6
Continuous
100
AcDbLine
 10
468.6192771843202
 20
589.2613373980753
 30
0.0
 11
428.6192771843202
 21
589.2613373980753
 31
0.0
  0
LINE
  5
6A69
330
1E
100
AcDbEntity
  8
UMCL1
  6
Continuous
100
AcDbLine
 10
468.6192771843202
 20
687.1183759798758
 30
0.0
 11
428.6192771843202
 21
687.1183759798758
 31
0.0
  0
LINE
  5
6A6A
330
1E
100
AcDbEntity
  8
UMCL1
  6
Continuous
100
AcDbLine
 10
483.6192771843202
 20
670.6860103075188
 30
0.0
 11
468.6192771843202
 21
670.6860103075188
 31
0.0
  0
LINE
  5
6A6B
330
1E
100
AcDbEntity
  8
UMCL1
  6
Continuous
100
AcDbLine
 10
483.6192771843202
 20
605.6937030704317
 30
0.0
 11
468.6192771843202
 21
605.6937030704317
 31
0.0
  0
ARC
  5
6A6C
330
1E
100
AcDbEntity
  8
UMCL1
  6
Continuous
100
AcDbCircle
 10
785.8557158587673
 20
415.4815968488552
 30
0.0
 40
75.5
100
AcDbArc
 50
40.39548270962246
 51
49.6045172903696
  0
ARC
  5
6A6D
330
1E
100
AcDbEntity
  8
UMCL1
  6
Continuous
100
AcDbCircle
 10
785.8557158587673
 20
415.4815968488552
 30
0.0
 40
75.5
100
AcDbArc
 50
130.3954827096304
 51
139.6045172903775
  0
ARC
  5
6A6E
330
1E
100
AcDbEntity
  8
UMCL1
  6
Continuous
100
AcDbCircle
 10
785.8557158587673
 20
415.4815968488552
 30
0.0
 40
50.0
100
AcDbArc
 50
310.5358021113196
 51
319.4641978886829
  0
ARC
  5
6A6F
330
1E
100
AcDbEntity
  8
UMCL1
  6
Continuous
100
AcDbCircle
 10
785.8557158587673
 20
415.4815968488552
 30
0.0
 40
50.0
100
AcDbArc
 50
40.53580211131712
 51
49.46419788868145
  0
ARC
  5
6A70
330
1E
100
AcDbEntity
  8
UMCL1
  6
Continuous
100
AcDbCircle
 10
785.8557158587673
 20
415.4815968488552
 30
0.0
 40
50.0
100
AcDbArc
 50
130.5358021113196
 51
139.4641978886841
  0
LINE
  5
6A71
330
1E
100
AcDbEntity
  8
CENTER
  6
CENTER
100
AcDbLine
 10
724.3557158587673
 20
415.4815968488552
 30
0.0
 11
847.3557158587668
 21
415.4815968488552
 31
0.0
  0
LINE
  5
6A72
330
1E
100
AcDbEntity
  8
CENTER
  6
CENTER
100
AcDbLine
 10
830.3557158587674
 20
472.9815968488554
 30
0.0
 11
830.3557158587674
 21
446.9815968488554
 31
0.0
  0
LINE
  5
6A73
330
1E
100
AcDbEntity
  8
CENTER
  6
CENTER
100
AcDbLine
 10
741.3557158587673
 20
472.9815968488552
 30
0.0
 11
741.3557158587673
 21
446.9815968488553
 31
0.0
  0
LINE
  5
6A74
330
1E
100
AcDbEntity
  8
CENTER
  6
CENTER
100
AcDbLine
 10
728.3557158587673
 20
459.9815968488552
 30
0.0
 11
754.3557158587673
 21
459.9815968488554
 31
0.0
  0
CIRCLE
  5
6A75
330
1E
100
AcDbEntity
  8
UMCL1
  6
Continuous
100
AcDbCircle
 10
741.3557158587673
 20
459.9815968488552
 30
0.0
 40
4.25
  0
ARC
  5
6A76
330
1E
100
AcDbEntity
  8
UMCL1
  6
Continuous
 62
     2
100
AcDbCircle
 10
741.3557158587673
 20
459.9815968488552
 30
0.0
 40
5.0
100
AcDbArc
 50
66.06024884272805
 51
15.80874327065637
  0
ARC
  5
6A77
330
1E
100
AcDbEntity
  8
UMCL1
  6
Continuous
 62
     2
100
AcDbCircle
 10
830.3557158587674
 20
459.9815968488554
 30
0.0
 40
5.0
100
AcDbArc
 50
66.06024884271549
 51
15.80874327065637
  0
CIRCLE
  5
6A78
330
1E
100
AcDbEntity
  8
UMCL1
  6
Continuous
100
AcDbCircle
 10
830.3557158587674
 20
459.9815968488554
 30
0.0
 40
4.25
  0
LINE
  5
6A79
330
1E
100
AcDbEntity
  8
CENTER
  6
CENTER
100
AcDbLine
 10
817.3557158587673
 20
459.9815968488554
 30
0.0
 11
843.3557158587669
 21
459.9815968488554
 31
0.0
  0
LINE
  5
6A7A
330
1E
100
AcDbEntity
  8
CENTER
  6
CENTER
100
AcDbLine
 10
810.8557158587668
 20
450.9815968488554
 30
0.0
 11
810.8557158587673
 21
429.9815968488554
 31
0.0
  0
LINE
  5
6A7B
330
1E
100
AcDbEntity
  8
CENTER
  6
CENTER
100
AcDbLine
 10
760.8557158587673
 20
450.9815968488552
 30
0.0
 11
760.8557158587673
 21
429.9815968488552
 31
0.0
  0
LINE
  5
6A7C
330
1E
100
AcDbEntity
  8
CENTER
  6
CENTER
100
AcDbLine
 10
750.3557158587673
 20
440.4815968488552
 30
0.0
 11
771.3557158587673
 21
440.4815968488555
 31
0.0
  0
LINE
  5
6A7D
330
1E
100
AcDbEntity
  8
CENTER
  6
CENTER
100
AcDbLine
 10
750.3557158587673
 20
390.4815968488552
 30
0.0
 11
771.3557158587673
 21
390.4815968488552
 31
0.0
  0
LINE
  5
6A7E
330
1E
100
AcDbEntity
  8
CENTER
  6
CENTER
100
AcDbLine
 10
800.3557158587673
 20
390.4815968488552
 30
0.0
 11
821.3557158587672
 21
390.4815968488555
 31
0.0
  0
LINE
  5
6A7F
330
1E
100
AcDbEntity
  8
CENTER
  6
CENTER
100
AcDbLine
 10
800.3557158587673
 20
440.4815968488555
 30
0.0
 11
821.3557158587672
 21
440.4815968488555
 31
0.0
  0
LINE
  5
6A80
330
1E
100
AcDbEntity
  8
CENTER
  6
CENTER
100
AcDbLine
 10
810.8557158587673
 20
400.9815968488552
 30
0.0
 11
810.8557158587673
 21
379.9815968488553
 31
0.0
  0
LINE
  5
6A81
330
1E
100
AcDbEntity
  8
CENTER
  6
CENTER
100
AcDbLine
 10
760.8557158587673
 20
400.9815968488552
 30
0.0
 11
760.8557158587673
 21
379.9815968488553
 31
0.0
  0
LINE
  5
6A82
330
1E
100
AcDbEntity
  8
CENTER
  6
CENTER
100
AcDbLine
 10
623.6192771843202
 20
649.1898566889757
 30
0.0
 11
623.6192771843202
 21
627.1898566889757
 31
0.0
  0
LINE
  5
6A83
330
1E
100
AcDbEntity
  8
CENTER
  6
CENTER
100
AcDbLine
 10
623.6192771843202
 20
446.1733626558225
 30
0.0
 11
623.6192771843202
 21
422.0498979580692
 31
0.0
  0
LINE
  5
6A84
330
1E
100
AcDbEntity
  8
UMCL1
  6
HIDDEN
 62
     2
100
AcDbLine
 10
653.6192771843202
 20
406.1315968488553
 30
0.0
 11
640.91927718432
 21
406.9253468488553
 31
0.0
  0
LINE
  5
6A85
330
1E
100
AcDbEntity
  8
UMCL1
  6
HIDDEN
 62
     2
100
AcDbLine
 10
640.91927718432
 20
424.0378468488553
 30
0.0
 11
653.6192771843202
 21
424.8315968488554
 31
0.0
  0
LINE
  5
6A86
330
1E
100
AcDbEntity
  8
UMCL1
  6
HIDDEN
 62
     2
100
AcDbLine
 10
653.6192771843202
 20
405.0315968488554
 30
0.0
 11
642.1892771843202
 21
405.7459718488554
 31
0.0
  0
LINE
  5
6A87
330
1E
100
AcDbEntity
  8
UMCL1
  6
HIDDEN
 62
     2
100
AcDbLine
 10
653.6192771843202
 20
425.9315968488553
 30
0.0
 11
642.1892771843202
 21
425.2172218488552
 31
0.0
  0
CIRCLE
  5
6A88
330
1E
100
AcDbEntity
  8
UMCL1
  6
Continuous
100
AcDbCircle
 10
785.8557158587673
 20
415.4815968488552
 30
0.0
 40
9.349999999999994
  0
ARC
  5
6A89
330
1E
100
AcDbEntity
  8
UMCL1
  6
Continuous
 62
     2
100
AcDbCircle
 10
785.8557158587673
 20
415.4815968488552
 30
0.0
 40
10.44999999999999
100
AcDbArc
 50
71.1781580167074
 51
22.17985363634939
  0
LINE
  5
6A8A
330
1E
100
AcDbEntity
  8
UMCL1
  6
HIDDEN
 62
     2
100
AcDbLine
 10
653.6192771843202
 20
628.8398566889756
 30
0.0
 11
640.91927718432
 21
629.6336066889756
 31
0.0
  0
LINE
  5
6A8B
330
1E
100
AcDbEntity
  8
UMCL1
  6
HIDDEN
 62
     2
100
AcDbLine
 10
653.6192771843202
 20
627.7398566889757
 30
0.0
 11
642.1892771843202
 21
628.4542316889757
 31
0.0
  0
LINE
  5
6A8C
330
1E
100
AcDbEntity
  8
UMCL1
  6
HIDDEN
 62
     2
100
AcDbLine
 10
640.91927718432
 20
646.7461066889756
 30
0.0
 11
653.6192771843202
 21
647.5398566889756
 31
0.0
  0
LINE
  5
6A8D
330
1E
100
AcDbEntity
  8
UMCL1
  6
HIDDEN
 62
     2
100
AcDbLine
 10
653.6192771843202
 20
648.6398566889757
 30
0.0
 11
642.1892771843202
 21
647.9254816889757
 31
0.0
  0
CIRCLE
  5
6A8E
330
1E
100
AcDbEntity
  8
UMCL1
  6
Continuous
100
AcDbCircle
 10
448.6192771843202
 20
638.1898566889757
 30
0.0
 40
7.5
  0
ARC
  5
6A8F
330
1E
100
AcDbEntity
  8
UMCL1
  6
Continuous
 62
     2
100
AcDbCircle
 10
448.6192771843202
 20
638.1898566889757
 30
0.0
 40
8.300000000000011
100
AcDbArc
 50
69.61697604875924
 51
23.41341888858015
  0
LINE
  5
6A90
330
1E
100
AcDbEntity
  8
CENTER
  6
CENTER
100
AcDbLine
 10
178.61927718432
 20
422.5903493686888
 30
0.0
 11
178.6192771843202
 21
393.1793069197068
 31
0.0
  0
LINE
  5
6A91
330
1E
100
AcDbEntity
  8
CENTER
  6
CENTER
100
AcDbLine
 10
433.3940703818312
 20
459.9815968488552
 30
0.0
 11
477.3447668684452
 21
459.9815968488554
 31
0.0
  0
LINE
  5
6A92
330
1E
100
AcDbEntity
  8
CENTER
  6
CENTER
100
AcDbLine
 10
455.3940703818313
 20
440.4815968488552
 30
0.0
 11
483.6192771843202
 21
440.4815968488555
 31
0.0
  0
LINE
  5
6A93
330
1E
100
AcDbEntity
  8
CENTER
  6
CENTER
100
AcDbLine
 10
455.3940703818313
 20
390.4815968488552
 30
0.0
 11
483.6192771843202
 21
390.4815968488552
 31
0.0
  0
LINE
  5
6A94
330
1E
100
AcDbEntity
  8
CENTER
  6
CENTER
100
AcDbLine
 10
433.3940703818313
 20
370.9815968488552
 30
0.0
 11
490.7960045828576
 21
370.9815968488552
 31
0.0
  0
LINE
  5
6A95
330
1E
100
AcDbEntity
  8
CENTER
  6
CENTER
100
AcDbLine
 10
193.8444839868091
 20
459.9815968488552
 30
0.0
 11
149.8937875001952
 21
459.9815968488554
 31
0.0
  0
LINE
  5
6A96
330
1E
100
AcDbEntity
  8
CENTER
  6
CENTER
100
AcDbLine
 10
193.8444839868089
 20
370.9815968488552
 30
0.0
 11
135.6429049443043
 21
370.9815968488552
 31
0.0
  0
LINE
  5
6A97
330
1E
100
AcDbEntity
  8
CENTER
  6
CENTER
100
AcDbLine
 10
433.3940703818312
 20
682.6898566889757
 30
0.0
 11
477.3447668684452
 21
682.6898566889757
 31
0.0
  0
LINE
  5
6A98
330
1E
100
AcDbEntity
  8
CENTER
  6
CENTER
100
AcDbLine
 10
433.3940703818313
 20
593.6898566889757
 30
0.0
 11
477.3447668684452
 21
593.6898566889757
 31
0.0
  0
LINE
  5
6A99
330
1E
100
AcDbEntity
  8
CENTER
  6
CENTER
100
AcDbLine
 10
193.8444839868089
 20
593.6898566889757
 30
0.0
 11
134.9560062092439
 21
593.6898566889757
 31
0.0
  0
LINE
  5
6A9A
330
1E
100
AcDbEntity
  8
CENTER
  6
CENTER
100
AcDbLine
 10
193.8444839868091
 20
682.6898566889757
 30
0.0
 11
134.9560062092439
 21
682.6898566889757
 31
0.0
  0
LINE
  5
6A9B
330
1E
100
AcDbEntity
  8
UMCL1
  6
Continuous
100
AcDbLine
 10
140.7192771843206
 20
585.6898566889757
 30
0.0
 11
150.1192771843202
 21
585.6898566889757
 31
0.0
  0
LINE
  5
6A9C
330
1E
100
AcDbEntity
  8
UMCL1
  6
Continuous
100
AcDbLine
 10
140.7192771843206
 20
601.6898566889757
 30
0.0
 11
150.1192771843202
 21
601.6898566889757
 31
0.0
  0
LINE
  5
6A9D
330
1E
100
AcDbEntity
  8
UMCL1
  6
Continuous
100
AcDbLine
 10
140.7192771843206
 20
674.6898566889757
 30
0.0
 11
150.1192771843202
 21
674.6898566889757
 31
0.0
  0
LINE
  5
6A9E
330
1E
100
AcDbEntity
  8
UMCL1
  6
Continuous
100
AcDbLine
 10
140.7192771843206
 20
690.6898566889757
 30
0.0
 11
150.1192771843202
 21
690.6898566889757
 31
0.0
  0
LINE
  5
6A9F
330
1E
100
AcDbEntity
  8
UMCL1
  6
Continuous
100
AcDbLine
 10
150.1192771843202
 20
602.8898566889746
 30
0.0
 11
152.6192771843202
 21
602.8898566889746
 31
0.0
  0
LINE
  5
6AA0
330
1E
100
AcDbEntity
  8
UMCL1
  6
Continuous
100
AcDbLine
 10
152.6192771843202
 20
584.4898566889749
 30
0.0
 11
150.1192771843202
 21
584.4898566889749
 31
0.0
  0
LINE
  5
6AA1
330
1E
100
AcDbEntity
  8
UMCL1
  6
Continuous
100
AcDbLine
 10
152.6192771843202
 20
594.5231900223096
 30
0.0
 11
150.1192771843202
 21
592.8565233556418
 31
0.0
  0
LINE
  5
6AA2
330
1E
100
AcDbEntity
  8
UMCL1
  6
Continuous
100
AcDbLine
 10
152.6192771843202
 20
681.8565233556418
 30
0.0
 11
150.1192771843202
 21
683.5231900223097
 31
0.0
  0
LINE
  5
6AA3
330
1E
100
AcDbEntity
  8
UMCL1
  6
Continuous
100
AcDbLine
 10
152.6192771843202
 20
691.8898566889764
 30
0.0
 11
150.1192771843202
 21
691.8898566889764
 31
0.0
  0
LINE
  5
6AA4
330
1E
100
AcDbEntity
  8
UMCL1
  6
Continuous
100
AcDbLine
 10
150.1192771843202
 20
673.4898566889768
 30
0.0
 11
152.6192771843202
 21
673.4898566889768
 31
0.0
  0
LINE
  5
6AA5
330
1E
100
AcDbEntity
  8
UMCL1
100
AcDbLine
 10
152.6192771843202
 20
580.9398566889757
 30
0.0
 11
152.6192771843202
 21
695.4398566889757
 31
0.0
  0
LINE
  5
6AA6
330
1E
100
AcDbEntity
  8
UMCL1
  6
Continuous
100
AcDbLine
 10
150.1192771843202
 20
584.4898566889749
 30
0.0
 11
150.1192771843202
 21
602.8898566889746
 31
0.0
  0
LINE
  5
6AA7
330
1E
100
AcDbEntity
  8
UMCL1
  6
Continuous
100
AcDbLine
 10
150.1192771843202
 20
691.8898566889764
 30
0.0
 11
150.1192771843202
 21
673.4898566889768
 31
0.0
  0
LINE
  5
6AA8
330
1E
100
AcDbEntity
  8
UMCL1
  6
Continuous
100
AcDbLine
 10
140.1192771843202
 20
586.3826973356261
 30
0.0
 11
140.7192771843206
 21
585.6898566889757
 31
0.0
  0
LINE
  5
6AA9
330
1E
100
AcDbEntity
  8
UMCL1
  6
Continuous
100
AcDbLine
 10
140.1192771843202
 20
600.9970160423253
 30
0.0
 11
140.7192771843206
 21
601.6898566889757
 31
0.0
  0
LINE
  5
6AAA
330
1E
100
AcDbEntity
  8
UMCL1
  6
Continuous
100
AcDbLine
 10
140.7192771843206
 20
585.6898566889757
 30
0.0
 11
140.7192771843206
 21
601.6898566889757
 31
0.0
  0
LINE
  5
6AAB
330
1E
100
AcDbEntity
  8
UMCL1
  6
Continuous
100
AcDbLine
 10
140.1192771843202
 20
600.997016042325
 30
0.0
 11
140.1192771843202
 21
586.3826973356261
 31
0.0
  0
CIRCLE
  5
6AAC
330
1E
100
AcDbEntity
  8
UMCL1
  6
Continuous
100
AcDbCircle
 10
117.6192771843202
 20
600.6898566889757
 30
0.0
 40
7.0
  0
LINE
  5
6AAD
330
1E
100
AcDbEntity
  8
CENTER
  6
CENTER
100
AcDbLine
 10
108.6192771843202
 20
600.6898566889757
 30
0.0
 11
126.6192771843202
 21
600.6898566889755
 31
0.0
  0
LINE
  5
6AAE
330
1E
100
AcDbEntity
  8
CENTER
  6
CENTER
100
AcDbLine
 10
117.6192771843202
 20
591.6898566889757
 30
0.0
 11
117.6192771843202
 21
609.6898566889757
 31
0.0
  0
LINE
  5
6AAF
330
1E
100
AcDbEntity
  8
CENTER
  6
CENTER
100
AcDbLine
 10
117.6192771843202
 20
684.6898566889755
 30
0.0
 11
117.6192771843202
 21
666.6898566889757
 31
0.0
  0
LINE
  5
6AB0
330
1E
100
AcDbEntity
  8
CENTER
  6
CENTER
100
AcDbLine
 10
108.6192771843202
 20
675.6898566889757
 30
0.0
 11
126.6192771843202
 21
675.6898566889757
 31
0.0
  0
CIRCLE
  5
6AB1
330
1E
100
AcDbEntity
  8
UMCL1
  6
Continuous
100
AcDbCircle
 10
117.6192771843202
 20
675.6898566889757
 30
0.0
 40
7.0
  0
LINE
  5
6AB2
330
1E
100
AcDbEntity
  8
UMCL1
  6
Continuous
100
AcDbLine
 10
140.1192771843202
 20
675.3826973356261
 30
0.0
 11
140.1192771843202
 21
689.9970160423253
 31
0.0
  0
LINE
  5
6AB3
330
1E
100
AcDbEntity
  8
UMCL1
  6
Continuous
100
AcDbLine
 10
140.7192771843206
 20
690.6898566889757
 30
0.0
 11
140.7192771843206
 21
674.6898566889757
 31
0.0
  0
LINE
  5
6AB4
330
1E
100
AcDbEntity
  8
UMCL1
  6
Continuous
100
AcDbLine
 10
140.1192771843202
 20
675.3826973356261
 30
0.0
 11
140.7192771843206
 21
674.6898566889757
 31
0.0
  0
LINE
  5
6AB5
330
1E
100
AcDbEntity
  8
UMCL1
  6
Continuous
100
AcDbLine
 10
140.1192771843202
 20
689.9970160423253
 30
0.0
 11
140.7192771843206
 21
690.6898566889757
 31
0.0
  0
LINE
  5
6AB6
330
1E
100
AcDbEntity
  8
UMCL1
100
AcDbLine
 10
102.6192771843202
 20
583.6898566889757
 30
0.0
 11
102.6192771843202
 21
692.6898566889757
 31
0.0
  0
LINE
  5
6AB7
330
1E
100
AcDbEntity
  8
UMCL1
100
AcDbLine
 10
524.6192771843202
 20
350.4815968488553
 30
0.0
 11
476.6192771843202
 21
350.4815968488553
 31
0.0
  0
LINE
  5
6AB8
330
1E
100
AcDbEntity
  8
UMCL1
100
AcDbLine
 10
524.6192771843202
 20
344.4815968488553
 30
0.0
 11
476.6192771843202
 21
344.4815968488553
 31
0.0
  0
LINE
  5
6AB9
330
1E
100
AcDbEntity
  8
UMCL1
  6
Continuous
100
AcDbLine
 10
486.5192771843198
 20
362.9815968488553
 30
0.0
 11
486.5192771843198
 21
378.9815968488552
 31
0.0
  0
LINE
  5
6ABA
330
1E
100
AcDbEntity
  8
UMCL1
  6
Continuous
100
AcDbLine
 10
487.1192771843202
 20
378.2887562022048
 30
0.0
 11
487.1192771843202
 21
363.6744374955057
 31
0.0
  0
LINE
  5
6ABB
330
1E
100
AcDbEntity
  8
UMCL1
100
AcDbLine
 10
474.6192771843202
 20
392.4815968488553
 30
0.0
 11
474.6192771843202
 21
352.4815968488553
 31
0.0
  0
LINE
  5
6ABC
330
1E
100
AcDbEntity
  8
UMCL1
  6
Continuous
100
AcDbLine
 10
477.1192771843202
 20
361.7815968488545
 30
0.0
 11
477.1192771843202
 21
380.1815968488542
 31
0.0
  0
LINE
  5
6ABD
330
1E
100
AcDbEntity
  8
UMCL1
100
AcDbLine
 10
468.6192771843202
 20
392.4815968488553
 30
0.0
 11
468.6192771843202
 21
352.4815968488553
 31
0.0
  0
ARC
  5
6ABE
330
1E
100
AcDbEntity
  8
UMCL1
100
AcDbCircle
 10
476.6192771843202
 20
352.4815968488553
 30
0.0
 40
2.0
100
AcDbArc
 50
180.0
 51
270.0
  0
ARC
  5
6ABF
330
1E
100
AcDbEntity
  8
UMCL1
100
AcDbCircle
 10
476.6192771843202
 20
352.4815968488553
 30
0.0
 40
8.0
100
AcDbArc
 50
180.0
 51
270.0
  0
LINE
  5
6AC0
330
1E
100
AcDbEntity
  8
UMCL1
  6
Continuous
100
AcDbLine
 10
486.5192771843198
 20
362.9815968488553
 30
0.0
 11
477.1192771843202
 21
362.9815968488553
 31
0.0
  0
LINE
  5
6AC1
330
1E
100
AcDbEntity
  8
UMCL1
  6
Continuous
100
AcDbLine
 10
474.6192771843202
 20
361.7815968488545
 30
0.0
 11
477.1192771843202
 21
361.7815968488545
 31
0.0
  0
LINE
  5
6AC2
330
1E
100
AcDbEntity
  8
UMCL1
  6
Continuous
100
AcDbLine
 10
487.1192771843202
 20
363.6744374955057
 30
0.0
 11
486.5192771843198
 21
362.9815968488553
 31
0.0
  0
LINE
  5
6AC3
330
1E
100
AcDbEntity
  8
UMCL1
  6
Continuous
100
AcDbLine
 10
474.6192771843202
 20
371.8149301821892
 30
0.0
 11
477.1192771843202
 21
370.1482635155213
 31
0.0
  0
LINE
  5
6AC4
330
1E
100
AcDbEntity
  8
UMCL1
100
AcDbLine
 10
474.6192771843202
 20
392.4815968488553
 30
0.0
 11
468.6192771843202
 21
392.4815968488553
 31
0.0
  0
LINE
  5
6AC5
330
1E
100
AcDbEntity
  8
UMCL1
  6
Continuous
100
AcDbLine
 10
486.5192771843198
 20
378.9815968488552
 30
0.0
 11
477.1192771843202
 21
378.9815968488552
 31
0.0
  0
LINE
  5
6AC6
330
1E
100
AcDbEntity
  8
UMCL1
  6
Continuous
100
AcDbLine
 10
477.1192771843202
 20
380.1815968488542
 30
0.0
 11
474.6192771843202
 21
380.1815968488542
 31
0.0
  0
LINE
  5
6AC7
330
1E
100
AcDbEntity
  8
UMCL1
  6
Continuous
100
AcDbLine
 10
487.1192771843202
 20
378.2887562022048
 30
0.0
 11
486.5192771843198
 21
378.9815968488552
 31
0.0
  0
LINE
  5
6AC8
330
1E
100
AcDbEntity
  8
UMCL2
  6
Continuous
100
AcDbLine
 10
525.6192771843202
 20
344.4815968488553
 30
0.0
 11
533.6192771843202
 21
344.4815968488553
 31
0.0
  0
LINE
  5
6AC9
330
1E
100
AcDbEntity
  8
UMCL2
  6
Continuous
100
AcDbLine
 10
525.6192771843202
 20
350.4815968488553
 30
0.0
 11
533.6192771843202
 21
350.4815968488553
 31
0.0
  0
LINE
  5
6ACA
330
1E
100
AcDbEntity
  8
CENTER
  6
CENTER
100
AcDbLine
 10
509.6192771843202
 20
342.4815968488553
 30
0.0
 11
509.6192771843202
 21
352.4815968488553
 31
0.0
  0
LINE
  5
6ACB
330
1E
100
AcDbEntity
  8
UMCL1
  6
HIDDEN
 62
     2
100
AcDbLine
 10
503.6192771843202
 20
344.4815968488553
 30
0.0
 11
503.6192771843202
 21
350.4815968488553
 31
0.0
  0
LINE
  5
6ACC
330
1E
100
AcDbEntity
  8
UMCL1
  6
HIDDEN
 62
     2
100
AcDbLine
 10
515.6192771843202
 20
344.4815968488553
 30
0.0
 11
515.6192771843202
 21
350.4815968488553
 31
0.0
  0
LINE
  5
6ACD
330
1E
100
AcDbEntity
  8
UMCL1
100
AcDbLine
 10
524.6192771843202
 20
350.4815968488553
 30
0.0
 11
524.6192771843202
 21
344.4815968488553
 31
0.0
  0
SOLID
  5
6ACE
330
1E
100
AcDbEntity
  8
UMCL2
  6
Continuous
100
AcDbTrace
 10
532.1192771843202
 20
353.4815968488552
 30
0.0
 11
533.1192771843202
 21
353.4815968488552
 31
0.0
 12
532.6192771843202
 22
350.4815968488553
 32
0.0
 13
532.6192771843202
 23
350.4815968488553
 33
0.0
  0
SOLID
  5
6ACF
330
1E
100
AcDbEntity
  8
UMCL2
  6
Continuous
100
AcDbTrace
 10
532.1192771843202
 20
341.4815968488552
 30
0.0
 11
533.1192771843202
 21
341.4815968488552
 31
0.0
 12
532.6192771843202
 22
344.4815968488553
 32
0.0
 13
532.6192771843202
 23
344.4815968488553
 33
0.0
  0
LINE
  5
6AD0
330
1E
100
AcDbEntity
  8
UMCL2
  6
Continuous
100
AcDbLine
 10
532.6192771843202
 20
339.1596294758368
 30
0.0
 11
532.6192771843202
 21
350.4815968488553
 31
0.0
  0
LINE
  5
6AD1
330
1E
100
AcDbEntity
  8
UMCL2
  6
Continuous
100
AcDbLine
 10
532.6192771843202
 20
353.4815968488552
 30
0.0
 11
532.6192771843202
 21
356.4815968488553
 31
0.0
  0
TEXT
  5
6AD2
330
1E
100
AcDbEntity
  8
UMCL2
  6
Continuous
100
AcDbText
 10
531.1192771843202
 20
354.5520367430586
 30
0.0
 40
3.0
  1
6
 50
90.0
  7
ROMANSS
 72
     1
 11
529.6192771843202
 21
355.48060817163
 31
0.0
100
AcDbText
 73
     2
  0
LINE
  5
6AD3
330
1E
100
AcDbEntity
  8
UMCL2
  6
Continuous
100
AcDbLine
 10
101.6192771843202
 20
344.4815968488553
 30
0.0
 11
93.61927718432026
 21
344.4815968488553
 31
0.0
  0
LINE
  5
6AD4
330
1E
100
AcDbEntity
  8
UMCL2
  6
Continuous
100
AcDbLine
 10
101.6192771843202
 20
350.4815968488553
 30
0.0
 11
94.55096179095425
 21
350.4815968488553
 31
0.0
  0
LINE
  5
6AD5
330
1E
100
AcDbEntity
  8
UMCL2
  6
Continuous
100
AcDbLine
 10
95.76506478300506
 20
341.4815968488552
 30
0.0
 11
95.76506478300506
 21
338.4815968488553
 31
0.0
  0
SOLID
  5
6AD6
330
1E
100
AcDbEntity
  8
UMCL2
  6
Continuous
100
AcDbTrace
 10
96.26506478300507
 20
353.4815968488552
 30
0.0
 11
95.26506478300508
 21
353.4815968488552
 31
0.0
 12
95.76506478300506
 22
350.4815968488553
 32
0.0
 13
95.76506478300506
 23
350.4815968488553
 33
0.0
  0
SOLID
  5
6AD7
330
1E
100
AcDbEntity
  8
UMCL2
  6
Continuous
100
AcDbTrace
 10
96.26506478300507
 20
341.4815968488552
 30
0.0
 11
95.26506478300508
 21
341.4815968488552
 31
0.0
 12
95.76506478300506
 22
344.4815968488553
 32
0.0
 13
95.76506478300506
 23
344.4815968488553
 33
0.0
  0
LINE
  5
6AD8
330
1E
100
AcDbEntity
  8
UMCL2
  6
Continuous
100
AcDbLine
 10
95.76506478300506
 20
344.4815968488553
 30
0.0
 11
95.76506478300506
 21
350.4815968488553
 31
0.0
  0
TEXT
  5
6AD9
330
1E
100
AcDbEntity
  8
UMCL2
  6
Continuous
100
AcDbText
 10
94.26506478300508
 20
354.5520367430586
 30
0.0
 40
3.0
  1
6
 50
90.0
  7
ROMANSS
 72
     1
 11
92.76506478300508
 21
355.48060817163
 31
0.0
100
AcDbText
 73
     2
  0
LINE
  5
6ADA
330
1E
100
AcDbEntity
  8
UMCL2
  6
Continuous
100
AcDbLine
 10
95.76506478300506
 20
353.4815968488552
 30
0.0
 11
95.76506478300506
 21
356.4815968488553
 31
0.0
  0
LINE
  5
6ADB
330
1E
100
AcDbEntity
  8
UMCL1
100
AcDbLine
 10
152.6192771843202
 20
392.4815968488553
 30
0.0
 11
152.6192771843202
 21
352.4815968488553
 31
0.0
  0
LINE
  5
6ADC
330
1E
100
AcDbEntity
  8
UMCL1
  6
Continuous
100
AcDbLine
 10
150.1192771843202
 20
361.7815968488545
 30
0.0
 11
150.1192771843202
 21
380.1815968488542
 31
0.0
  0
LINE
  5
6ADD
330
1E
100
AcDbEntity
  8
UMCL1
100
AcDbLine
 10
158.6192771843202
 20
392.4815968488553
 30
0.0
 11
158.6192771843202
 21
352.4815968488553
 31
0.0
  0
LINE
  5
6ADE
330
1E
100
AcDbEntity
  8
UMCL1
100
AcDbLine
 10
102.6192771843202
 20
350.4815968488553
 30
0.0
 11
150.6192771843202
 21
350.4815968488553
 31
0.0
  0
LINE
  5
6ADF
330
1E
100
AcDbEntity
  8
UMCL1
100
AcDbLine
 10
102.6192771843202
 20
344.4815968488553
 30
0.0
 11
150.6192771843202
 21
344.4815968488553
 31
0.0
  0
LINE
  5
6AE0
330
1E
100
AcDbEntity
  8
UMCL2
  6
Continuous
100
AcDbLine
 10
117.6192771843202
 20
341.4815968488555
 30
0.0
 11
117.6192771843202
 21
335.4815968488552
 31
0.0
  0
LINE
  5
6AE1
330
1E
100
AcDbEntity
  8
UMCL1
100
AcDbLine
 10
102.6192771843202
 20
350.4815968488553
 30
0.0
 11
102.6192771843202
 21
344.4815968488553
 31
0.0
  0
LINE
  5
6AE2
330
1E
100
AcDbEntity
  8
UMCL1
  6
HIDDEN
 62
     2
100
AcDbLine
 10
111.6192771843202
 20
344.4815968488553
 30
0.0
 11
111.6192771843202
 21
350.4815968488553
 31
0.0
  0
LINE
  5
6AE3
330
1E
100
AcDbEntity
  8
UMCL1
 62
     3
100
AcDbLine
 10
117.6192771843202
 20
342.4815968488555
 30
0.0
 11
117.6192771843202
 21
352.4815968488553
 31
0.0
  0
LINE
  5
6AE4
330
1E
100
AcDbEntity
  8
UMCL1
  6
HIDDEN
 62
     2
100
AcDbLine
 10
123.6192771843202
 20
344.4815968488553
 30
0.0
 11
123.6192771843202
 21
350.4815968488553
 31
0.0
  0
LINE
  5
6AE5
330
1E
100
AcDbEntity
  8
UMCL1
  6
Continuous
100
AcDbLine
 10
152.6192771843202
 20
361.7815968488545
 30
0.0
 11
150.1192771843202
 21
361.7815968488545
 31
0.0
  0
ARC
  5
6AE6
330
1E
100
AcDbEntity
  8
UMCL1
100
AcDbCircle
 10
150.6192771843202
 20
352.4815968488553
 30
0.0
 40
2.0
100
AcDbArc
 50
270.0
 51
0.0
  0
ARC
  5
6AE7
330
1E
100
AcDbEntity
  8
UMCL1
100
AcDbCircle
 10
150.6192771843202
 20
352.4815968488553
 30
0.0
 40
8.0
100
AcDbArc
 50
270.0
 51
0.0
  0
LINE
  5
6AE8
330
1E
100
AcDbEntity
  8
UMCL1
  6
Continuous
100
AcDbLine
 10
150.1192771843202
 20
380.1815968488542
 30
0.0
 11
152.6192771843202
 21
380.1815968488542
 31
0.0
  0
LINE
  5
6AE9
330
1E
100
AcDbEntity
  8
UMCL1
  6
Continuous
100
AcDbLine
 10
152.6192771843202
 20
371.8149301821892
 30
0.0
 11
150.1192771843202
 21
370.1482635155213
 31
0.0
  0
LINE
  5
6AEA
330
1E
100
AcDbEntity
  8
UMCL1
  6
Continuous
100
AcDbLine
 10
140.7192771843206
 20
362.9815968488553
 30
0.0
 11
140.7192771843206
 21
378.9815968488552
 31
0.0
  0
LINE
  5
6AEB
330
1E
100
AcDbEntity
  8
UMCL1
  6
Continuous
100
AcDbLine
 10
140.1192771843202
 20
378.2887562022048
 30
0.0
 11
140.1192771843202
 21
363.6744374955057
 31
0.0
  0
LINE
  5
6AEC
330
1E
100
AcDbEntity
  8
UMCL1
  6
Continuous
100
AcDbLine
 10
140.7192771843206
 20
362.9815968488553
 30
0.0
 11
150.1192771843202
 21
362.9815968488553
 31
0.0
  0
LINE
  5
6AED
330
1E
100
AcDbEntity
  8
UMCL1
  6
Continuous
100
AcDbLine
 10
140.1192771843202
 20
363.6744374955057
 30
0.0
 11
140.7192771843206
 21
362.9815968488553
 31
0.0
  0
LINE
  5
6AEE
330
1E
100
AcDbEntity
  8
UMCL1
  6
Continuous
100
AcDbLine
 10
140.7192771843206
 20
378.9815968488552
 30
0.0
 11
150.1192771843202
 21
378.9815968488552
 31
0.0
  0
LINE
  5
6AEF
330
1E
100
AcDbEntity
  8
UMCL1
  6
Continuous
100
AcDbLine
 10
140.1192771843202
 20
378.2887562022048
 30
0.0
 11
140.7192771843206
 21
378.9815968488552
 31
0.0
  0
LINE
  5
6AF0
330
1E
100
AcDbEntity
  8
UMCL1
100
AcDbLine
 10
152.6192771843202
 20
392.4815968488553
 30
0.0
 11
158.6192771843202
 21
392.4815968488553
 31
0.0
  0
LINE
  5
6AF1
330
1E
100
AcDbEntity
  8
CENTER
  6
CENTER
100
AcDbLine
 10
830.3557158587674
 20
361.4815968488553
 30
0.0
 11
830.3557158587674
 21
380.4815968488552
 31
0.0
  0
LINE
  5
6AF2
330
1E
100
AcDbEntity
  8
CENTER
  6
CENTER
100
AcDbLine
 10
741.3557158587678
 20
359.9137218964774
 30
0.0
 11
741.3557158587673
 21
382.1018481383543
 31
0.0
  0
LINE
  5
6AF3
330
1E
100
AcDbEntity
  8
UMCL1
100
AcDbLine
 10
843.3557158587678
 20
344.4815968488553
 30
0.0
 11
728.3557158587673
 21
344.4815968488553
 31
0.0
  0
LINE
  5
6AF4
330
1E
100
AcDbEntity
  8
UMCL1
100
AcDbLine
 10
843.3557158587673
 20
350.4815968488553
 30
0.0
 11
728.3557158587673
 21
350.4815968488553
 31
0.0
  0
LINE
  5
6AF5
330
1E
100
AcDbEntity
  8
CENTER
  6
CENTER
100
AcDbLine
 10
752.4520620657463
 20
370.9815968488552
 30
0.0
 11
729.8664700044896
 21
370.9815968488552
 31
0.0
  0
LINE
  5
6AF6
330
1E
100
AcDbEntity
  8
UMCL1
100
AcDbLine
 10
741.3557158587673
 20
344.4815968488553
 30
0.0
 11
741.3557158587673
 21
350.4815968488553
 31
0.0
  0
LINE
  5
6AF7
330
1E
100
AcDbEntity
  8
CENTER
  6
CENTER
100
AcDbLine
 10
748.3557158587673
 20
341.4815968488552
 30
0.0
 11
748.3557158587673
 21
353.4815968488552
 31
0.0
  0
LINE
  5
6AF8
330
1E
100
AcDbEntity
  8
UMCL1
100
AcDbLine
 10
755.3557158587673
 20
344.4815968488553
 30
0.0
 11
755.3557158587673
 21
350.4815968488553
 31
0.0
  0
LINE
  5
6AF9
330
1E
100
AcDbEntity
  8
CENTER
  6
CENTER
100
AcDbLine
 10
823.3557158587673
 20
341.4815968488552
 30
0.0
 11
823.3557158587673
 21
353.4815968488552
 31
0.0
  0
LINE
  5
6AFA
330
1E
100
AcDbEntity
  8
UMCL1
100
AcDbLine
 10
816.3557158587673
 20
344.4815968488553
 30
0.0
 11
816.3557158587668
 21
350.4815968488553
 31
0.0
  0
LINE
  5
6AFB
330
1E
100
AcDbEntity
  8
UMCL1
100
AcDbLine
 10
830.3557158587674
 20
344.4815968488553
 30
0.0
 11
830.3557158587674
 21
350.4815968488553
 31
0.0
  0
LINE
  5
6AFC
330
1E
100
AcDbEntity
  8
CENTER
  6
CENTER
100
AcDbLine
 10
839.8557158587673
 20
370.9815968488552
 30
0.0
 11
820.8557158587673
 21
370.9815968488552
 31
0.0
  0
LINE
  5
6AFD
330
1E
100
AcDbEntity
  8
UMCL1
100
AcDbLine
 10
843.3557158587673
 20
392.4815968488553
 30
0.0
 11
824.8557158587672
 21
392.4815968488553
 31
0.0
  0
LINE
  5
6AFE
330
1E
100
AcDbEntity
  8
UMCL1
100
AcDbLine
 10
746.8557158587673
 20
392.4815968488553
 30
0.0
 11
728.3557158587673
 21
392.4815968488553
 31
0.0
  0
CIRCLE
  5
6AFF
330
1E
100
AcDbEntity
  8
UMCL1
  6
Continuous
100
AcDbCircle
 10
509.61927718432
 20
675.6898566889757
 30
0.0
 40
7.0
  0
LINE
  5
6B00
330
1E
100
AcDbEntity
  8
CENTER
  6
CENTER
100
AcDbLine
 10
520.8802630147058
 20
675.6898566889757
 30
0.0
 11
498.3507654030793
 21
675.6898566889757
 31
0.0
  0
LINE
  5
6B01
330
1E
100
AcDbEntity
  8
CENTER
  6
CENTER
100
AcDbLine
 10
521.1422339171668
 20
600.6898566889757
 30
0.0
 11
498.6127363055402
 21
600.6898566889758
 31
0.0
  0
CIRCLE
  5
6B02
330
1E
100
AcDbEntity
  8
UMCL1
  6
Continuous
100
AcDbCircle
 10
509.61927718432
 20
600.6898566889757
 30
0.0
 40
7.0
  0
LINE
  5
6B03
330
1E
100
AcDbEntity
  8
UMCL1
100
AcDbLine
 10
474.6192771843202
 20
580.6898566889757
 30
0.0
 11
474.6192771843202
 21
600.1898566889757
 31
0.0
  0
LINE
  5
6B04
330
1E
100
AcDbEntity
  8
UMCL1
  6
Continuous
100
AcDbLine
 10
477.11927718432
 20
584.4898566889749
 30
0.0
 11
477.1192771843198
 21
600.1898566889757
 31
0.0
  0
LINE
  5
6B05
330
1E
100
AcDbEntity
  8
UMCL1
  6
Continuous
100
AcDbLine
 10
487.11927718432
 20
600.9970160423253
 30
0.0
 11
487.11927718432
 21
586.3826973356261
 31
0.0
  0
LINE
  5
6B06
330
1E
100
AcDbEntity
  8
UMCL1
  6
Continuous
100
AcDbLine
 10
486.5192771843196
 20
585.6898566889757
 30
0.0
 11
486.5192771843196
 21
601.6898566889757
 31
0.0
  0
LINE
  5
6B07
330
1E
100
AcDbEntity
  8
UMCL1
  6
Continuous
100
AcDbLine
 10
486.5192771843196
 20
585.6898566889757
 30
0.0
 11
477.11927718432
 21
585.6898566889757
 31
0.0
  0
LINE
  5
6B08
330
1E
100
AcDbEntity
  8
UMCL1
  6
Continuous
100
AcDbLine
 10
474.61927718432
 20
584.4898566889749
 30
0.0
 11
477.11927718432
 21
584.4898566889749
 31
0.0
  0
LINE
  5
6B09
330
1E
100
AcDbEntity
  8
UMCL1
  6
Continuous
100
AcDbLine
 10
487.11927718432
 20
586.3826973356261
 30
0.0
 11
486.5192771843196
 21
585.6898566889757
 31
0.0
  0
LINE
  5
6B0A
330
1E
100
AcDbEntity
  8
UMCL1
  6
Continuous
100
AcDbLine
 10
474.61927718432
 20
594.5231900223096
 30
0.0
 11
477.11927718432
 21
592.8565233556418
 31
0.0
  0
LINE
  5
6B0B
330
1E
100
AcDbEntity
  8
UMCL1
  6
Continuous
100
AcDbLine
 10
486.5192771843196
 20
601.6898566889757
 30
0.0
 11
483.6192771843202
 21
601.6898566889757
 31
0.0
  0
LINE
  5
6B0C
330
1E
100
AcDbEntity
  8
UMCL1
  6
Continuous
100
AcDbLine
 10
487.11927718432
 20
600.9970160423253
 30
0.0
 11
486.5192771843196
 21
601.6898566889757
 31
0.0
  0
LINE
  5
6B0D
330
1E
100
AcDbEntity
  8
UMCL1
  6
Continuous
100
AcDbLine
 10
487.11927718432
 20
675.3826973356261
 30
0.0
 11
487.11927718432
 21
689.9970160423253
 31
0.0
  0
LINE
  5
6B0E
330
1E
100
AcDbEntity
  8
UMCL1
  6
Continuous
100
AcDbLine
 10
486.5192771843196
 20
690.6898566889757
 30
0.0
 11
486.5192771843196
 21
674.6898566889757
 31
0.0
  0
LINE
  5
6B0F
330
1E
100
AcDbEntity
  8
UMCL1
  6
Continuous
100
AcDbLine
 10
477.11927718432
 20
691.8898566889764
 30
0.0
 11
477.11927718432
 21
676.1898566889757
 31
0.0
  0
LINE
  5
6B10
330
1E
100
AcDbEntity
  8
UMCL1
  6
Continuous
100
AcDbLine
 10
486.5192771843196
 20
674.6898566889757
 30
0.0
 11
483.6192771843202
 21
674.6898566889757
 31
0.0
  0
LINE
  5
6B11
330
1E
100
AcDbEntity
  8
UMCL1
  6
Continuous
100
AcDbLine
 10
487.11927718432
 20
675.3826973356261
 30
0.0
 11
486.5192771843196
 21
674.6898566889757
 31
0.0
  0
LINE
  5
6B12
330
1E
100
AcDbEntity
  8
UMCL1
  6
Continuous
100
AcDbLine
 10
486.5192771843196
 20
690.6898566889757
 30
0.0
 11
477.11927718432
 21
690.6898566889757
 31
0.0
  0
LINE
  5
6B13
330
1E
100
AcDbEntity
  8
UMCL1
  6
Continuous
100
AcDbLine
 10
474.61927718432
 20
691.8898566889764
 30
0.0
 11
477.11927718432
 21
691.8898566889764
 31
0.0
  0
LINE
  5
6B14
330
1E
100
AcDbEntity
  8
UMCL1
  6
Continuous
100
AcDbLine
 10
474.61927718432
 20
681.8565233556418
 30
0.0
 11
477.11927718432
 21
683.5231900223097
 31
0.0
  0
LINE
  5
6B15
330
1E
100
AcDbEntity
  8
UMCL1
  6
Continuous
100
AcDbLine
 10
487.11927718432
 20
689.9970160423253
 30
0.0
 11
486.5192771843196
 21
690.6898566889757
 31
0.0
  0
LINE
  5
6B16
330
1E
100
AcDbEntity
  8
UMCL1
100
AcDbLine
 10
524.61927718432
 20
583.6898566889757
 30
0.0
 11
524.61927718432
 21
613.1898566889757
 31
0.0
  0
LINE
  5
6B17
330
1E
100
AcDbEntity
  8
CENTER
  6
CENTER
100
AcDbLine
 10
509.6192771843198
 20
589.8867745474334
 30
0.0
 11
509.61927718432
 21
612.4184167420246
 31
0.0
  0
LINE
  5
6B18
330
1E
100
AcDbEntity
  8
CENTER
  6
CENTER
100
AcDbLine
 10
509.61927718432
 20
686.81600845792
 30
0.0
 11
509.61927718432
 21
664.8125972341794
 31
0.0
  0
LINE
  5
6B19
330
1E
100
AcDbEntity
  8
UMCL1
100
AcDbLine
 10
524.61927718432
 20
663.1898566889757
 30
0.0
 11
524.61927718432
 21
692.6898566889757
 31
0.0
  0
ARC
  5
6B1A
330
1E
100
AcDbEntity
  8
UMCL1
  6
Continuous
100
AcDbCircle
 10
521.61927718432
 20
692.6898566889757
 30
0.0
 40
3.0
100
AcDbArc
 50
0.0
 51
90.0
  0
ARC
  5
6B1B
330
1E
100
AcDbEntity
  8
UMCL1
  6
Continuous
100
AcDbCircle
 10
521.61927718432
 20
583.6898566889757
 30
0.0
 40
3.0
100
AcDbArc
 50
270.0
 51
0.0
  0
LINE
  5
6B1C
330
1E
100
AcDbEntity
  8
UMCL1
100
AcDbLine
 10
474.6192771843202
 20
676.1898566889757
 30
0.0
 11
474.61927718432
 21
695.6898566889757
 31
0.0
  0
ARC
  5
6B1D
330
1E
100
AcDbEntity
  8
UMCL1
  6
Continuous
100
AcDbCircle
 10
105.6192771843202
 20
692.6898566889757
 30
0.0
 40
3.0
100
AcDbArc
 50
90.0
 51
180.0
  0
ARC
  5
6B1E
330
1E
100
AcDbEntity
  8
UMCL1
  6
Continuous
100
AcDbCircle
 10
105.6192771843202
 20
583.6898566889757
 30
0.0
 40
3.0
100
AcDbArc
 50
180.0
 51
270.0
  0
LINE
  5
6B1F
330
1E
100
AcDbEntity
  8
UMCL1
  6
Continuous
100
AcDbLine
 10
152.6192771843202
 20
654.7898566889756
 30
0.0
 11
158.6192771843202
 21
654.7898566889756
 31
0.0
  0
LINE
  5
6B20
330
1E
100
AcDbEntity
  8
UMCL1
  6
Continuous
100
AcDbLine
 10
152.6192771843202
 20
621.5898566889755
 30
0.0
 11
158.6192771843202
 21
621.5898566889755
 31
0.0
  0
LINE
  5
6B21
330
1E
100
AcDbEntity
  8
UMCL1
  6
Continuous
100
AcDbLine
 10
752.8557158587673
 20
376.4815968488552
 30
0.0
 11
818.8557158587673
 21
376.4815968488552
 31
0.0
  0
LINE
  5
6B22
330
1E
100
AcDbEntity
  8
UMCL1
  6
Continuous
100
AcDbLine
 10
746.8557158587673
 20
382.4815968488552
 30
0.0
 11
746.8557158587673
 21
392.4815968488553
 31
0.0
  0
LINE
  5
6B23
330
1E
100
AcDbEntity
  8
UMCL1
  6
Continuous
100
AcDbLine
 10
824.8557158587672
 20
382.4815968488552
 30
0.0
 11
824.8557158587672
 21
392.4815968488553
 31
0.0
  0
LINE
  5
6B24
330
1E
100
AcDbEntity
  8
UMCL1
  6
Continuous
100
AcDbLine
 10
746.8557158587673
 20
382.4815968488552
 30
0.0
 11
752.8557158587673
 21
376.4815968488552
 31
0.0
  0
LINE
  5
6B25
330
1E
100
AcDbEntity
  8
UMCL1
  6
Continuous
100
AcDbLine
 10
824.8557158587672
 20
382.4815968488552
 30
0.0
 11
818.8557158587673
 21
376.4815968488552
 31
0.0
  0
LINE
  5
6B26
330
1E
100
AcDbEntity
  8
CENTER
  6
CENTER
100
AcDbLine
 10
-34.92565261518712
 20
480.9644587813089
 30
0.0
 11
-34.92565261518712
 21
340.9945851493479
 31
0.0
  0
LINE
  5
6B27
330
1E
100
AcDbEntity
  8
UMCL1
100
AcDbLine
 10
22.57434738481288
 20
350.4815968488553
 30
0.0
 11
-92.42565261518711
 21
350.4815968488553
 31
0.0
  0
LINE
  5
6B28
330
1E
100
AcDbEntity
  8
UMCL1
100
AcDbLine
 10
22.57434738481334
 20
344.4815968488553
 30
0.0
 11
-92.4256526151869
 21
344.4815968488553
 31
0.0
  0
LINE
  5
6B29
330
1E
100
AcDbEntity
  8
CENTER
  6
CENTER
100
AcDbLine
 10
-96.42565261518711
 20
415.4815968488552
 30
0.0
 11
26.57434738481288
 21
415.4815968488552
 31
0.0
  0
LINE
  5
6B2A
330
1E
100
AcDbEntity
  8
UMCL1
  6
Continuous
100
AcDbLine
 10
-83.85417190608723
 20
472.9815968488554
 30
0.0
 11
14.00286667571299
 21
472.9815968488554
 31
0.0
  0
LINE
  5
6B2B
330
1E
100
AcDbEntity
  8
UMCL1
  6
Continuous
100
AcDbLine
 10
-92.42565261518711
 20
464.4101161397555
 30
0.0
 11
-92.4256526151869
 21
344.4815968488553
 31
0.0
  0
LINE
  5
6B2C
330
1E
100
AcDbEntity
  8
CENTER
  6
CENTER
100
AcDbLine
 10
-72.42565261518689
 20
341.4815968488552
 30
0.0
 11
-72.42565261518689
 21
353.4815968488552
 31
0.0
  0
LINE
  5
6B2D
330
1E
100
AcDbEntity
  8
UMCL1
  6
HIDDEN
 62
     2
100
AcDbLine
 10
-79.42565261518712
 20
344.4815968488553
 30
0.0
 11
-79.42565261518712
 21
350.4815968488553
 31
0.0
  0
LINE
  5
6B2E
330
1E
100
AcDbEntity
  8
UMCL1
  6
HIDDEN
 62
     2
100
AcDbLine
 10
-65.42565261518689
 20
344.4815968488553
 30
0.0
 11
-65.42565261518689
 21
350.4815968488553
 31
0.0
  0
LINE
  5
6B2F
330
1E
100
AcDbEntity
  8
CENTER
  6
CENTER
100
AcDbLine
 10
-79.42565261518712
 20
472.9815968488552
 30
0.0
 11
-79.42565261518712
 21
446.9815968488553
 31
0.0
  0
ARC
  5
6B30
330
1E
100
AcDbEntity
  8
UMCL1
  6
Continuous
 62
     2
100
AcDbCircle
 10
-79.42565261518712
 20
459.9815968488552
 30
0.0
 40
5.0
100
AcDbArc
 50
66.06024884272805
 51
15.80874327065637
  0
CIRCLE
  5
6B31
330
1E
100
AcDbEntity
  8
UMCL1
  6
Continuous
100
AcDbCircle
 10
-79.42565261518712
 20
459.9815968488552
 30
0.0
 40
4.25
  0
LINE
  5
6B32
330
1E
100
AcDbEntity
  8
CENTER
  6
CENTER
100
AcDbLine
 10
-92.42565261518711
 20
459.9815968488552
 30
0.0
 11
-66.42565261518711
 21
459.9815968488554
 31
0.0
  0
ARC
  5
6B33
330
1E
100
AcDbEntity
  8
UMCL1
  6
Continuous
100
AcDbCircle
 10
-34.92565261518712
 20
415.4815968488552
 30
0.0
 40
75.5
100
AcDbArc
 50
130.3954827096304
 51
139.6045172903775
  0
LINE
  5
6B34
330
1E
100
AcDbEntity
  8
UMCL1
  6
Continuous
100
AcDbLine
 10
22.57434738481288
 20
464.4101161397555
 30
0.0
 11
22.57434738481334
 21
344.4815968488553
 31
0.0
  0
LINE
  5
6B35
330
1E
100
AcDbEntity
  8
UMCL1
  6
HIDDEN
 62
     2
100
AcDbLine
 10
-4.425652615187118
 20
344.4815968488553
 30
0.0
 11
-4.425652615187118
 21
350.4815968488553
 31
0.0
  0
LINE
  5
6B36
330
1E
100
AcDbEntity
  8
CENTER
  6
CENTER
100
AcDbLine
 10
2.574347384812881
 20
341.4815968488552
 30
0.0
 11
2.574347384812881
 21
353.4815968488552
 31
0.0
  0
LINE
  5
6B37
330
1E
100
AcDbEntity
  8
UMCL1
  6
HIDDEN
 62
     2
100
AcDbLine
 10
9.574347384812881
 20
344.4815968488553
 30
0.0
 11
9.574347384812881
 21
350.4815968488553
 31
0.0
  0
LINE
  5
6B38
330
1E
100
AcDbEntity
  8
CENTER
  6
CENTER
100
AcDbLine
 10
-3.425652615187118
 20
459.9815968488554
 30
0.0
 11
22.57434738481288
 21
459.9815968488554
 31
0.0
  0
LINE
  5
6B39
330
1E
100
AcDbEntity
  8
CENTER
  6
CENTER
100
AcDbLine
 10
9.574347384812881
 20
472.9815968488554
 30
0.0
 11
9.574347384812881
 21
446.9815968488554
 31
0.0
  0
CIRCLE
  5
6B3A
330
1E
100
AcDbEntity
  8
UMCL1
  6
Continuous
100
AcDbCircle
 10
9.574347384812881
 20
459.9815968488554
 30
0.0
 40
4.25
  0
ARC
  5
6B3B
330
1E
100
AcDbEntity
  8
UMCL1
  6
Continuous
 62
     2
100
AcDbCircle
 10
9.574347384812881
 20
459.9815968488554
 30
0.0
 40
5.0
100
AcDbArc
 50
66.06024884271549
 51
15.80874327065637
  0
ARC
  5
6B3C
330
1E
100
AcDbEntity
  8
UMCL1
  6
Continuous
100
AcDbCircle
 10
-34.92565261518712
 20
415.4815968488552
 30
0.0
 40
75.5
100
AcDbArc
 50
40.39548270962246
 51
49.6045172903696
  0
LINE
  5
6B3D
330
1E
100
AcDbEntity
  8
UMCL2
  6
Continuous
100
AcDbLine
 10
748.3557158587673
 20
340.4815968488553
 30
0.0
 11
748.3557158587673
 21
335.4815968488552
 31
0.0
  0
LINE
  5
6B3E
330
1E
100
AcDbEntity
  8
UMCL2
  6
Continuous
100
AcDbLine
 10
823.3557158587673
 20
340.4815968488553
 30
0.0
 11
823.3557158587673
 21
335.4815968488552
 31
0.0
  0
LINE
  5
6B3F
330
1E
100
AcDbEntity
  8
UMCL2
  6
Continuous
100
AcDbLine
 10
751.3557158587673
 20
336.4815968488553
 30
0.0
 11
820.3557158587672
 21
336.4815968488553
 31
0.0
  0
SOLID
  5
6B40
330
1E
100
AcDbEntity
  8
UMCL2
  6
Continuous
100
AcDbTrace
 10
751.3557158587673
 20
336.9815968488552
 30
0.0
 11
751.3557158587673
 21
335.9815968488553
 31
0.0
 12
748.3557158587673
 22
336.4815968488553
 32
0.0
 13
748.3557158587673
 23
336.4815968488553
 33
0.0
  0
SOLID
  5
6B41
330
1E
100
AcDbEntity
  8
UMCL2
  6
Continuous
100
AcDbTrace
 10
820.3557158587672
 20
336.9815968488552
 30
0.0
 11
820.3557158587672
 21
335.9815968488553
 31
0.0
 12
823.3557158587673
 22
336.4815968488553
 32
0.0
 13
823.3557158587673
 23
336.4815968488553
 33
0.0
  0
TEXT
  5
6B42
330
1E
100
AcDbEntity
  8
UMCL2
  6
Continuous
100
AcDbText
 10
783.4271444301958
 20
337.9815968488553
 30
0.0
 40
3.0
  1
75
  7
ROMANSS
 72
     1
 11
785.8557158587673
 21
339.4815968488552
 31
0.0
100
AcDbText
 73
     2
  0
LINE
  5
6B43
330
1E
100
AcDbEntity
  8
UMCL2
  6
Continuous
100
AcDbLine
 10
728.3557158587673
 20
343.4815968488552
 30
0.0
 11
728.3557158587673
 21
327.4815968488553
 31
0.0
  0
LINE
  5
6B44
330
1E
100
AcDbEntity
  8
UMCL2
  6
Continuous
100
AcDbLine
 10
843.3557158587678
 20
343.4815968488552
 30
0.0
 11
843.3557158587678
 21
327.4815968488553
 31
0.0
  0
LINE
  5
6B45
330
1E
100
AcDbEntity
  8
UMCL2
  6
Continuous
100
AcDbLine
 10
731.3557158587673
 20
328.4815968488552
 30
0.0
 11
840.3557158587677
 21
328.4815968488552
 31
0.0
  0
SOLID
  5
6B46
330
1E
100
AcDbEntity
  8
UMCL2
  6
Continuous
100
AcDbTrace
 10
731.3557158587673
 20
328.9815968488552
 30
0.0
 11
731.3557158587673
 21
327.9815968488553
 31
0.0
 12
728.3557158587673
 22
328.4815968488552
 32
0.0
 13
728.3557158587673
 23
328.4815968488552
 33
0.0
  0
SOLID
  5
6B47
330
1E
100
AcDbEntity
  8
UMCL2
  6
Continuous
100
AcDbTrace
 10
840.3557158587677
 20
328.9815968488552
 30
0.0
 11
840.3557158587677
 21
327.9815968488553
 31
0.0
 12
843.3557158587678
 22
328.4815968488552
 32
0.0
 13
843.3557158587678
 23
328.4815968488552
 33
0.0
  0
TEXT
  5
6B48
330
1E
100
AcDbEntity
  8
UMCL2
  6
Continuous
100
AcDbText
 10
782.5700015730534
 20
329.9815968488553
 30
0.0
 40
3.0
  1
115
  7
ROMANSS
 72
     1
 11
785.8557158587678
 21
331.4815968488553
 31
0.0
100
AcDbText
 73
     2
  0
LINE
  5
6B49
330
1E
100
AcDbEntity
  8
UMCL2
  6
Continuous
100
AcDbLine
 10
844.3557158587678
 20
344.4815968488553
 30
0.0
 11
852.3557158587669
 21
344.4815968488553
 31
0.0
  0
LINE
  5
6B4A
330
1E
100
AcDbEntity
  8
UMCL2
  6
Continuous
100
AcDbLine
 10
848.3557158587668
 20
415.4815968488552
 30
0.0
 11
852.3557158587669
 21
415.4815968488552
 31
0.0
  0
LINE
  5
6B4B
330
1E
100
AcDbEntity
  8
UMCL2
  6
Continuous
100
AcDbLine
 10
851.3557158587669
 20
347.4815968488552
 30
0.0
 11
851.3557158587669
 21
412.4815968488552
 31
0.0
  0
SOLID
  5
6B4C
330
1E
100
AcDbEntity
  8
UMCL2
  6
Continuous
100
AcDbTrace
 10
850.8557158587668
 20
347.4815968488552
 30
0.0
 11
851.8557158587668
 21
347.4815968488552
 31
0.0
 12
851.3557158587669
 22
344.4815968488553
 32
0.0
 13
851.3557158587669
 23
344.4815968488553
 33
0.0
  0
SOLID
  5
6B4D
330
1E
100
AcDbEntity
  8
UMCL2
  6
Continuous
100
AcDbTrace
 10
850.8557158587668
 20
412.4815968488552
 30
0.0
 11
851.8557158587668
 21
412.4815968488552
 31
0.0
 12
851.3557158587669
 22
415.4815968488552
 32
0.0
 13
851.3557158587669
 23
415.4815968488552
 33
0.0
  0
TEXT
  5
6B4E
330
1E
100
AcDbEntity
  8
UMCL2
  6
Continuous
100
AcDbText
 10
849.8557158587669
 20
378.195882563141
 30
0.0
 40
3.0
  1
71
 50
90.0
  7
ROMANSS
 72
     1
 11
848.3557158587668
 21
379.9815968488553
 31
0.0
100
AcDbText
 73
     2
  0
LINE
  5
6B4F
330
1E
100
AcDbEntity
  8
UMCL2
  6
Continuous
100
AcDbLine
 10
844.3557158587678
 20
344.4815968488553
 30
0.0
 11
860.3557158587669
 21
344.4815968488553
 31
0.0
  0
LINE
  5
6B50
330
1E
100
AcDbEntity
  8
UMCL2
  6
Continuous
100
AcDbLine
 10
837.6591539342321
 20
472.9815968488554
 30
0.0
 11
860.3557158587669
 21
472.9815968488554
 31
0.0
  0
LINE
  5
6B51
330
1E
100
AcDbEntity
  8
UMCL2
  6
Continuous
100
AcDbLine
 10
859.3557158587669
 20
344.4815968488553
 30
0.0
 11
859.3557158587673
 21
472.9815968488554
 31
0.0
  0
SOLID
  5
6B52
330
1E
100
AcDbEntity
  8
UMCL2
  6
Continuous
100
AcDbTrace
 10
858.8557158587668
 20
347.4815968488552
 30
0.0
 11
859.8557158587668
 21
347.4815968488552
 31
0.0
 12
859.3557158587669
 22
344.4815968488553
 32
0.0
 13
859.3557158587669
 23
344.4815968488553
 33
0.0
  0
SOLID
  5
6B53
330
1E
100
AcDbEntity
  8
UMCL2
  6
Continuous
100
AcDbTrace
 10
858.8557158587668
 20
469.9815968488555
 30
0.0
 11
859.8557158587668
 21
469.9815968488555
 31
0.0
 12
859.3557158587669
 22
472.9815968488554
 32
0.0
 13
859.3557158587669
 23
472.9815968488554
 33
0.0
  0
TEXT
  5
6B54
330
1E
100
AcDbEntity
  8
UMCL2
  6
Continuous
100
AcDbText
 10
857.8557158587669
 20
405.578621779433
 30
0.0
 40
3.0
  1
128.5
 50
90.0
  7
ROMANSS
 72
     1
 11
856.3557158587668
 21
411.2929074937187
 31
0.0
100
AcDbText
 73
     2
  0
LINE
  5
6B55
330
1E
100
AcDbEntity
  8
UMCL2
  6
Continuous
100
AcDbLine
 10
117.6192771843202
 20
336.4815968488553
 30
0.0
 11
117.6192771843202
 21
337.4815968488552
 31
0.0
  0
LINE
  5
6B56
330
1E
100
AcDbEntity
  8
UMCL2
  6
Continuous
100
AcDbLine
 10
509.6192771843202
 20
341.4815968488552
 30
0.0
 11
509.6192771843202
 21
335.4815968488552
 31
0.0
  0
LINE
  5
6B57
330
1E
100
AcDbEntity
  8
UMCL2
  6
Continuous
100
AcDbLine
 10
102.6192771843202
 20
336.4815968488553
 30
0.0
 11
524.6192771843202
 21
336.4815968488553
 31
0.0
  0
SOLID
  5
6B58
330
1E
100
AcDbEntity
  8
UMCL2
  6
Continuous
100
AcDbTrace
 10
120.6192771843202
 20
336.9815968488552
 30
0.0
 11
120.6192771843202
 21
335.9815968488553
 31
0.0
 12
117.6192771843202
 22
336.4815968488553
 32
0.0
 13
117.6192771843202
 23
336.4815968488553
 33
0.0
  0
SOLID
  5
6B59
330
1E
100
AcDbEntity
  8
UMCL2
  6
Continuous
100
AcDbTrace
 10
506.6192771843202
 20
336.9815968488552
 30
0.0
 11
506.6192771843202
 21
335.9815968488553
 31
0.0
 12
509.6192771843202
 22
336.4815968488553
 32
0.0
 13
509.6192771843202
 23
336.4815968488553
 33
0.0
  0
TEXT
  5
6B5A
330
1E
100
AcDbEntity
  8
UMCL2
  6
Continuous
100
AcDbText
 10
309.7621343271774
 20
337.9815968488553
 30
0.0
 40
3.0
  1
392
  7
ROMANSS
 72
     1
 11
313.6192771843202
 21
339.4815968488552
 31
0.0
100
AcDbText
 73
     2
  0
LINE
  5
6B5B
330
1E
100
AcDbEntity
  8
UMCL2
  6
Continuous
100
AcDbLine
 10
524.6192771843202
 20
343.4815968488552
 30
0.0
 11
524.6192771843202
 21
327.4815968488553
 31
0.0
  0
LINE
  5
6B5C
330
1E
100
AcDbEntity
  8
UMCL2
  6
Continuous
100
AcDbLine
 10
105.6192771843202
 20
328.4815968488552
 30
0.0
 11
521.6192771843203
 21
328.4815968488552
 31
0.0
  0
SOLID
  5
6B5D
330
1E
100
AcDbEntity
  8
UMCL2
  6
Continuous
100
AcDbTrace
 10
105.6192771843202
 20
328.9815968488552
 30
0.0
 11
105.6192771843202
 21
327.9815968488553
 31
0.0
 12
102.6192771843202
 22
328.4815968488552
 32
0.0
 13
102.6192771843202
 23
328.4815968488552
 33
0.0
  0
SOLID
  5
6B5E
330
1E
100
AcDbEntity
  8
UMCL2
  6
Continuous
100
AcDbTrace
 10
521.6192771843203
 20
328.9815968488552
 30
0.0
 11
521.6192771843203
 21
327.9815968488553
 31
0.0
 12
524.6192771843202
 22
328.4815968488552
 32
0.0
 13
524.6192771843202
 23
328.4815968488552
 33
0.0
  0
TEXT
  5
6B5F
330
1E
100
AcDbEntity
  8
UMCL2
  6
Continuous
100
AcDbText
 10
309.7621343271774
 20
329.9815968488553
 30
0.0
 40
3.0
  1
422
  7
ROMANSS
 72
     1
 11
313.6192771843202
 21
331.4815968488553
 31
0.0
100
AcDbText
 73
     2
  0
LINE
  5
6B60
330
1E
100
AcDbEntity
  8
UMCL2
  6
Continuous
100
AcDbLine
 10
102.6192771843202
 20
343.4815968488552
 30
0.0
 11
102.6192771843202
 21
319.4815968488553
 31
0.0
  0
LINE
  5
6B61
330
1E
100
AcDbEntity
  8
UMCL2
  6
Continuous
100
AcDbLine
 10
105.6192771843202
 20
320.4815968488552
 30
0.0
 11
650.6192771843203
 21
320.4815968488552
 31
0.0
  0
SOLID
  5
6B62
330
1E
100
AcDbEntity
  8
UMCL2
  6
Continuous
100
AcDbTrace
 10
105.6192771843202
 20
320.9815968488552
 30
0.0
 11
105.6192771843202
 21
319.9815968488552
 31
0.0
 12
102.6192771843202
 22
320.4815968488552
 32
0.0
 13
102.6192771843202
 23
320.4815968488552
 33
0.0
  0
SOLID
  5
6B63
330
1E
100
AcDbEntity
  8
UMCL2
  6
Continuous
100
AcDbTrace
 10
650.6192771843203
 20
320.9815968488552
 30
0.0
 11
650.6192771843203
 21
319.9815968488552
 31
0.0
 12
653.6192771843202
 22
320.4815968488552
 32
0.0
 13
653.6192771843202
 23
320.4815968488552
 33
0.0
  0
TEXT
  5
6B64
330
1E
100
AcDbEntity
  8
UMCL2
  6
Continuous
100
AcDbText
 10
374.9049914700345
 20
321.9815968488553
 30
0.0
 40
3.0
  1
551
  7
ROMANSS
 72
     1
 11
378.1192771843203
 21
323.4815968488553
 31
0.0
100
AcDbText
 73
     2
  0
SOLID
  5
6B65
330
1E
100
AcDbEntity
  8
UMCL2
  6
Continuous
100
AcDbTrace
 10
655.2433551040444
 20
418.0530499226375
 30
0.0
 11
654.3215823276973
 21
418.4407804331543
 31
0.0
 12
653.6192771843202
 22
415.4815968488552
 32
0.0
 13
653.6192771843202
 23
415.4815968488552
 33
0.0
  0
LINE
  5
6B66
330
1E
100
AcDbEntity
  8
UMCL2
  6
Continuous
100
AcDbLine
 10
654.7824687158708
 20
418.2469151778961
 30
0.0
 11
675.0135278868879
 21
466.3433096443614
 31
0.0
  0
LINE
  5
6B67
330
1E
100
AcDbEntity
  8
UMCL2
  6
Continuous
100
AcDbLine
 10
675.0135278868879
 20
466.3433096443614
 30
0.0
 11
688.7543357084323
 21
466.3433096443615
 31
0.0
  0
TEXT
  5
6B68
330
1E
100
AcDbEntity
  8
UMCL2
  6
Continuous
100
AcDbText
 10
677.2543357084323
 20
467.8433096443614
 30
0.0
 40
3.0
  1
PT1/2
  7
ROMANSS
 11
677.2543357084323
 21
469.3433096443615
 31
0.0
100
AcDbText
 73
     2
  0
SOLID
  5
6B69
330
1E
100
AcDbEntity
  8
UMCL2
  6
Continuous
100
AcDbTrace
 10
622.6134410935042
 20
443.3518396536388
 30
0.0
 11
621.7369210536185
 21
442.8704742833859
 31
0.0
 12
623.6192771843202
 22
440.4815968488555
 32
0.0
 13
623.6192771843202
 23
440.4815968488555
 33
0.0
  0
LINE
  5
6B6A
330
1E
100
AcDbEntity
  8
UMCL2
  6
Continuous
100
AcDbLine
 10
622.1751810735614
 20
443.1111569685125
 30
0.0
 11
609.4165979657048
 21
466.3433096443615
 31
0.0
  0
LINE
  5
6B6B
330
1E
100
AcDbEntity
  8
UMCL2
  6
Continuous
100
AcDbLine
 10
609.4165979657048
 20
466.3433096443615
 30
0.0
 11
593.9165979657047
 21
466.3433096443615
 31
0.0
  0
TEXT
  5
6B6C
330
1E
100
AcDbEntity
  8
UMCL2
  6
Continuous
100
AcDbText
 10
594.9117247190381
 20
467.8433096443614
 30
0.0
 40
3.0
  1
PT1/4
  7
ROMANSS
 72
     2
 11
608.0545818618952
 21
469.3433096443615
 31
0.0
100
AcDbText
 73
     2
  0
SOLID
  5
6B6D
330
1E
100
AcDbEntity
  8
UMCL2
  6
Continuous
100
AcDbTrace
 10
170.1453270615702
 20
419.0301743243393
 30
0.0
 11
169.4261287897056
 21
418.3353694267262
 31
0.0
 12
171.8701426184771
 22
416.5251770599391
 32
0.0
 13
171.8701426184771
 23
416.5251770599391
 33
0.0
  0
LINE
  5
6B6E
330
1E
100
AcDbEntity
  8
UMCL2
  6
Continuous
100
AcDbLine
 10
171.8701426184768
 20
416.5251770599391
 30
0.0
 11
136.4064369729185
 21
453.2339508492724
 31
0.0
  0
LINE
  5
6B6F
330
1E
100
AcDbEntity
  8
UMCL2
  6
Continuous
100
AcDbLine
 10
136.4064369729185
 20
453.2339508492724
 30
0.0
 11
133.4064369729185
 21
453.2339508492724
 31
0.0
  0
LINE
  5
6B70
330
1E
100
AcDbEntity
  8
UMCL2
  6
Continuous
100
AcDbLine
 10
133.4064369729185
 20
453.2339508492724
 30
0.0
 11
115.0314369729185
 21
453.2339508492724
 31
0.0
  0
TEXT
  5
6B71
330
1E
100
AcDbEntity
  8
UMCL2
  6
Continuous
100
AcDbText
 10
112.8350084014899
 20
454.7339508492724
 30
0.0
 40
3.0
  1
2-PT1/2
  7
ROMANSS
 72
     2
 11
132.4064369729185
 21
456.2339508492724
 31
0.0
100
AcDbText
 73
     2
  0
LINE
  5
6B72
330
1E
100
AcDbEntity
  8
UMCL1
100
AcDbLine
 10
-18.34252866341057
 20
392.4815968488553
 30
0.0
 11
19.32434738481288
 21
392.4815968488553
 31
0.0
  0
LINE
  5
6B73
330
1E
100
AcDbEntity
  8
UMCL1
100
AcDbLine
 10
-89.17565261518712
 20
392.4815968488553
 30
0.0
 11
-51.50877656696366
 21
392.4815968488553
 31
0.0
  0
ARC
  5
6B74
330
1E
100
AcDbEntity
  8
UMCL1
100
AcDbCircle
 10
-89.17565261518712
 20
389.4815968488552
 30
0.0
 40
3.0
100
AcDbArc
 50
90.0
 51
180.0
  0
ARC
  5
6B75
330
1E
100
AcDbEntity
  8
UMCL1
  6
Continuous
100
AcDbCircle
 10
-34.92565261518712
 20
415.4815968488552
 30
0.0
 40
28.0
100
AcDbArc
 50
236.4426902380753
 51
303.5573097619247
  0
ARC
  5
6B76
330
1E
100
AcDbEntity
  8
UMCL1
  6
Continuous
100
AcDbCircle
 10
-51.50877656696366
 20
390.4815968488552
 30
0.0
 40
2.0
100
AcDbArc
 50
56.44269023807524
 51
90.0
  0
ARC
  5
6B77
330
1E
100
AcDbEntity
  8
UMCL1
  6
Continuous
100
AcDbCircle
 10
-18.34252866341057
 20
390.4815968488552
 30
0.0
 40
2.0
100
AcDbArc
 50
90.0
 51
123.5573097619256
  0
ARC
  5
6B78
330
1E
100
AcDbEntity
  8
UMCL1
100
AcDbCircle
 10
19.32434738481288
 20
389.4815968488552
 30
0.0
 40
3.0
100
AcDbArc
 50
0.0
 51
90.0
  0
SOLID
  5
6B79
330
1E
100
AcDbEntity
  8
UMCL2
  6
Continuous
100
AcDbTrace
 10
511.6743628655945
 20
352.7236099716141
 30
0.0
 11
510.8361377619281
 21
353.2689343480944
 31
0.0
 12
509.6192771843204
 22
350.4815968488555
 32
0.0
 13
509.6192771843204
 23
350.4815968488555
 33
0.0
  0
LINE
  5
6B7A
330
1E
100
AcDbEntity
  8
UMCL2
  6
Continuous
100
AcDbLine
 10
511.2552503137613
 20
352.9962721598544
 30
0.0
 11
521.6868487412153
 21
369.0308160944104
 31
0.0
  0
LINE
  5
6B7B
330
1E
100
AcDbEntity
  8
UMCL2
  6
Continuous
100
AcDbLine
 10
521.6868487412153
 20
369.0308160944104
 30
0.0
 11
524.6868487412152
 21
369.0308160944104
 31
0.0
  0
LINE
  5
6B7C
330
1E
100
AcDbEntity
  8
UMCL2
  6
Continuous
100
AcDbLine
 10
524.6868487412152
 20
369.0308160944104
 30
0.0
 11
538.1868487412153
 21
369.0308160944104
 31
0.0
  0
TEXT
  5
6B7D
330
1E
100
AcDbEntity
  8
UMCL2
  6
Continuous
100
AcDbText
 10
525.6868487412153
 20
370.5308160944104
 30
0.0
 40
3.0
  1
4-%%c14
  7
ROMANSS
 11
525.6868487412153
 21
372.0308160944104
 31
0.0
100
AcDbText
 73
     2
  0
LINE
  5
6B7E
330
1E
100
AcDbEntity
  8
UMCL1
  6
Continuous
100
AcDbLine
 10
653.6192771843202
 20
660.6898566889757
 30
0.0
 11
646.7505836356833
 21
663.1898566889757
 31
0.0
  0
LINE
  5
6B7F
330
1E
100
AcDbEntity
  8
UMCL1
  6
Continuous
100
AcDbLine
 10
646.7505836356831
 20
663.1898566889757
 30
0.0
 11
646.7505836356831
 21
613.1898566889757
 31
0.0
  0
LINE
  5
6B80
330
1E
100
AcDbEntity
  8
UMCL1
  6
Continuous
100
AcDbLine
 10
653.6192771843202
 20
615.6898566889755
 30
0.0
 11
646.7505836356833
 21
613.1898566889755
 31
0.0
  0
LINE
  5
6B81
330
1E
100
AcDbEntity
  8
UMCL1
  6
Continuous
100
AcDbLine
 10
653.6192771843202
 20
437.9815968488554
 30
0.0
 11
646.7505836356836
 21
440.4815968488555
 31
0.0
  0
LINE
  5
6B82
330
1E
100
AcDbEntity
  8
UMCL1
  6
Continuous
100
AcDbLine
 10
646.7505836356833
 20
440.4815968488555
 30
0.0
 11
646.7505836356831
 21
390.4815968488552
 31
0.0
  0
LINE
  5
6B83
330
1E
100
AcDbEntity
  8
UMCL1
  6
Continuous
100
AcDbLine
 10
653.6192771843202
 20
392.9815968488552
 30
0.0
 11
646.7505836356836
 21
390.4815968488552
 31
0.0
  0
LINE
  5
6B84
330
1E
100
AcDbEntity
  8
UMCL2
  6
Continuous
100
AcDbLine
 10
653.6192771843202
 20
391.0725913312869
 30
0.0
 11
653.6192771843202
 21
319.4815968488553
 31
0.0
  0
CIRCLE
  5
6B85
330
1E
100
AcDbEntity
  8
UMCL1
  6
Continuous
100
AcDbCircle
 10
785.8557158587673
 20
415.4815968488552
 30
0.0
 40
22.50000000000003
  0
LINE
  5
6B86
330
1E
100
AcDbEntity
  8
UMCL1
  6
Continuous
100
AcDbLine
 10
158.6192771843202
 20
656.1898566889757
 30
0.0
 11
198.6192771843202
 21
656.1898566889757
 31
0.0
  0
LINE
  5
6B87
330
1E
100
AcDbEntity
  8
UMCL1
  6
Continuous
100
AcDbLine
 10
158.6192771843202
 20
620.1898566889757
 30
0.0
 11
198.6192771843202
 21
620.1898566889757
 31
0.0
  0
LINE
  5
6B88
330
1E
100
AcDbEntity
  8
CENTER
  6
CENTER
100
AcDbLine
 10
163.3940600234975
 20
408.4815968488552
 30
0.0
 11
193.6475678567017
 21
408.4815968488552
 31
0.0
  0
LINE
  5
6B89
330
1E
100
AcDbEntity
  8
CENTER
  6
CENTER
100
AcDbLine
 10
183.6192771843202
 20
425.4815968488552
 30
0.0
 11
197.6192771843202
 21
425.4815968488552
 31
0.0
  0
LINE
  5
6B8A
330
1E
100
AcDbEntity
  8
CENTER
  6
CENTER
100
AcDbLine
 10
190.6192771843202
 20
432.4815968488552
 30
0.0
 11
190.6192771843202
 21
418.4815968488552
 31
0.0
  0
LINE
  5
6B8B
330
1E
100
AcDbEntity
  8
UMCL1
  6
HIDDEN
 62
     2
100
AcDbLine
 10
629.3692771843202
 20
440.4815968488555
 30
0.0
 11
628.7817771843201
 21
431.0815968488555
 31
0.0
  0
LINE
  5
6B8C
330
1E
100
AcDbEntity
  8
UMCL1
  6
HIDDEN
 62
     2
100
AcDbLine
 10
618.4567771843201
 20
431.0815968488555
 30
0.0
 11
617.8692771843202
 21
440.4815968488555
 31
0.0
  0
LINE
  5
6B8D
330
1E
100
AcDbEntity
  8
UMCL1
  6
HIDDEN
 62
     2
100
AcDbLine
 10
630.16927718432
 20
440.4815968488555
 30
0.0
 11
629.64052718432
 21
432.0215968488554
 31
0.0
  0
LINE
  5
6B8E
330
1E
100
AcDbEntity
  8
UMCL1
  6
HIDDEN
 62
     2
100
AcDbLine
 10
617.06927718432
 20
440.4815968488555
 30
0.0
 11
617.59802718432
 21
432.0215968488554
 31
0.0
  0
LINE
  5
6B8F
330
1E
100
AcDbEntity
  8
UMCL1
  6
HIDDEN
 62
     2
100
AcDbLine
 10
780.6932158587674
 20
431.0815968488551
 30
0.0
 11
780.1469980325101
 21
439.8210820689697
 31
0.0
  0
LINE
  5
6B90
330
1E
100
AcDbEntity
  8
UMCL1
  6
HIDDEN
 62
     2
100
AcDbLine
 10
779.3593905735333
 20
439.6228014125971
 30
0.0
 11
779.834465858767
 21
432.0215968488549
 31
0.0
  0
LINE
  5
6B91
330
1E
100
AcDbEntity
  8
UMCL1
  6
HIDDEN
 62
     2
100
AcDbLine
 10
791.5644336850245
 20
439.8210820689697
 30
0.0
 11
791.0182158587672
 21
431.0815968488551
 31
0.0
  0
LINE
  5
6B92
330
1E
100
AcDbEntity
  8
UMCL1
  6
HIDDEN
 62
     2
100
AcDbLine
 10
792.3520411440013
 20
439.6228014125971
 30
0.0
 11
791.8769658587676
 21
432.0215968488549
 31
0.0
  0
ARC
  5
6B93
330
1E
100
AcDbEntity
  8
UMCL1
  6
Continuous
 62
     2
100
AcDbCircle
 10
623.6192771843202
 20
638.1898566889757
 30
0.0
 40
6.549999999999954
100
AcDbArc
 50
68.70722695994519
 51
19.08583992917556
  0
CIRCLE
  5
6B94
330
1E
100
AcDbEntity
  8
UMCL1
  6
Continuous
100
AcDbCircle
 10
623.6192771843202
 20
638.1898566889757
 30
0.0
 40
5.75
  0
CIRCLE
  5
6B95
330
1E
100
AcDbEntity
  8
UMCL1
100
AcDbCircle
 10
190.6192771843202
 20
425.4815968488552
 30
0.0
 40
5.299999999999999
  0
CIRCLE
  5
6B96
330
1E
100
AcDbEntity
  8
UMCL1
100
AcDbCircle
 10
190.6192771843202
 20
425.4815968488552
 30
0.0
 40
5.0
  0
CIRCLE
  5
6B97
330
1E
100
AcDbEntity
  8
UMCL1
100
AcDbCircle
 10
190.6192771843202
 20
425.4815968488552
 30
0.0
 40
2.5
  0
POLYLINE
  5
6B98
330
1E
100
AcDbEntity
  8
UMCL1
  6
Continuous
100
AcDb2dPolyline
 66
     1
 10
0.0
 20
0.0
 30
0.0
 70
     1
  0
VERTEX
  5
6B99
330
6B98
100
AcDbEntity
  8
UMCL1
  6
Continuous
100
AcDbVertex
100
AcDb2dVertex
 10
192.6192771843202
 20
424.3268963104759
 30
0.0
  0
VERTEX
  5
6B9A
330
6B98
100
AcDbEntity
  8
UMCL1
  6
Continuous
100
AcDbVertex
100
AcDb2dVertex
 10
192.6192771843202
 20
426.6362973872345
 30
0.0
  0
VERTEX
  5
6B9B
330
6B98
100
AcDbEntity
  8
UMCL1
  6
Continuous
100
AcDbVertex
100
AcDb2dVertex
 10
190.6192771843202
 20
427.7909979256138
 30
0.0
  0
VERTEX
  5
6B9C
330
6B98
100
AcDbEntity
  8
UMCL1
  6
Continuous
100
AcDbVertex
100
AcDb2dVertex
 10
188.6192771843202
 20
426.6362973872345
 30
0.0
  0
VERTEX
  5
6B9D
330
6B98
100
AcDbEntity
  8
UMCL1
  6
Continuous
100
AcDbVertex
100
AcDb2dVertex
 10
188.6192771843202
 20
424.3268963104759
 30
0.0
  0
VERTEX
  5
6B9E
330
6B98
100
AcDbEntity
  8
UMCL1
  6
Continuous
100
AcDbVertex
100
AcDb2dVertex
 10
190.6192771843202
 20
423.1721957720968
 30
0.0
  0
SEQEND
  5
6B9F
330
6B98
100
AcDbEntity
  8
UMCL1
  6
Continuous
  0
LINE
  5
6BA0
330
1E
100
AcDbEntity
  8
UMCL1
  6
Continuous
 62
     7
100
AcDbLine
 10
189.7692771843201
 20
429.3902411150937
 30
0.0
 11
189.7692771843201
 21
430.4088171605522
 31
0.0
  0
LINE
  5
6BA1
330
1E
100
AcDbEntity
  8
UMCL1
  6
Continuous
 62
     7
100
AcDbLine
 10
191.4692771843201
 20
429.3902411150937
 30
0.0
 11
191.4692771843201
 21
430.4088171605522
 31
0.0
  0
LINE
  5
6BA2
330
1E
100
AcDbEntity
  8
UMCL1
  6
Continuous
 62
     7
100
AcDbLine
 10
191.4692771843201
 20
420.5543765371581
 30
0.0
 11
191.4692771843201
 21
421.5729525826167
 31
0.0
  0
LINE
  5
6BA3
330
1E
100
AcDbEntity
  8
UMCL1
  6
Continuous
 62
     7
100
AcDbLine
 10
189.7692771843201
 20
420.5543765371581
 30
0.0
 11
189.7692771843201
 21
421.5729525826167
 31
0.0
  0
LINE
  5
6BA4
330
1E
100
AcDbEntity
  8
UMCL1
  6
Continuous
 62
     7
100
AcDbLine
 10
186.809291955401
 20
426.6997973887576
 30
0.0
 11
185.9271792243478
 21
427.209085411487
 31
0.0
  0
LINE
  5
6BA5
330
1E
100
AcDbEntity
  8
UMCL1
  6
Continuous
 62
     7
100
AcDbLine
 10
187.6592919554009
 20
428.1720405751912
 30
0.0
 11
186.7771792243479
 21
428.6813285979205
 31
0.0
  0
LINE
  5
6BA6
330
1E
100
AcDbEntity
  8
UMCL1
  6
Continuous
 62
     7
100
AcDbLine
 10
195.3113751442924
 20
423.7541082862236
 30
0.0
 11
194.429262413239
 21
424.2633963089527
 31
0.0
  0
LINE
  5
6BA7
330
1E
100
AcDbEntity
  8
UMCL1
  6
Continuous
 62
     7
100
AcDbLine
 10
194.4613751442925
 20
422.28186509979
 30
0.0
 11
193.5792624132391
 21
422.7911531225191
 31
0.0
  0
LINE
  5
6BA8
330
1E
100
AcDbEntity
  8
UMCL1
  6
Continuous
 62
     7
100
AcDbLine
 10
186.809291955401
 20
424.2633963089527
 30
0.0
 11
185.9271792243478
 21
423.7541082862236
 31
0.0
  0
LINE
  5
6BA9
330
1E
100
AcDbEntity
  8
UMCL1
  6
Continuous
 62
     7
100
AcDbLine
 10
187.6592919554009
 20
422.7911531225191
 30
0.0
 11
186.7771792243479
 21
422.28186509979
 31
0.0
  0
LINE
  5
6BAA
330
1E
100
AcDbEntity
  8
UMCL1
  6
Continuous
 62
     7
100
AcDbLine
 10
195.3113751442924
 20
427.209085411487
 30
0.0
 11
194.429262413239
 21
426.6997973887576
 31
0.0
  0
LINE
  5
6BAB
330
1E
100
AcDbEntity
  8
UMCL1
  6
Continuous
 62
     7
100
AcDbLine
 10
194.4613751442925
 20
428.6813285979205
 30
0.0
 11
193.5792624132391
 21
428.1720405751912
 31
0.0
  0
ARC
  5
6BAC
330
1E
100
AcDbEntity
  8
UMCL1
100
AcDbCircle
 10
190.6192771843202
 20
425.4815968488552
 30
0.0
 40
4.0
100
AcDbArc
 50
102.2688989959615
 51
137.7311010040464
  0
ARC
  5
6BAD
330
1E
100
AcDbEntity
  8
UMCL1
100
AcDbCircle
 10
190.6192771843202
 20
425.4815968488552
 30
0.0
 40
4.0
100
AcDbArc
 50
162.2688989959565
 51
197.731101004045
  0
ARC
  5
6BAE
330
1E
100
AcDbEntity
  8
UMCL1
100
AcDbCircle
 10
190.6192771843202
 20
425.4815968488552
 30
0.0
 40
4.0
100
AcDbArc
 50
222.2688989959536
 51
257.7311010040385
  0
ARC
  5
6BAF
330
1E
100
AcDbEntity
  8
UMCL1
100
AcDbCircle
 10
190.6192771843202
 20
425.4815968488552
 30
0.0
 40
4.0
100
AcDbArc
 50
282.2688989959615
 51
317.7311010040464
  0
ARC
  5
6BB0
330
1E
100
AcDbEntity
  8
UMCL1
100
AcDbCircle
 10
190.6192771843202
 20
425.4815968488552
 30
0.0
 40
4.0
100
AcDbArc
 50
342.268898995955
 51
17.73110100404345
  0
ARC
  5
6BB1
330
1E
100
AcDbEntity
  8
UMCL1
100
AcDbCircle
 10
190.6192771843202
 20
425.4815968488552
 30
0.0
 40
4.0
100
AcDbArc
 50
42.26889899595361
 51
77.73110100403842
  0
LINE
  5
6BB2
330
1E
100
AcDbEntity
  8
CENTER
  6
CENTER
100
AcDbLine
 10
-79.42565261518712
 20
383.9815968488553
 30
0.0
 11
-79.42565261518712
 21
357.9815968488552
 31
0.0
  0
LINE
  5
6BB3
330
1E
100
AcDbEntity
  8
CENTER
  6
CENTER
100
AcDbLine
 10
-92.42565261518711
 20
370.9815968488552
 30
0.0
 11
-66.42565261518711
 21
370.9815968488555
 31
0.0
  0
LINE
  5
6BB4
330
1E
100
AcDbEntity
  8
CENTER
  6
CENTER
100
AcDbLine
 10
9.574347384812881
 20
383.9815968488553
 30
0.0
 11
9.574347384812881
 21
357.9815968488552
 31
0.0
  0
LINE
  5
6BB5
330
1E
100
AcDbEntity
  8
CENTER
  6
CENTER
100
AcDbLine
 10
-3.425652615187118
 20
370.9815968488552
 30
0.0
 11
22.57434738481288
 21
370.9815968488555
 31
0.0
  0
LINE
  5
6BB6
330
1E
100
AcDbEntity
  8
CENTER
  6
CENTER
100
AcDbLine
 10
448.6192771843202
 20
657.1898566889757
 30
0.0
 11
448.6192771843202
 21
619.1898566889757
 31
0.0
  0
LINE
  5
6BB7
330
1E
100
AcDbEntity
  8
UMCL1
  6
Continuous
100
AcDbLine
 10
468.6192771843202
 20
472.9815968488554
 30
0.0
 11
468.6192771843202
 21
357.9815968488552
 31
0.0
  0
LINE
  5
6BB8
330
1E
100
AcDbEntity
  8
UMCL1
  6
Continuous
100
AcDbLine
 10
428.6192771843202
 20
472.9815968488554
 30
0.0
 11
428.6192771843202
 21
357.9815968488552
 31
0.0
  0
LINE
  5
6BB9
330
1E
100
AcDbEntity
  8
UMCL1
  6
Continuous
100
AcDbLine
 10
198.61927718432
 20
472.9815968488554
 30
0.0
 11
198.6192771843202
 21
357.9815968488552
 31
0.0
  0
LINE
  5
6BBA
330
1E
100
AcDbEntity
  8
UMCL1
  6
Continuous
100
AcDbLine
 10
158.6192771843202
 20
472.9815968488554
 30
0.0
 11
158.6192771843202
 21
357.9815968488552
 31
0.0
  0
CIRCLE
  5
6BBB
330
1E
100
AcDbEntity
  8
UMCL1
  6
Continuous
100
AcDbCircle
 10
178.6192771843202
 20
408.4815968488552
 30
0.0
 40
9.3
  0
ARC
  5
6BBC
330
1E
100
AcDbEntity
  8
UMCL1
  6
Continuous
 62
     2
100
AcDbCircle
 10
178.6192771843202
 20
408.4815968488552
 30
0.0
 40
10.50000000000001
100
AcDbArc
 50
69.61697604875924
 51
23.41341888858015
  0
CIRCLE
  5
6BBD
330
1E
100
AcDbEntity
  8
UMCL1
  6
Continuous
100
AcDbCircle
 10
448.6192771843202
 20
415.4815968488553
 30
0.0
 40
9.3
  0
ARC
  5
6BBE
330
1E
100
AcDbEntity
  8
UMCL1
  6
Continuous
 62
     2
100
AcDbCircle
 10
448.6192771843202
 20
415.4815968488553
 30
0.0
 40
10.50000000000001
100
AcDbArc
 50
69.61697604875924
 51
23.41341888858015
  0
LINE
  5
6BBF
330
1E
100
AcDbEntity
  8
CENTER
  6
CENTER
100
AcDbLine
 10
448.6192771843202
 20
480.1360711009989
 30
0.0
 11
448.6192771843202
 21
449.689692355735
 31
0.0
  0
LINE
  5
6BC0
330
1E
100
AcDbEntity
  8
UMCL1
  6
HIDDEN
 62
     2
100
AcDbLine
 10
456.1192771843198
 20
472.9815968488552
 30
0.0
 11
455.3255271843199
 21
460.2815968488552
 31
0.0
  0
LINE
  5
6BC1
330
1E
100
AcDbEntity
  8
UMCL1
  6
HIDDEN
 62
     2
100
AcDbLine
 10
441.91302718432
 20
460.2815968488552
 30
0.0
 11
441.1192771843202
 21
472.9815968488552
 31
0.0
  0
LINE
  5
6BC2
330
1E
100
AcDbEntity
  8
UMCL1
  6
HIDDEN
 62
     2
100
AcDbLine
 10
456.9692771843201
 20
472.9815968488552
 30
0.0
 11
456.2549021843201
 21
461.5515968488551
 31
0.0
  0
LINE
  5
6BC3
330
1E
100
AcDbEntity
  8
UMCL1
  6
HIDDEN
 62
     2
100
AcDbLine
 10
440.2692771843199
 20
472.9815968488552
 30
0.0
 11
440.9836521843199
 21
461.5515968488551
 31
0.0
  0
SOLID
  5
6BC4
330
1E
100
AcDbEntity
  8
UMCL2
  6
Continuous
100
AcDbTrace
 10
446.7928142483838
 20
475.4134753704206
 30
0.0
 11
446.102824616305
 21
474.689656119762
 31
0.0
 12
448.6192771843199
 22
472.9815968488552
 32
0.0
 13
448.6192771843199
 23
472.9815968488552
 33
0.0
  0
LINE
  5
6BC5
330
1E
100
AcDbEntity
  8
UMCL2
  6
Continuous
100
AcDbLine
 10
446.4478194323444
 20
475.0515657450913
 30
0.0
 11
422.2217022901317
 21
498.1454108430791
 31
0.0
  0
LINE
  5
6BC6
330
1E
100
AcDbEntity
  8
UMCL2
  6
Continuous
100
AcDbLine
 10
422.2217022901317
 20
498.1454108430791
 30
0.0
 11
406.7217022901318
 21
498.1454108430791
 31
0.0
  0
TEXT
  5
6BC7
330
1E
100
AcDbEntity
  8
UMCL2
  6
Continuous
100
AcDbText
 10
404.6502737187032
 20
499.6454108430791
 30
0.0
 40
3.0
  1
PT3/8
  7
ROMANSS
 72
     2
 11
418.2217022901317
 21
501.1454108430791
 31
0.0
100
AcDbText
 73
     2
  0
SOLID
  5
6BC8
330
1E
100
AcDbEntity
  8
UMCL2
  6
Continuous
100
AcDbTrace
 10
521.6192771843203
 20
336.9815968488552
 30
0.0
 11
521.6192771843203
 21
335.9815968488553
 31
0.0
 12
524.6192771843202
 22
336.4815968488553
 32
0.0
 13
524.6192771843202
 23
336.4815968488553
 33
0.0
  0
SOLID
  5
6BC9
330
1E
100
AcDbEntity
  8
UMCL2
  6
Continuous
100
AcDbTrace
 10
512.6192771843202
 20
336.9815968488552
 30
0.0
 11
512.6192771843202
 21
335.9815968488553
 31
0.0
 12
509.6192771843202
 22
336.4815968488553
 32
0.0
 13
509.6192771843202
 23
336.4815968488553
 33
0.0
  0
TEXT
  5
6BCA
330
1E
100
AcDbEntity
  8
UMCL2
  6
Continuous
100
AcDbText
 10
514.5925158297322
 20
337.9895336891366
 30
0.0
 40
3.0
  1
15
  7
ROMANSS
 11
514.5925158297322
 21
339.4895336891366
 31
0.0
100
AcDbText
 73
     2
  0
SOLID
  5
6BCB
330
1E
100
AcDbEntity
  8
UMCL2
  6
Continuous
100
AcDbTrace
 10
114.6192771843198
 20
336.9815968488552
 30
0.0
 11
114.6192771843198
 21
335.9815968488553
 31
0.0
 12
117.6192771843198
 22
336.4815968488553
 32
0.0
 13
117.6192771843198
 23
336.4815968488553
 33
0.0
  0
SOLID
  5
6BCC
330
1E
100
AcDbEntity
  8
UMCL2
  6
Continuous
100
AcDbTrace
 10
105.6192771843198
 20
336.9815968488554
 30
0.0
 11
105.6192771843198
 21
335.9815968488554
 31
0.0
 12
102.6192771843198
 22
336.4815968488553
 32
0.0
 13
102.6192771843198
 23
336.4815968488553
 33
0.0
  0
TEXT
  5
6BCD
330
1E
100
AcDbEntity
  8
UMCL2
  6
Continuous
100
AcDbText
 10
107.5925158297318
 20
337.9895336891367
 30
0.0
 40
3.0
  1
15
  7
ROMANSS
 11
107.5925158297318
 21
339.4895336891367
 31
0.0
100
AcDbText
 73
     2
  0
CIRCLE
  5
6BCE
330
1E
100
AcDbEntity
  8
UMCL1
  6
Continuous
100
AcDbCircle
 10
760.8557158587673
 20
440.4815968488552
 30
0.0
 40
6.5
  0
CIRCLE
  5
6BCF
330
1E
100
AcDbEntity
  8
UMCL1
  6
Continuous
100
AcDbCircle
 10
760.8557158587673
 20
440.4815968488552
 30
0.0
 40
5.922632794457276
  0
POLYLINE
  5
6BD0
330
1E
100
AcDbEntity
  8
UMCL1
  6
Continuous
100
AcDb2dPolyline
 66
     1
 10
0.0
 20
0.0
 30
0.0
 70
     1
  0
VERTEX
  5
6BD1
330
6BD0
100
AcDbEntity
  8
UMCL1
  6
Continuous
100
AcDbVertex
100
AcDb2dVertex
 10
759.1236650511992
 20
443.4815968488552
 30
0.0
  0
VERTEX
  5
6BD2
330
6BD0
100
AcDbEntity
  8
UMCL1
  6
Continuous
100
AcDbVertex
100
AcDb2dVertex
 10
757.3916142436291
 20
440.4815968488552
 30
0.0
  0
VERTEX
  5
6BD3
330
6BD0
100
AcDbEntity
  8
UMCL1
  6
Continuous
100
AcDbVertex
100
AcDb2dVertex
 10
759.1236650511992
 20
437.4815968488552
 30
0.0
  0
VERTEX
  5
6BD4
330
6BD0
100
AcDbEntity
  8
UMCL1
  6
Continuous
100
AcDbVertex
100
AcDb2dVertex
 10
762.5877666663354
 20
437.4815968488552
 30
0.0
  0
VERTEX
  5
6BD5
330
6BD0
100
AcDbEntity
  8
UMCL1
  6
Continuous
100
AcDbVertex
100
AcDb2dVertex
 10
764.3198174739055
 20
440.4815968488552
 30
0.0
  0
VERTEX
  5
6BD6
330
6BD0
100
AcDbEntity
  8
UMCL1
  6
Continuous
100
AcDbVertex
100
AcDb2dVertex
 10
762.5877666663354
 20
443.4815968488552
 30
0.0
  0
SEQEND
  5
6BD7
330
6BD0
100
AcDbEntity
  8
UMCL1
  6
Continuous
  0
CIRCLE
  5
6BD8
330
1E
100
AcDbEntity
  8
UMCL1
  6
Continuous
100
AcDbCircle
 10
810.8557158587673
 20
440.4815968488555
 30
0.0
 40
6.5
  0
CIRCLE
  5
6BD9
330
1E
100
AcDbEntity
  8
UMCL1
  6
Continuous
100
AcDbCircle
 10
810.8557158587673
 20
440.4815968488555
 30
0.0
 40
5.922632794457276
  0
POLYLINE
  5
6BDA
330
1E
100
AcDbEntity
  8
UMCL1
  6
Continuous
100
AcDb2dPolyline
 66
     1
 10
0.0
 20
0.0
 30
0.0
 70
     1
  0
VERTEX
  5
6BDB
330
6BDA
100
AcDbEntity
  8
UMCL1
  6
Continuous
100
AcDbVertex
100
AcDb2dVertex
 10
809.1236650511991
 20
443.4815968488554
 30
0.0
  0
VERTEX
  5
6BDC
330
6BDA
100
AcDbEntity
  8
UMCL1
  6
Continuous
100
AcDbVertex
100
AcDb2dVertex
 10
807.3916142436292
 20
440.4815968488555
 30
0.0
  0
VERTEX
  5
6BDD
330
6BDA
100
AcDbEntity
  8
UMCL1
  6
Continuous
100
AcDbVertex
100
AcDb2dVertex
 10
809.1236650511991
 20
437.4815968488555
 30
0.0
  0
VERTEX
  5
6BDE
330
6BDA
100
AcDbEntity
  8
UMCL1
  6
Continuous
100
AcDbVertex
100
AcDb2dVertex
 10
812.5877666663354
 20
437.4815968488555
 30
0.0
  0
VERTEX
  5
6BDF
330
6BDA
100
AcDbEntity
  8
UMCL1
  6
Continuous
100
AcDbVertex
100
AcDb2dVertex
 10
814.3198174739055
 20
440.4815968488555
 30
0.0
  0
VERTEX
  5
6BE0
330
6BDA
100
AcDbEntity
  8
UMCL1
  6
Continuous
100
AcDbVertex
100
AcDb2dVertex
 10
812.5877666663354
 20
443.4815968488554
 30
0.0
  0
SEQEND
  5
6BE1
330
6BDA
100
AcDbEntity
  8
UMCL1
  6
Continuous
  0
CIRCLE
  5
6BE2
330
1E
100
AcDbEntity
  8
UMCL1
  6
Continuous
100
AcDbCircle
 10
810.8557158587673
 20
390.4815968488552
 30
0.0
 40
6.5
  0
CIRCLE
  5
6BE3
330
1E
100
AcDbEntity
  8
UMCL1
  6
Continuous
100
AcDbCircle
 10
810.8557158587673
 20
390.4815968488552
 30
0.0
 40
5.922632794457276
  0
POLYLINE
  5
6BE4
330
1E
100
AcDbEntity
  8
UMCL1
  6
Continuous
100
AcDb2dPolyline
 66
     1
 10
0.0
 20
0.0
 30
0.0
 70
     1
  0
VERTEX
  5
6BE5
330
6BE4
100
AcDbEntity
  8
UMCL1
  6
Continuous
100
AcDbVertex
100
AcDb2dVertex
 10
809.1236650511991
 20
393.4815968488552
 30
0.0
  0
VERTEX
  5
6BE6
330
6BE4
100
AcDbEntity
  8
UMCL1
  6
Continuous
100
AcDbVertex
100
AcDb2dVertex
 10
807.3916142436292
 20
390.4815968488552
 30
0.0
  0
VERTEX
  5
6BE7
330
6BE4
100
AcDbEntity
  8
UMCL1
  6
Continuous
100
AcDbVertex
100
AcDb2dVertex
 10
809.1236650511991
 20
387.4815968488552
 30
0.0
  0
VERTEX
  5
6BE8
330
6BE4
100
AcDbEntity
  8
UMCL1
  6
Continuous
100
AcDbVertex
100
AcDb2dVertex
 10
812.5877666663354
 20
387.4815968488552
 30
0.0
  0
VERTEX
  5
6BE9
330
6BE4
100
AcDbEntity
  8
UMCL1
  6
Continuous
100
AcDbVertex
100
AcDb2dVertex
 10
814.3198174739055
 20
390.4815968488552
 30
0.0
  0
VERTEX
  5
6BEA
330
6BE4
100
AcDbEntity
  8
UMCL1
  6
Continuous
100
AcDbVertex
100
AcDb2dVertex
 10
812.5877666663354
 20
393.4815968488552
 30
0.0
  0
SEQEND
  5
6BEB
330
6BE4
100
AcDbEntity
  8
UMCL1
  6
Continuous
  0
CIRCLE
  5
6BEC
330
1E
100
AcDbEntity
  8
UMCL1
  6
Continuous
100
AcDbCircle
 10
760.8557158587673
 20
390.4815968488552
 30
0.0
 40
6.5
  0
CIRCLE
  5
6BED
330
1E
100
AcDbEntity
  8
UMCL1
  6
Continuous
100
AcDbCircle
 10
760.8557158587673
 20
390.4815968488552
 30
0.0
 40
5.922632794457276
  0
POLYLINE
  5
6BEE
330
1E
100
AcDbEntity
  8
UMCL1
  6
Continuous
100
AcDb2dPolyline
 66
     1
 10
0.0
 20
0.0
 30
0.0
 70
     1
  0
VERTEX
  5
6BEF
330
6BEE
100
AcDbEntity
  8
UMCL1
  6
Continuous
100
AcDbVertex
100
AcDb2dVertex
 10
759.1236650511992
 20
393.4815968488552
 30
0.0
  0
VERTEX
  5
6BF0
330
6BEE
100
AcDbEntity
  8
UMCL1
  6
Continuous
100
AcDbVertex
100
AcDb2dVertex
 10
757.3916142436291
 20
390.4815968488552
 30
0.0
  0
VERTEX
  5
6BF1
330
6BEE
100
AcDbEntity
  8
UMCL1
  6
Continuous
100
AcDbVertex
100
AcDb2dVertex
 10
759.1236650511992
 20
387.4815968488552
 30
0.0
  0
VERTEX
  5
6BF2
330
6BEE
100
AcDbEntity
  8
UMCL1
  6
Continuous
100
AcDbVertex
100
AcDb2dVertex
 10
762.5877666663354
 20
387.4815968488552
 30
0.0
  0
VERTEX
  5
6BF3
330
6BEE
100
AcDbEntity
  8
UMCL1
  6
Continuous
100
AcDbVertex
100
AcDb2dVertex
 10
764.3198174739055
 20
390.4815968488552
 30
0.0
  0
VERTEX
  5
6BF4
330
6BEE
100
AcDbEntity
  8
UMCL1
  6
Continuous
100
AcDbVertex
100
AcDb2dVertex
 10
762.5877666663354
 20
393.4815968488552
 30
0.0
  0
SEQEND
  5
6BF5
330
6BEE
100
AcDbEntity
  8
UMCL1
  6
Continuous
  0
CIRCLE
  5
6BF6
330
1E
100
AcDbEntity
  8
UMCL1
  6
Continuous
100
AcDbCircle
 10
830.3557158587674
 20
370.9815968488552
 30
0.0
 40
8.0
  0
CIRCLE
  5
6BF7
330
1E
100
AcDbEntity
  8
UMCL1
  6
Continuous
100
AcDbCircle
 10
830.3557158587674
 20
370.9815968488552
 30
0.0
 40
7.307159353348731
  0
POLYLINE
  5
6BF8
330
1E
100
AcDbEntity
  8
UMCL1
  6
Continuous
100
AcDb2dPolyline
 66
     1
 10
0.0
 20
0.0
 30
0.0
 70
     1
  0
VERTEX
  5
6BF9
330
6BF8
100
AcDbEntity
  8
UMCL1
  6
Continuous
100
AcDbVertex
100
AcDb2dVertex
 10
828.0463147820091
 20
374.9815968488552
 30
0.0
  0
VERTEX
  5
6BFA
330
6BF8
100
AcDbEntity
  8
UMCL1
  6
Continuous
100
AcDbVertex
100
AcDb2dVertex
 10
825.736913705251
 20
370.9815968488552
 30
0.0
  0
VERTEX
  5
6BFB
330
6BF8
100
AcDbEntity
  8
UMCL1
  6
Continuous
100
AcDbVertex
100
AcDb2dVertex
 10
828.0463147820091
 20
366.9815968488553
 30
0.0
  0
VERTEX
  5
6BFC
330
6BF8
100
AcDbEntity
  8
UMCL1
  6
Continuous
100
AcDbVertex
100
AcDb2dVertex
 10
832.6651169355255
 20
366.9815968488553
 30
0.0
  0
VERTEX
  5
6BFD
330
6BF8
100
AcDbEntity
  8
UMCL1
  6
Continuous
100
AcDbVertex
100
AcDb2dVertex
 10
834.9745180122836
 20
370.9815968488552
 30
0.0
  0
VERTEX
  5
6BFE
330
6BF8
100
AcDbEntity
  8
UMCL1
  6
Continuous
100
AcDbVertex
100
AcDb2dVertex
 10
832.6651169355255
 20
374.9815968488552
 30
0.0
  0
SEQEND
  5
6BFF
330
6BF8
100
AcDbEntity
  8
UMCL1
  6
Continuous
  0
CIRCLE
  5
6C00
330
1E
100
AcDbEntity
  8
UMCL1
  6
Continuous
100
AcDbCircle
 10
741.3557158587673
 20
370.9815968488552
 30
0.0
 40
8.0
  0
CIRCLE
  5
6C01
330
1E
100
AcDbEntity
  8
UMCL1
  6
Continuous
100
AcDbCircle
 10
741.3557158587673
 20
370.9815968488552
 30
0.0
 40
7.307159353348731
  0
POLYLINE
  5
6C02
330
1E
100
AcDbEntity
  8
UMCL1
  6
Continuous
100
AcDb2dPolyline
 66
     1
 10
0.0
 20
0.0
 30
0.0
 70
     1
  0
VERTEX
  5
6C03
330
6C02
100
AcDbEntity
  8
UMCL1
  6
Continuous
100
AcDbVertex
100
AcDb2dVertex
 10
739.0463147820091
 20
374.9815968488552
 30
0.0
  0
VERTEX
  5
6C04
330
6C02
100
AcDbEntity
  8
UMCL1
  6
Continuous
100
AcDbVertex
100
AcDb2dVertex
 10
736.736913705251
 20
370.9815968488552
 30
0.0
  0
VERTEX
  5
6C05
330
6C02
100
AcDbEntity
  8
UMCL1
  6
Continuous
100
AcDbVertex
100
AcDb2dVertex
 10
739.0463147820091
 20
366.9815968488553
 30
0.0
  0
VERTEX
  5
6C06
330
6C02
100
AcDbEntity
  8
UMCL1
  6
Continuous
100
AcDbVertex
100
AcDb2dVertex
 10
743.6651169355254
 20
366.9815968488553
 30
0.0
  0
VERTEX
  5
6C07
330
6C02
100
AcDbEntity
  8
UMCL1
  6
Continuous
100
AcDbVertex
100
AcDb2dVertex
 10
745.9745180122836
 20
370.9815968488552
 30
0.0
  0
VERTEX
  5
6C08
330
6C02
100
AcDbEntity
  8
UMCL1
  6
Continuous
100
AcDbVertex
100
AcDb2dVertex
 10
743.6651169355254
 20
374.9815968488552
 30
0.0
  0
SEQEND
  5
6C09
330
6C02
100
AcDbEntity
  8
UMCL1
  6
Continuous
  0
CIRCLE
  5
6C0A
330
1E
100
AcDbEntity
  8
UMCL1
  6
Continuous
100
AcDbCircle
 10
-79.42565261518712
 20
370.9815968488552
 30
0.0
 40
8.0
  0
CIRCLE
  5
6C0B
330
1E
100
AcDbEntity
  8
UMCL1
  6
Continuous
100
AcDbCircle
 10
-79.42565261518712
 20
370.9815968488552
 30
0.0
 40
7.307159353348731
  0
POLYLINE
  5
6C0C
330
1E
100
AcDbEntity
  8
UMCL1
  6
Continuous
100
AcDb2dPolyline
 66
     1
 10
0.0
 20
0.0
 30
0.0
 70
     1
  0
VERTEX
  5
6C0D
330
6C0C
100
AcDbEntity
  8
UMCL1
  6
Continuous
100
AcDbVertex
100
AcDb2dVertex
 10
-81.73505369194527
 20
374.9815968488552
 30
0.0
  0
VERTEX
  5
6C0E
330
6C0C
100
AcDbEntity
  8
UMCL1
  6
Continuous
100
AcDbVertex
100
AcDb2dVertex
 10
-84.04445476870341
 20
370.9815968488552
 30
0.0
  0
VERTEX
  5
6C0F
330
6C0C
100
AcDbEntity
  8
UMCL1
  6
Continuous
100
AcDbVertex
100
AcDb2dVertex
 10
-81.73505369194527
 20
366.9815968488553
 30
0.0
  0
VERTEX
  5
6C10
330
6C0C
100
AcDbEntity
  8
UMCL1
  6
Continuous
100
AcDbVertex
100
AcDb2dVertex
 10
-77.11625153842897
 20
366.9815968488553
 30
0.0
  0
VERTEX
  5
6C11
330
6C0C
100
AcDbEntity
  8
UMCL1
  6
Continuous
100
AcDbVertex
100
AcDb2dVertex
 10
-74.80685046167081
 20
370.9815968488552
 30
0.0
  0
VERTEX
  5
6C12
330
6C0C
100
AcDbEntity
  8
UMCL1
  6
Continuous
100
AcDbVertex
100
AcDb2dVertex
 10
-77.11625153842897
 20
374.9815968488552
 30
0.0
  0
SEQEND
  5
6C13
330
6C0C
100
AcDbEntity
  8
UMCL1
  6
Continuous
  0
CIRCLE
  5
6C14
330
1E
100
AcDbEntity
  8
UMCL1
  6
Continuous
100
AcDbCircle
 10
-79.42565261518712
 20
459.9815968488552
 30
0.0
 40
9.0
  0
CIRCLE
  5
6C15
330
1E
100
AcDbEntity
  8
UMCL1
  6
Continuous
100
AcDbCircle
 10
-79.42565261518712
 20
459.9815968488552
 30
0.0
 40
8.191685912240185
  0
POLYLINE
  5
6C16
330
1E
100
AcDbEntity
  8
UMCL1
  6
Continuous
100
AcDb2dPolyline
 66
     1
 10
0.0
 20
0.0
 30
0.0
 70
     1
  0
VERTEX
  5
6C17
330
6C16
100
AcDbEntity
  8
UMCL1
  6
Continuous
100
AcDbVertex
100
AcDb2dVertex
 10
-82.31240396113525
 20
464.9815968488552
 30
0.0
  0
VERTEX
  5
6C18
330
6C16
100
AcDbEntity
  8
UMCL1
  6
Continuous
100
AcDbVertex
100
AcDb2dVertex
 10
-85.1991553070834
 20
459.9815968488552
 30
0.0
  0
VERTEX
  5
6C19
330
6C16
100
AcDbEntity
  8
UMCL1
  6
Continuous
100
AcDbVertex
100
AcDb2dVertex
 10
-82.31240396113525
 20
454.9815968488552
 30
0.0
  0
VERTEX
  5
6C1A
330
6C16
100
AcDbEntity
  8
UMCL1
  6
Continuous
100
AcDbVertex
100
AcDb2dVertex
 10
-76.53890126923897
 20
454.9815968488552
 30
0.0
  0
VERTEX
  5
6C1B
330
6C16
100
AcDbEntity
  8
UMCL1
  6
Continuous
100
AcDbVertex
100
AcDb2dVertex
 10
-73.65214992329083
 20
459.9815968488552
 30
0.0
  0
VERTEX
  5
6C1C
330
6C16
100
AcDbEntity
  8
UMCL1
  6
Continuous
100
AcDbVertex
100
AcDb2dVertex
 10
-76.53890126923897
 20
464.9815968488552
 30
0.0
  0
SEQEND
  5
6C1D
330
6C16
100
AcDbEntity
  8
UMCL1
  6
Continuous
  0
CIRCLE
  5
6C1E
330
1E
100
AcDbEntity
  8
UMCL1
  6
Continuous
100
AcDbCircle
 10
9.574347384812881
 20
370.9815968488552
 30
0.0
 40
8.0
  0
CIRCLE
  5
6C1F
330
1E
100
AcDbEntity
  8
UMCL1
  6
Continuous
100
AcDbCircle
 10
9.574347384812881
 20
370.9815968488552
 30
0.0
 40
7.307159353348731
  0
POLYLINE
  5
6C20
330
1E
100
AcDbEntity
  8
UMCL1
  6
Continuous
100
AcDb2dPolyline
 66
     1
 10
0.0
 20
0.0
 30
0.0
 70
     1
  0
VERTEX
  5
6C21
330
6C20
100
AcDbEntity
  8
UMCL1
  6
Continuous
100
AcDbVertex
100
AcDb2dVertex
 10
7.264946308054732
 20
374.9815968488552
 30
0.0
  0
VERTEX
  5
6C22
330
6C20
100
AcDbEntity
  8
UMCL1
  6
Continuous
100
AcDbVertex
100
AcDb2dVertex
 10
4.955545231296582
 20
370.9815968488552
 30
0.0
  0
VERTEX
  5
6C23
330
6C20
100
AcDbEntity
  8
UMCL1
  6
Continuous
100
AcDbVertex
100
AcDb2dVertex
 10
7.264946308054732
 20
366.9815968488553
 30
0.0
  0
VERTEX
  5
6C24
330
6C20
100
AcDbEntity
  8
UMCL1
  6
Continuous
100
AcDbVertex
100
AcDb2dVertex
 10
11.88374846157103
 20
366.9815968488553
 30
0.0
  0
VERTEX
  5
6C25
330
6C20
100
AcDbEntity
  8
UMCL1
  6
Continuous
100
AcDbVertex
100
AcDb2dVertex
 10
14.19314953832918
 20
370.9815968488552
 30
0.0
  0
VERTEX
  5
6C26
330
6C20
100
AcDbEntity
  8
UMCL1
  6
Continuous
100
AcDbVertex
100
AcDb2dVertex
 10
11.88374846157103
 20
374.9815968488552
 30
0.0
  0
SEQEND
  5
6C27
330
6C20
100
AcDbEntity
  8
UMCL1
  6
Continuous
  0
CIRCLE
  5
6C28
330
1E
100
AcDbEntity
  8
UMCL1
  6
Continuous
100
AcDbCircle
 10
9.574347384812881
 20
459.9815968488554
 30
0.0
 40
9.0
  0
CIRCLE
  5
6C29
330
1E
100
AcDbEntity
  8
UMCL1
  6
Continuous
100
AcDbCircle
 10
9.574347384812881
 20
459.9815968488554
 30
0.0
 40
8.191685912240185
  0
POLYLINE
  5
6C2A
330
1E
100
AcDbEntity
  8
UMCL1
  6
Continuous
100
AcDb2dPolyline
 66
     1
 10
0.0
 20
0.0
 30
0.0
 70
     1
  0
VERTEX
  5
6C2B
330
6C2A
100
AcDbEntity
  8
UMCL1
  6
Continuous
100
AcDbVertex
100
AcDb2dVertex
 10
6.687596038864739
 20
464.9815968488554
 30
0.0
  0
VERTEX
  5
6C2C
330
6C2A
100
AcDbEntity
  8
UMCL1
  6
Continuous
100
AcDbVertex
100
AcDb2dVertex
 10
3.800844692916598
 20
459.9815968488554
 30
0.0
  0
VERTEX
  5
6C2D
330
6C2A
100
AcDbEntity
  8
UMCL1
  6
Continuous
100
AcDbVertex
100
AcDb2dVertex
 10
6.687596038864739
 20
454.9815968488554
 30
0.0
  0
VERTEX
  5
6C2E
330
6C2A
100
AcDbEntity
  8
UMCL1
  6
Continuous
100
AcDbVertex
100
AcDb2dVertex
 10
12.46109873076102
 20
454.9815968488554
 30
0.0
  0
VERTEX
  5
6C2F
330
6C2A
100
AcDbEntity
  8
UMCL1
  6
Continuous
100
AcDbVertex
100
AcDb2dVertex
 10
15.34785007670916
 20
459.9815968488554
 30
0.0
  0
VERTEX
  5
6C30
330
6C2A
100
AcDbEntity
  8
UMCL1
  6
Continuous
100
AcDbVertex
100
AcDb2dVertex
 10
12.46109873076102
 20
464.9815968488554
 30
0.0
  0
SEQEND
  5
6C31
330
6C2A
100
AcDbEntity
  8
UMCL1
  6
Continuous
  0
CIRCLE
  5
6C32
330
1E
100
AcDbEntity
  8
UMCL1
  6
Continuous
100
AcDbCircle
 10
741.3557158587673
 20
459.9815968488552
 30
0.0
 40
9.0
  0
CIRCLE
  5
6C33
330
1E
100
AcDbEntity
  8
UMCL1
  6
Continuous
100
AcDbCircle
 10
741.3557158587673
 20
459.9815968488552
 30
0.0
 40
8.191685912240185
  0
POLYLINE
  5
6C34
330
1E
100
AcDbEntity
  8
UMCL1
  6
Continuous
100
AcDb2dPolyline
 66
     1
 10
0.0
 20
0.0
 30
0.0
 70
     1
  0
VERTEX
  5
6C35
330
6C34
100
AcDbEntity
  8
UMCL1
  6
Continuous
100
AcDbVertex
100
AcDb2dVertex
 10
738.4689645128191
 20
464.9815968488552
 30
0.0
  0
VERTEX
  5
6C36
330
6C34
100
AcDbEntity
  8
UMCL1
  6
Continuous
100
AcDbVertex
100
AcDb2dVertex
 10
735.582213166871
 20
459.9815968488552
 30
0.0
  0
VERTEX
  5
6C37
330
6C34
100
AcDbEntity
  8
UMCL1
  6
Continuous
100
AcDbVertex
100
AcDb2dVertex
 10
738.4689645128191
 20
454.9815968488552
 30
0.0
  0
VERTEX
  5
6C38
330
6C34
100
AcDbEntity
  8
UMCL1
  6
Continuous
100
AcDbVertex
100
AcDb2dVertex
 10
744.2424672047154
 20
454.9815968488552
 30
0.0
  0
VERTEX
  5
6C39
330
6C34
100
AcDbEntity
  8
UMCL1
  6
Continuous
100
AcDbVertex
100
AcDb2dVertex
 10
747.1292185506635
 20
459.9815968488552
 30
0.0
  0
VERTEX
  5
6C3A
330
6C34
100
AcDbEntity
  8
UMCL1
  6
Continuous
100
AcDbVertex
100
AcDb2dVertex
 10
744.2424672047154
 20
464.9815968488552
 30
0.0
  0
SEQEND
  5
6C3B
330
6C34
100
AcDbEntity
  8
UMCL1
  6
Continuous
  0
CIRCLE
  5
6C3C
330
1E
100
AcDbEntity
  8
UMCL1
  6
Continuous
100
AcDbCircle
 10
830.3557158587674
 20
459.9815968488554
 30
0.0
 40
9.0
  0
CIRCLE
  5
6C3D
330
1E
100
AcDbEntity
  8
UMCL1
  6
Continuous
100
AcDbCircle
 10
830.3557158587674
 20
459.9815968488554
 30
0.0
 40
8.191685912240185
  0
POLYLINE
  5
6C3E
330
1E
100
AcDbEntity
  8
UMCL1
  6
Continuous
100
AcDb2dPolyline
 66
     1
 10
0.0
 20
0.0
 30
0.0
 70
     1
  0
VERTEX
  5
6C3F
330
6C3E
100
AcDbEntity
  8
UMCL1
  6
Continuous
100
AcDbVertex
100
AcDb2dVertex
 10
827.4689645128191
 20
464.9815968488554
 30
0.0
  0
VERTEX
  5
6C40
330
6C3E
100
AcDbEntity
  8
UMCL1
  6
Continuous
100
AcDbVertex
100
AcDb2dVertex
 10
824.582213166871
 20
459.9815968488554
 30
0.0
  0
VERTEX
  5
6C41
330
6C3E
100
AcDbEntity
  8
UMCL1
  6
Continuous
100
AcDbVertex
100
AcDb2dVertex
 10
827.4689645128191
 20
454.9815968488554
 30
0.0
  0
VERTEX
  5
6C42
330
6C3E
100
AcDbEntity
  8
UMCL1
  6
Continuous
100
AcDbVertex
100
AcDb2dVertex
 10
833.2424672047155
 20
454.9815968488554
 30
0.0
  0
VERTEX
  5
6C43
330
6C3E
100
AcDbEntity
  8
UMCL1
  6
Continuous
100
AcDbVertex
100
AcDb2dVertex
 10
836.1292185506636
 20
459.9815968488554
 30
0.0
  0
VERTEX
  5
6C44
330
6C3E
100
AcDbEntity
  8
UMCL1
  6
Continuous
100
AcDbVertex
100
AcDb2dVertex
 10
833.2424672047155
 20
464.9815968488554
 30
0.0
  0
SEQEND
  5
6C45
330
6C3E
100
AcDbEntity
  8
UMCL1
  6
Continuous
  0
ENDSEC
  0
SECTION
  2
OBJECTS
  0
DICTIONARY
  5
C
330
0
100
AcDbDictionary
281
     1
  3
ACAD_COLOR
350
628F
  3
ACAD_GROUP
350
D
  3
ACAD_IMAGE_DICT
350
3CB
  3
ACAD_LAYOUT
350
19
  3
ACAD_MATERIAL
350
628E
  3
ACAD_MLINESTYLE
350
16
  3
ACAD_PLOTSETTINGS
350
18
  3
ACAD_PLOTSTYLENAME
350
B31
  3
ACAD_TABLESTYLE
350
6290
  3
ACDBHEADERROUNDTRIPXREC
350
6D05
  3
AcDbVariableDictionary
350
BD2
  3
ACMDICTIONARY
350
7C2
  3
AMG
350
7A8
  3
AMGSNAPSETTINGS
350
895
  3
DWGPROPS
350
6D04
1001
ACAD
1000
TREAT_AS_HARD
1070
     0
  0
DICTIONARY
  5
6C50
330
2
100
AcDbDictionary
280
     1
281
     1
  3
ACAD_LAYERFILTERS
360
6C54
  3
ACLYDICTIONARY
360
6C53
  0
DICTIONARY
  5
708
330
1E
100
AcDbDictionary
280
     1
281
     1
  3
ACAD_LAYOUTSELFREF
360
4E3B
1001
ACAD
1000
TREAT_AS_HARD
1070
     1
  0
DICTIONARY
  5
70A
330
1A
100
AcDbDictionary
280
     1
281
     1
  3
ACAD_LAYOUTSELFREF
360
4E3A
1001
ACAD
1000
TREAT_AS_HARD
1070
     1
  0
DICTIONARY
  5
628F
102
{ACAD_REACTORS
330
C
102
}
330
C
100
AcDbDictionary
281
     1
  0
DICTIONARY
  5
D
102
{ACAD_REACTORS
330
C
102
}
330
C
100
AcDbDictionary
281
     1
1001
ACAD
1000
TREAT_AS_HARD
1070
     0
  0
DICTIONARY
  5
3CB
102
{ACAD_REACTORS
330
C
102
}
330
C
100
AcDbDictionary
281
     1
  3
PLOT
350
3CC
1001
ACAD
1000
TREAT_AS_HARD
1070
     0
  0
DICTIONARY
  5
19
102
{ACAD_REACTORS
330
C
102
}
330
C
100
AcDbDictionary
281
     1
  3
Layout1
350
B34
  3
Model
350
B33
1001
ACAD
1000
TREAT_AS_HARD
1070
     0
  0
DICTIONARY
  5
628E
102
{ACAD_REACTORS
330
C
102
}
330
C
100
AcDbDictionary
281
     1
  0
DICTIONARY
  5
16
102
{ACAD_REACTORS
330
C
102
}
330
C
100
AcDbDictionary
281
     1
  3
STANDARD
350
17
1001
ACAD
1000
TREAT_AS_HARD
1070
     0
  0
DICTIONARY
  5
18
102
{ACAD_REACTORS
330
C
102
}
330
C
100
AcDbDictionary
281
     1
1001
ACAD
1000
TREAT_AS_HARD
1070
     0
  0
ACDBDICTIONARYWDFLT
  5
B31
102
{ACAD_REACTORS
330
C
102
}
330
C
100
AcDbDictionary
281
     1
  3
Normal
350
B32
100
AcDbDictionaryWithDefault
340
B32
  0
DICTIONARY
  5
6290
102
{ACAD_REACTORS
330
C
102
}
330
C
100
AcDbDictionary
281
     1
  3
Standard
350
6291
  0
DICTIONARY
  5
6D05
102
{ACAD_REACTORS
330
C
102
}
330
C
100
AcDbDictionary
281
     1
  0
DICTIONARY
  5
BD2
102
{ACAD_REACTORS
330
C
102
}
330
C
100
AcDbDictionary
281
     1
  3
CTABLESTYLE
350
6C72
  3
DIMASSOC
350
BD4
  3
INDEXCTL
350
BD3
  3
PROJECTNAME
350
6C73
  0
DICTIONARY
  5
7C2
102
{ACAD_REACTORS
330
C
102
}
330
C
100
AcDbDictionary
281
     1
  3
ACMSTDDICTIONARY
350
7C8
  3
AMDTSECTSYM_ARROWCOLOR
350
629C
1001
ACAD
1000
TREAT_AS_HARD
1070
     0
  0
DICTIONARY
  5
7A8
102
{ACAD_REACTORS
330
C
102
}
330
C
100
AcDbDictionary
281
     1
1001
ACAD
1000
TREAT_AS_HARD
1070
     0
  0
DICTIONARY
  5
895
102
{ACAD_REACTORS
330
C
102
}
330
C
100
AcDbDictionary
281
     1
1001
ACAD
1000
TREAT_AS_HARD
1070
     0
  0
XRECORD
  5
6D04
102
{ACAD_REACTORS
330
C
102
}
330
C
100
AcDbXrecord
280
     1
  1
DWGPROPS COOKIE
  2

  3

  4

  6

  7

  8

  9

300
AmdtFileType=84
301
=
302
=
303
=
304
=
305
=
306
=
307
=
308
=
309
=
 40
0.4485738078703704
 41
2450294.602131481
 42
2453388.430465694
  1

 90
        1
  0
DICTIONARY
  5
6C54
102
{ACAD_REACTORS
330
6C50
102
}
330
6C50
100
AcDbDictionary
281
     1
  0
DICTIONARY
  5
6C53
102
{ACAD_REACTORS
330
6C50
102
}
330
6C50
100
AcDbDictionary
281
     1
1001
ACAD
1000
<All
  0
XRECORD
  5
4E3B
102
{ACAD_REACTORS
330
708
102
}
330
708
100
AcDbXrecord
280
     1
340
1E
  0
XRECORD
  5
4E3A
102
{ACAD_REACTORS
330
70A
102
}
330
70A
100
AcDbXrecord
280
     1
340
1A
  0
IMAGEDEF
  5
3CC
102
{ACAD_REACTORS
330
3CB
102
}
330
3CB
100
AcDbRasterImageDef
 90
        0
  1
D:\CHI\plot.bmp
 10
694.0
 20
470.0
 11
0.264550269889837
 21
0.264550269889837
280
     1
281
     2
  0
LAYOUT
  5
B34
102
{ACAD_XDICTIONARY
360
6D08
102
}
102
{ACAD_REACTORS
330
19
102
}
330
19
100
AcDbPlotSettings
  1

  2
自動 PC-WM51 上的 Epson LQ-1070C+
  4

  6

 40
0.0
 41
0.0
 42
0.0
 43
0.0
 44
0.0
 45
0.0
 46
0.0
 47
0.0
 48
0.0
 49
0.0
140
0.0
141
0.0
142
1.0
143
1.0
 70
   688
 72
     0
 73
     0
 74
     5
  7

 75
    16
147
1.0
148
0.0
149
0.0
100
AcDbLayout
  1
Layout1
 70
     0
 71
     1
 10
0.0
 20
0.0
 11
12.0
 21
9.0
 12
101.9887994410416
 22
50.0
 32
155.412184630939
 14
1.000000000000000E+20
 24
1.000000000000000E+20
 34
1.000000000000000E+20
 15
-1.000000000000000E+20
 25
-1.000000000000000E+20
 35
-1.000000000000000E+20
146
0.0
 13
0.0
 23
0.0
 33
0.0
 16
1.0
 26
0.0
 36
0.0
 17
0.0
 27
1.0
 37
0.0
 76
     0
330
1A
  0
LAYOUT
  5
B33
102
{ACAD_XDICTIONARY
360
6D06
102
}
102
{ACAD_REACTORS
330
19
102
}
330
19
100
AcDbPlotSettings
  1

  2
DWF eView (optimized for viewing).pc3
  4
ISO_A4_(297.00_x_210.00_MM)
  6

 40
5.793749809265136
 41
17.79375076293945
 42
5.79376220703125
 43
17.79374694824219
 44
297.0
 45
210.0
 46
29.85
 47
0.0
 48
0.0
 49
0.0
140
0.0
141
0.0
142
1.0
143
0.6382186722569885
 70
 11956
 72
     1
 73
     0
 74
     1
  7

 75
     0
147
1.566861082994661
148
-200.235718928552
149
46.05760240554945
100
AcDbLayout
  1
Model
 70
     1
 71
     0
 10
0.0
 20
0.0
 11
12.0
 21
9.0
 12
0.0
 22
0.0
 32
0.0
 14
0.0
 24
0.0
 34
0.0
 15
0.0
 25
0.0
 35
0.0
146
0.0
 13
0.0
 23
0.0
 33
0.0
 16
1.0
 26
0.0
 36
0.0
 17
0.0
 27
1.0
 37
0.0
 76
     0
330
1E
  0
MLINESTYLE
  5
17
102
{ACAD_REACTORS
330
16
102
}
330
16
100
AcDbMlineStyle
  2
STANDARD
 70
     0
  3

 62
   256
 51
90.0
 52
90.0
 71
     2
 49
0.5
 62
   256
  6
BYLAYER
 49
-0.5
 62
   256
  6
BYLAYER
  0
ACDBPLACEHOLDER
  5
B32
102
{ACAD_REACTORS
330
B31
102
}
330
B31
  0
TABLESTYLE
  5
6291
102
{ACAD_REACTORS
330
6290
102
}
330
6290
100
AcDbTableStyle
  3
Standard
 70
     0
 71
     0
 40
1.5
 41
1.5
280
     0
281
     0
  7
STANDARD
140
4.5
170
     2
 62
     0
 63
     7
283
     0
274
    -2
284
     1
 64
     0
275
    -2
285
     1
 65
     0
276
    -2
286
     1
 66
     0
277
    -2
287
     1
 67
     0
278
    -2
288
     1
 68
     0
279
    -2
289
     1
 69
     0
  7
STANDARD
140
6.0
170
     5
 62
     0
 63
     7
283
     0
274
    -2
284
     1
 64
     0
275
    -2
285
     1
 65
     0
276
    -2
286
     1
 66
     0
277
    -2
287
     1
 67
     0
278
    -2
288
     1
 68
     0
279
    -2
289
     1
 69
     0
  7
STANDARD
140
4.5
170
     5
 62
     0
 63
     7
283
     0
274
    -2
284
     1
 64
     0
275
    -2
285
     1
 65
     0
276
    -2
286
     1
 66
     0
277
    -2
287
     1
 67
     0
278
    -2
288
     1
 68
     0
279
    -2
289
     1
 69
     0
  0
DICTIONARYVAR
  5
6C72
102
{ACAD_REACTORS
330
BD2
102
}
330
BD2
100
DictionaryVariables
280
     0
  1
STANDARD
  0
DICTIONARYVAR
  5
BD4
102
{ACAD_REACTORS
330
BD2
102
}
330
BD2
100
DictionaryVariables
280
     0
  1
1
  0
DICTIONARYVAR
  5
BD3
102
{ACAD_REACTORS
330
BD2
102
}
330
BD2
100
DictionaryVariables
280
     0
  1
0
  0
DICTIONARYVAR
  5
6C73
102
{ACAD_REACTORS
330
BD2
102
}
330
BD2
100
DictionaryVariables
280
     0
  1

  0
DICTIONARY
  5
7C8
102
{ACAD_REACTORS
330
7C2
102
}
330
7C2
100
AcDbDictionary
281
     1
1001
ACAD
1000
TREAT_AS_HARD
1070
     0
  0
XRECORD
  5
629C
102
{ACAD_REACTORS
330
7C2
102
}
330
7C2
100
AcDbXrecord
280
     1
 90
-1023410169
  0
DICTIONARY
  5
6D08
330
B34
100
AcDbDictionary
280
     1
281
     1
  3
ACAD_XREC_ROUNDTRIP
360
6D09
  0
DICTIONARY
  5
6D06
330
B33
100
AcDbDictionary
280
     1
281
     1
  3
ACAD_XREC_ROUNDTRIP
360
6D07
  0
XRECORD
  5
6D09
102
{ACAD_REACTORS
330
6D08
102
}
330
6D08
100
AcDbXrecord
280
     1
102
SHADEPLOT
 70
     0
102
SHADEPLOTRESLEVEL
 70
     2
102
SHADEPLOTCUSTOMDPI
 70
   300
  0
XRECORD
  5
6D07
102
{ACAD_REACTORS
330
6D06
102
}
330
6D06
100
AcDbXrecord
280
     1
102
SHADEPLOT
 70
     0
102
SHADEPLOTRESLEVEL
 70
     2
102
SHADEPLOTCUSTOMDPI
 70
   300
  0
ENDSEC
  0
EOF
